  0
SECTION
  2
HEADER
  9
$ACADVER
  1
AC1021
  9
$ACADMAINTVER
 70
    25
  9
$DWGCODEPAGE
  3
ANSI_1252
  9
$INSBASE
 10
3804.693056528511
 20
1444.863951419895
 30
0.0
  9
$EXTMIN
 10
1.000000000000000E+20
 20
1.000000000000000E+20
 30
1.000000000000000E+20
  9
$EXTMAX
 10
-1.000000000000000E+20
 20
-1.000000000000000E+20
 30
-1.000000000000000E+20
  9
$LIMMIN
 10
0.0
 20
0.0
  9
$LIMMAX
 10
12.0
 20
9.0
  9
$ORTHOMODE
 70
     0
  9
$REGENMODE
 70
     1
  9
$FILLMODE
 70
     1
  9
$QTEXTMODE
 70
     0
  9
$MIRRTEXT
 70
     1
  9
$LTSCALE
 40
1.0
  9
$ATTMODE
 70
     1
  9
$TEXTSIZE
 40
0.2
  9
$TRACEWID
 40
0.05
  9
$TEXTSTYLE
  7
Standard
  9
$CLAYER
  8
Graypants_Ohio32
  9
$CELTYPE
  6
ByLayer
  9
$CECOLOR
 62
   256
  9
$CELTSCALE
 40
1.0
  9
$DISPSILH
 70
     0
  9
$DIMSCALE
 40
1.0
  9
$DIMASZ
 40
0.18
  9
$DIMEXO
 40
0.0625
  9
$DIMDLI
 40
0.38
  9
$DIMRND
 40
0.0
  9
$DIMDLE
 40
0.0
  9
$DIMEXE
 40
0.18
  9
$DIMTP
 40
0.0
  9
$DIMTM
 40
0.0
  9
$DIMTXT
 40
0.18
  9
$DIMCEN
 40
0.09
  9
$DIMTSZ
 40
0.0
  9
$DIMTOL
 70
     0
  9
$DIMLIM
 70
     0
  9
$DIMTIH
 70
     1
  9
$DIMTOH
 70
     1
  9
$DIMSE1
 70
     0
  9
$DIMSE2
 70
     0
  9
$DIMTAD
 70
     0
  9
$DIMZIN
 70
     0
  9
$DIMBLK
  1

  9
$DIMASO
 70
     1
  9
$DIMSHO
 70
     1
  9
$DIMPOST
  1

  9
$DIMAPOST
  1

  9
$DIMALT
 70
     0
  9
$DIMALTD
 70
     2
  9
$DIMALTF
 40
25.4
  9
$DIMLFAC
 40
1.0
  9
$DIMTOFL
 70
     0
  9
$DIMTVP
 40
0.0
  9
$DIMTIX
 70
     0
  9
$DIMSOXD
 70
     0
  9
$DIMSAH
 70
     0
  9
$DIMBLK1
  1

  9
$DIMBLK2
  1

  9
$DIMSTYLE
  2
STANDARD_ACAD
  9
$DIMCLRD
 70
     0
  9
$DIMCLRE
 70
     0
  9
$DIMCLRT
 70
     0
  9
$DIMTFAC
 40
1.0
  9
$DIMGAP
 40
0.09
  9
$DIMJUST
 70
     0
  9
$DIMSD1
 70
     0
  9
$DIMSD2
 70
     0
  9
$DIMTOLJ
 70
     1
  9
$DIMTZIN
 70
     0
  9
$DIMALTZ
 70
     0
  9
$DIMALTTZ
 70
     0
  9
$DIMUPT
 70
     0
  9
$DIMDEC
 70
     4
  9
$DIMTDEC
 70
     4
  9
$DIMALTU
 70
     2
  9
$DIMALTTD
 70
     2
  9
$DIMTXSTY
  7
Standard
  9
$DIMAUNIT
 70
     0
  9
$DIMADEC
 70
     0
  9
$DIMALTRND
 40
0.0
  9
$DIMAZIN
 70
     0
  9
$DIMDSEP
 70
    46
  9
$DIMATFIT
 70
     3
  9
$DIMFRAC
 70
     0
  9
$DIMLDRBLK
  1

  9
$DIMLUNIT
 70
     2
  9
$DIMLWD
 70
    -2
  9
$DIMLWE
 70
    -2
  9
$DIMTMOVE
 70
     2
  9
$DIMFXL
 40
1.0
  9
$DIMFXLON
 70
     0
  9
$DIMJOGANG
 40
0.7853981633974483
  9
$DIMTFILL
 70
     0
  9
$DIMTFILLCLR
 70
     0
  9
$DIMARCSYM
 70
     0
  9
$DIMLTYPE
  6

  9
$DIMLTEX1
  6

  9
$DIMLTEX2
  6

  9
$LUNITS
 70
     2
  9
$LUPREC
 70
     3
  9
$SKETCHINC
 40
0.1
  9
$FILLETRAD
 40
0.5
  9
$AUNITS
 70
     0
  9
$AUPREC
 70
     0
  9
$MENU
  1
.
  9
$ELEVATION
 40
0.0
  9
$PELEVATION
 40
0.0
  9
$THICKNESS
 40
0.0
  9
$LIMCHECK
 70
     0
  9
$CHAMFERA
 40
0.0
  9
$CHAMFERB
 40
0.0
  9
$CHAMFERC
 40
0.0
  9
$CHAMFERD
 40
0.0
  9
$SKPOLY
 70
     0
  9
$TDCREATE
 40
2460864.499374305
  9
$TDUCREATE
 40
2460864.832707639
  9
$TDUPDATE
 40
2460864.499403576
  9
$TDUUPDATE
 40
2460864.83273691
  9
$TDINDWG
 40
0.0000000116
  9
$TDUSRTIMER
 40
0.0000000116
  9
$USRTIMER
 70
     1
  9
$ANGBASE
 50
0.0
  9
$ANGDIR
 70
     0
  9
$PDMODE
 70
     0
  9
$PDSIZE
 40
0.0
  9
$PLINEWID
 40
0.0
  9
$SPLFRAME
 70
     0
  9
$SPLINETYPE
 70
     6
  9
$SPLINESEGS
 70
     8
  9
$HANDSEED
  5
3EB
  9
$SURFTAB1
 70
     6
  9
$SURFTAB2
 70
     6
  9
$SURFTYPE
 70
     6
  9
$SURFU
 70
     6
  9
$SURFV
 70
     6
  9
$UCSBASE
  2

  9
$UCSNAME
  2

  9
$UCSORG
 10
0.0
 20
0.0
 30
0.0
  9
$UCSXDIR
 10
1.0
 20
0.0
 30
0.0
  9
$UCSYDIR
 10
0.0
 20
1.0
 30
0.0
  9
$UCSORTHOREF
  2

  9
$UCSORTHOVIEW
 70
     0
  9
$UCSORGTOP
 10
0.0
 20
0.0
 30
0.0
  9
$UCSORGBOTTOM
 10
0.0
 20
0.0
 30
0.0
  9
$UCSORGLEFT
 10
0.0
 20
0.0
 30
0.0
  9
$UCSORGRIGHT
 10
0.0
 20
0.0
 30
0.0
  9
$UCSORGFRONT
 10
0.0
 20
0.0
 30
0.0
  9
$UCSORGBACK
 10
0.0
 20
0.0
 30
0.0
  9
$PUCSBASE
  2

  9
$PUCSNAME
  2

  9
$PUCSORG
 10
0.0
 20
0.0
 30
0.0
  9
$PUCSXDIR
 10
1.0
 20
0.0
 30
0.0
  9
$PUCSYDIR
 10
0.0
 20
1.0
 30
0.0
  9
$PUCSORTHOREF
  2

  9
$PUCSORTHOVIEW
 70
     0
  9
$PUCSORGTOP
 10
0.0
 20
0.0
 30
0.0
  9
$PUCSORGBOTTOM
 10
0.0
 20
0.0
 30
0.0
  9
$PUCSORGLEFT
 10
0.0
 20
0.0
 30
0.0
  9
$PUCSORGRIGHT
 10
0.0
 20
0.0
 30
0.0
  9
$PUCSORGFRONT
 10
0.0
 20
0.0
 30
0.0
  9
$PUCSORGBACK
 10
0.0
 20
0.0
 30
0.0
  9
$USERI1
 70
     0
  9
$USERI2
 70
     0
  9
$USERI3
 70
     0
  9
$USERI4
 70
     0
  9
$USERI5
 70
     0
  9
$USERR1
 40
0.0
  9
$USERR2
 40
0.0
  9
$USERR3
 40
0.0
  9
$USERR4
 40
0.0
  9
$USERR5
 40
0.0
  9
$WORLDVIEW
 70
     1
  9
$SHADEDGE
 70
     3
  9
$SHADEDIF
 70
    70
  9
$TILEMODE
 70
     1
  9
$MAXACTVP
 70
    64
  9
$PINSBASE
 10
0.0
 20
0.0
 30
0.0
  9
$PLIMCHECK
 70
     0
  9
$PEXTMIN
 10
1.000000000000000E+20
 20
1.000000000000000E+20
 30
1.000000000000000E+20
  9
$PEXTMAX
 10
-1.000000000000000E+20
 20
-1.000000000000000E+20
 30
-1.000000000000000E+20
  9
$PLIMMIN
 10
0.0
 20
0.0
  9
$PLIMMAX
 10
12.0
 20
9.0
  9
$UNITMODE
 70
     0
  9
$VISRETAIN
 70
     1
  9
$PLINEGEN
 70
     0
  9
$PSLTSCALE
 70
     1
  9
$TREEDEPTH
 70
  3020
  9
$CMLSTYLE
  2
Standard
  9
$CMLJUST
 70
     0
  9
$CMLSCALE
 40
1.0
  9
$PROXYGRAPHICS
 70
     1
  9
$MEASUREMENT
 70
     1
  9
$CELWEIGHT
370
    -1
  9
$ENDCAPS
280
     0
  9
$JOINSTYLE
280
     0
  9
$LWDISPLAY
290
     0
  9
$INSUNITS
 70
     4
  9
$HYPERLINKBASE
  1

  9
$STYLESHEET
  1

  9
$XEDIT
290
     1
  9
$CEPSNTYPE
380
     0
  9
$PSTYLEMODE
290
     1
  9
$FINGERPRINTGUID
  2
{cc42188b-bd33-8046-892c-49b77bea7c64}
  9
$VERSIONGUID
  2
{FAEB1C32-E019-11D5-929B-00C0DF256EC4}
  9
$EXTNAMES
290
     1
  9
$PSVPSCALE
 40
0.0
  9
$OLESTARTUP
290
     0
  9
$SORTENTS
280
   127
  9
$INDEXCTL
280
     0
  9
$HIDETEXT
280
     1
  9
$XCLIPFRAME
290
     0
  9
$HALOGAP
280
     0
  9
$OBSCOLOR
 70
   257
  9
$OBSLTYPE
280
     0
  9
$INTERSECTIONDISPLAY
280
     0
  9
$INTERSECTIONCOLOR
 70
   257
  9
$DIMASSOC
280
     2
  9
$PROJECTNAME
  1

  9
$CAMERADISPLAY
290
     0
  9
$LENSLENGTH
 40
50.0
  9
$CAMERAHEIGHT
 40
0.0
  9
$STEPSPERSEC
 40
2.0
  9
$STEPSIZE
 40
6.0
  9
$3DDWFPREC
 40
2.0
  9
$PSOLWIDTH
 40
0.25
  9
$PSOLHEIGHT
 40
4.0
  9
$LOFTANG1
 40
1.570796326794897
  9
$LOFTANG2
 40
1.570796326794897
  9
$LOFTMAG1
 40
0.0
  9
$LOFTMAG2
 40
0.0
  9
$LOFTPARAM
 70
     7
  9
$LOFTNORMALS
280
     1
  9
$LATITUDE
 40
37.795
  9
$LONGITUDE
 40
-122.394
  9
$NORTHDIRECTION
 40
0.0
  9
$TIMEZONE
 70
 -8000
  9
$LIGHTGLYPHDISPLAY
280
     1
  9
$TILEMODELIGHTSYNCH
280
     1
  9
$CMATERIAL
347
44
  9
$SOLIDHIST
280
     0
  9
$SHOWHIST
280
     1
  9
$DWFFRAME
280
     2
  9
$DGNFRAME
280
     2
  9
$REALWORLDSCALE
290
     1
  9
$INTERFERECOLOR
 62
   256
  9
$CSHADOW
280
     0
  9
$SHADOWPLANELOCATION
 40
0.0
  0
ENDSEC
  0
SECTION
  2
CLASSES
  0
CLASS
  1
ACDBDICTIONARYWDFLT
  2
AcDbDictionaryWithDefault
  3
ObjectDBX Classes
 90
        0
 91
        3
280
     0
281
     0
  0
CLASS
  1
VISUALSTYLE
  2
AcDbVisualStyle
  3
ObjectDBX Classes
 90
     4095
 91
        3
280
     0
281
     0
  0
CLASS
  1
MATERIAL
  2
AcDbMaterial
  3
ObjectDBX Classes
 90
     1153
 91
        3
280
     0
281
     0
  0
CLASS
  1
SCALE
  2
AcDbScale
  3
ObjectDBX Classes
 90
     1153
 91
        3
280
     0
281
     0
  0
CLASS
  1
TABLESTYLE
  2
AcDbTableStyle
  3
ObjectDBX Classes
 90
     4095
 91
        3
280
     0
281
     0
  0
CLASS
  1
MLEADERSTYLE
  2
AcDbMLeaderStyle
  3
ACDB_MLEADERSTYLE_CLASS
 90
     4095
 91
        3
280
     0
281
     0
  0
CLASS
  1
SUN
  2
AcDbSun
  3
SCENEOE
 90
     1153
 91
        3
280
     0
281
     0
  0
CLASS
  1
DICTIONARYVAR
  2
AcDbDictionaryVar
  3
ObjectDBX Classes
 90
        0
 91
        3
280
     0
281
     0
  0
CLASS
  1
CELLSTYLEMAP
  2
AcDbCellStyleMap
  3
ObjectDBX Classes
 90
     1152
 91
        3
280
     0
281
     0
  0
ENDSEC
  0
SECTION
  2
TABLES
  0
TABLE
  2
VPORT
  5
8
330
0
100
AcDbSymbolTable
 70
     1
  0
VPORT
  5
29
330
8
100
AcDbSymbolTableRecord
100
AcDbViewportTableRecord
  2
*Active
 70
     0
 10
0.0
 20
0.0
 11
1.0
 21
1.0
 12
10.42990654205607
 22
4.5
 13
0.0
 23
0.0
 14
0.5
 24
0.5
 15
0.5
 25
0.5
 16
0.0
 26
0.0
 36
1.0
 17
0.0
 27
0.0
 37
0.0
 40
9.0
 41
1.972972972850329
 42
50.0
 43
0.0
 44
0.0
 50
0.0
 51
0.0
 71
     0
 72
   100
 73
     1
 74
     3
 75
     0
 76
     0
 77
     0
 78
     0
281
     0
 65
     1
110
0.0
120
0.0
130
0.0
111
1.0
121
0.0
131
0.0
112
0.0
122
1.0
132
0.0
 79
     0
146
0.0
348
2F
 60
     3
 61
     5
292
     1
282
     1
141
0.0
142
0.0
 63
   250
361
6D
  0
ENDTAB
  0
TABLE
  2
LTYPE
  5
5
330
0
100
AcDbSymbolTable
 70
     2
  0
LTYPE
  5
14
330
5
100
AcDbSymbolTableRecord
100
AcDbLinetypeTableRecord
  2
ByBlock
 70
     0
  3

 72
    65
 73
     0
 40
0.0
  0
LTYPE
  5
15
330
5
100
AcDbSymbolTableRecord
100
AcDbLinetypeTableRecord
  2
ByLayer
 70
     0
  3

 72
    65
 73
     0
 40
0.0
  0
LTYPE
  5
16
330
5
100
AcDbSymbolTableRecord
100
AcDbLinetypeTableRecord
  2
Continuous
 70
     0
  3
Solid line
 72
    65
 73
     0
 40
0.0
  0
LTYPE
  5
380
330
5
100
AcDbSymbolTableRecord
100
AcDbLinetypeTableRecord
  2
Hidden
 70
     0
  3

 72
    65
 73
     2
 40
4.0
 49
2.0
 74
     0
 49
-2.0
 74
     0
  0
ENDTAB
  0
TABLE
  2
LAYER
  5
2
330
0
100
AcDbSymbolTable
 70
     2
  0
LAYER
  5
10
330
2
100
AcDbSymbolTableRecord
100
AcDbLayerTableRecord
  2
0
 70
     0
 62
     7
  6
Continuous
370
    -3
390
F
347
46
  0
LAYER
  5
6E
330
2
100
AcDbSymbolTableRecord
100
AcDbLayerTableRecord
  2
Graypants_Ohio32
 70
     0
 62
    36
420
  8866048
  6
Continuous
370
    -3
390
F
347
46
  0
ENDTAB
  0
TABLE
  2
STYLE
  5
3
330
0
100
AcDbSymbolTable
 70
     1
  0
STYLE
  5
11
330
3
100
AcDbSymbolTableRecord
100
AcDbTextStyleTableRecord
  2
Standard
 70
     0
 40
0.0
 41
1.0
 50
0.0
 71
     0
 42
0.2
  3
txt
  4

  0
ENDTAB
  0
TABLE
  2
VIEW
  5
6
330
0
100
AcDbSymbolTable
 70
     0
  0
ENDTAB
  0
TABLE
  2
UCS
  5
7
330
0
100
AcDbSymbolTable
 70
     0
  0
ENDTAB
  0
TABLE
  2
APPID
  5
9
330
0
100
AcDbSymbolTable
 70
     2
  0
APPID
  5
12
330
9
100
AcDbSymbolTableRecord
100
AcDbRegAppTableRecord
  2
ACAD
 70
     0
  0
APPID
  5
3E3
330
9
100
AcDbSymbolTableRecord
100
AcDbRegAppTableRecord
  2
ACAD_MLEADERVER
 70
     0
  0
ENDTAB
  0
TABLE
  2
DIMSTYLE
  5
A
330
0
100
AcDbSymbolTable
 70
     1
100
AcDbDimStyleTable
  0
DIMSTYLE
105
27
330
A
100
AcDbSymbolTableRecord
100
AcDbDimStyleTableRecord
  2
STANDARD_ACAD
 70
     0
178
     0
340
11
  0
ENDTAB
  0
TABLE
  2
BLOCK_RECORD
  5
1
330
0
100
AcDbSymbolTable
 70
     1
  0
BLOCK_RECORD
  5
1F
330
1
100
AcDbSymbolTableRecord
100
AcDbBlockTableRecord
  2
*Model_Space
340
22
 70
     0
280
     1
281
     0
  0
BLOCK_RECORD
  5
1B
330
1
100
AcDbSymbolTableRecord
100
AcDbBlockTableRecord
  2
*Paper_Space
340
1E
 70
     0
280
     1
281
     0
  0
BLOCK_RECORD
  5
23
330
1
100
AcDbSymbolTableRecord
100
AcDbBlockTableRecord
  2
*Paper_Space0
340
26
 70
     0
280
     1
281
     0
  0
ENDTAB
  0
ENDSEC
  0
SECTION
  2
BLOCKS
  0
BLOCK
  5
20
330
1F
100
AcDbEntity
  8
0
100
AcDbBlockBegin
  2
*Model_Space
 70
     0
 10
0.0
 20
0.0
 30
0.0
  3
*Model_Space
  1

  0
ENDBLK
  5
21
330
1F
100
AcDbEntity
  8
0
100
AcDbBlockEnd
  0
BLOCK
  5
1C
330
1B
100
AcDbEntity
 67
     1
  8
0
100
AcDbBlockBegin
  2
*Paper_Space
 70
     0
 10
0.0
 20
0.0
 30
0.0
  3
*Paper_Space
  1

  0
ENDBLK
  5
1D
330
1B
100
AcDbEntity
 67
     1
  8
0
100
AcDbBlockEnd
  0
BLOCK
  5
24
330
23
100
AcDbEntity
  8
0
100
AcDbBlockBegin
  2
*Paper_Space0
 70
     0
 10
0.0
 20
0.0
 30
0.0
  3
*Paper_Space0
  1

  0
ENDBLK
  5
25
330
23
100
AcDbEntity
  8
0
100
AcDbBlockEnd
  0
ENDSEC
  0
SECTION
  2
ENTITIES
  0
CIRCLE
  5
6F
330
1F
100
AcDbEntity
  8
Graypants_Ohio32
100
AcDbCircle
 10
0.0
 20
0.0
 30
0.0
 40
399.0481306311922
  0
CIRCLE
  5
70
330
1F
100
AcDbEntity
  8
Graypants_Ohio32
100
AcDbCircle
 10
0.0
 20
0.0
 30
0.0
 40
400.5140826683346
  0
CIRCLE
  5
71
330
1F
100
AcDbEntity
  8
Graypants_Ohio32
100
AcDbCircle
 10
0.0
 20
0.0
 30
0.0
 40
401.5826912564225
  0
CIRCLE
  5
72
330
1F
100
AcDbEntity
  8
Graypants_Ohio32
100
AcDbCircle
 10
0.0
 20
-0.0000000000007621
 30
0.0
 40
402.3595756276191
  0
CIRCLE
  5
73
330
1F
100
AcDbEntity
  8
Graypants_Ohio32
100
AcDbCircle
 10
0.0
 20
0.0
 30
0.0
 40
397.1890683268357
  0
CIRCLE
  5
74
330
1F
100
AcDbEntity
  8
Graypants_Ohio32
100
AcDbCircle
 10
0.0
 20
0.0
 30
0.0
 40
394.9626011348882
  0
CIRCLE
  5
75
330
1F
100
AcDbEntity
  8
Graypants_Ohio32
100
AcDbCircle
 10
0.0
 20
0.0
 30
0.0
 40
392.3792401001556
  0
CIRCLE
  5
76
330
1F
100
AcDbEntity
  8
Graypants_Ohio32
100
AcDbCircle
 10
0.0
 20
0.0
 30
0.0
 40
389.4464677201686
  0
CIRCLE
  5
77
330
1F
100
AcDbEntity
  8
Graypants_Ohio32
100
AcDbCircle
 10
0.0
 20
0.0
 30
0.0
 40
386.1706221080822
  0
CIRCLE
  5
78
330
1F
100
AcDbEntity
  8
Graypants_Ohio32
100
AcDbCircle
 10
0.0
 20
0.0
 30
0.0
 40
378.6092309310116
  0
CIRCLE
  5
79
330
1F
100
AcDbEntity
  8
Graypants_Ohio32
100
AcDbCircle
 10
0.0
 20
0.0
 30
0.0
 40
382.5568829314216
  0
CIRCLE
  5
7A
330
1F
100
AcDbEntity
  8
Graypants_Ohio32
100
AcDbCircle
 10
0.0
 20
0.0
 30
0.0
 40
374.3304232493683
  0
CIRCLE
  5
7B
330
1F
100
AcDbEntity
  8
Graypants_Ohio32
100
AcDbCircle
 10
0.0
 20
0.0
 30
0.0
 40
369.7219176366634
  0
CIRCLE
  5
7C
330
1F
100
AcDbEntity
  8
Graypants_Ohio32
100
AcDbCircle
 10
0.0
 20
0.0
 30
0.0
 40
364.7837405204482
  0
CIRCLE
  5
7D
330
1F
100
AcDbEntity
  8
Graypants_Ohio32
100
AcDbCircle
 10
0.0
 20
0.0
 30
0.0
 40
359.5142781496324
  0
CIRCLE
  5
7E
330
1F
100
AcDbEntity
  8
Graypants_Ohio32
100
AcDbCircle
 10
0.0
 20
0.0
 30
0.0
 40
353.9100322648228
  0
CIRCLE
  5
7F
330
1F
100
AcDbEntity
  8
Graypants_Ohio32
100
AcDbCircle
 10
0.0
 20
0.0
 30
0.0
 40
347.963105178118
  0
CIRCLE
  5
80
330
1F
100
AcDbEntity
  8
Graypants_Ohio32
100
AcDbCircle
 10
0.0
 20
0.0
 30
0.0
 40
341.6609337478949
  0
CIRCLE
  5
81
330
1F
100
AcDbEntity
  8
Graypants_Ohio32
100
AcDbCircle
 10
0.0
 20
0.0
 30
0.0
 40
334.9923996181096
  0
CIRCLE
  5
82
330
1F
100
AcDbEntity
  8
Graypants_Ohio32
100
AcDbCircle
 10
0.0
 20
0.0
 30
0.0
 40
327.9719059944182
  0
CIRCLE
  5
83
330
1F
100
AcDbEntity
  8
Graypants_Ohio32
100
AcDbCircle
 10
0.0
 20
0.0
 30
0.0
 40
320.7012455231597
  0
CIRCLE
  5
84
330
1F
100
AcDbEntity
  8
Graypants_Ohio32
100
AcDbCircle
 10
0.0
 20
0.0
 30
0.0
 40
312.2879766185215
  0
LINE
  5
85
330
1F
100
AcDbEntity
  8
Graypants_Ohio32
100
AcDbLine
 10
-392.3792401001556
 20
-1497.987993467475
 30
0.0
 11
392.3792401001556
 21
-1497.987993467475
 31
0.0
  0
LINE
  5
86
330
1F
100
AcDbEntity
  8
Graypants_Ohio32
100
AcDbLine
 10
-389.4464677201686
 20
-1490.887993467477
 30
0.0
 11
389.4464677201686
 21
-1490.887993467477
 31
0.0
  0
LINE
  5
87
330
1F
100
AcDbEntity
  8
Graypants_Ohio32
100
AcDbLine
 10
-386.1706221080822
 20
-1483.787993467475
 30
0.0
 11
386.1706221080822
 21
-1483.787993467475
 31
0.0
  0
LINE
  5
88
330
1F
100
AcDbEntity
  8
Graypants_Ohio32
100
AcDbLine
 10
-382.5568829314216
 20
-1476.687993467473
 30
0.0
 11
382.5568829314216
 21
-1476.687993467473
 31
0.0
  0
LINE
  5
89
330
1F
100
AcDbEntity
  8
Graypants_Ohio32
100
AcDbLine
 10
-378.6092309310116
 20
-1469.587993467474
 30
0.0
 11
378.6092309310116
 21
-1469.587993467474
 31
0.0
  0
LINE
  5
8A
330
1F
100
AcDbEntity
  8
Graypants_Ohio32
100
AcDbLine
 10
-374.3304232493683
 20
-1462.487993467475
 30
0.0
 11
374.3304232493683
 21
-1462.487993467475
 31
0.0
  0
LINE
  5
8B
330
1F
100
AcDbEntity
  8
Graypants_Ohio32
100
AcDbLine
 10
-369.7219176366634
 20
-1455.387993467473
 30
0.0
 11
369.7219176366634
 21
-1455.387993467473
 31
0.0
  0
LINE
  5
8C
330
1F
100
AcDbEntity
  8
Graypants_Ohio32
100
AcDbLine
 10
-364.7837405204482
 20
-1448.287993467471
 30
0.0
 11
364.7837405204482
 21
-1448.287993467471
 31
0.0
  0
LINE
  5
8D
330
1F
100
AcDbEntity
  8
Graypants_Ohio32
100
AcDbLine
 10
-359.5142781496324
 20
-1441.187993467473
 30
0.0
 11
359.5142781496324
 21
-1441.187993467473
 31
0.0
  0
LINE
  5
8E
330
1F
100
AcDbEntity
  8
Graypants_Ohio32
100
AcDbLine
 10
-353.9100322648228
 20
-1434.087993467474
 30
0.0
 11
353.9100322648228
 21
-1434.087993467474
 31
0.0
  0
LINE
  5
8F
330
1F
100
AcDbEntity
  8
Graypants_Ohio32
100
AcDbLine
 10
-347.963105178118
 20
-1426.987993467472
 30
0.0
 11
347.963105178118
 21
-1426.987993467472
 31
0.0
  0
LINE
  5
90
330
1F
100
AcDbEntity
  8
Graypants_Ohio32
100
AcDbLine
 10
-341.6609337478949
 20
-1419.88799346747
 30
0.0
 11
341.6609337478949
 21
-1419.88799346747
 31
0.0
  0
LINE
  5
91
330
1F
100
AcDbEntity
  8
Graypants_Ohio32
100
AcDbLine
 10
-334.9923996181096
 20
-1412.787993467471
 30
0.0
 11
334.9923996181096
 21
-1412.787993467471
 31
0.0
  0
LINE
  5
92
330
1F
100
AcDbEntity
  8
Graypants_Ohio32
100
AcDbLine
 10
-327.9719059944182
 20
-1405.687993467473
 30
0.0
 11
327.9719059944182
 21
-1405.687993467473
 31
0.0
  0
LINE
  5
93
330
1F
100
AcDbEntity
  8
Graypants_Ohio32
100
AcDbLine
 10
-320.7012455231597
 20
-1398.58799346747
 30
0.0
 11
320.7012455231597
 21
-1398.58799346747
 31
0.0
  0
LINE
  5
94
330
1F
100
AcDbEntity
  8
Graypants_Ohio32
100
AcDbLine
 10
-312.2879766185215
 20
-1391.487993467468
 30
0.0
 11
312.2879766185215
 21
-1391.487993467468
 31
0.0
  0
LINE
  5
95
330
1F
100
AcDbEntity
  8
Graypants_Ohio32
100
AcDbLine
 10
-394.9626011348882
 20
-1505.087993467474
 30
0.0
 11
394.9626011348882
 21
-1505.087993467474
 31
0.0
  0
LINE
  5
96
330
1F
100
AcDbEntity
  8
Graypants_Ohio32
100
AcDbLine
 10
-397.1890683268357
 20
-1512.187993467476
 30
0.0
 11
397.1890683268357
 21
-1512.187993467476
 31
0.0
  0
LINE
  5
97
330
1F
100
AcDbEntity
  8
Graypants_Ohio32
100
AcDbLine
 10
-399.0481306311922
 20
-1519.287993467478
 30
0.0
 11
399.0481306311922
 21
-1519.287993467478
 31
0.0
  0
LINE
  5
98
330
1F
100
AcDbEntity
  8
Graypants_Ohio32
100
AcDbLine
 10
-400.5140826683346
 20
-1526.387993467477
 30
0.0
 11
400.5140826683346
 21
-1526.387993467477
 31
0.0
  0
LINE
  5
99
330
1F
100
AcDbEntity
  8
Graypants_Ohio32
100
AcDbLine
 10
-401.5826912564225
 20
-1533.487993467475
 30
0.0
 11
401.5826912564225
 21
-1533.487993467475
 31
0.0
  0
LINE
  5
9A
330
1F
100
AcDbEntity
  8
Graypants_Ohio32
100
AcDbLine
 10
-402.3595756276191
 20
-1540.587993467478
 30
0.0
 11
402.3595756276191
 21
-1540.587993467478
 31
0.0
  0
LINE
  5
9B
330
1F
100
AcDbEntity
  8
Graypants_Ohio32
100
AcDbLine
 10
-402.3595756276191
 20
-1547.68799346748
 30
0.0
 11
402.3595756276191
 21
-1547.68799346748
 31
0.0
  0
LINE
  5
9C
330
1F
100
AcDbEntity
  8
Graypants_Ohio32
100
AcDbLine
 10
-402.3595756276191
 20
-1554.787993467478
 30
0.0
 11
402.3595756276191
 21
-1554.787993467478
 31
0.0
  0
LINE
  5
9D
330
1F
100
AcDbEntity
  8
Graypants_Ohio32
100
AcDbLine
 10
-402.3595756276191
 20
-1561.887993467477
 30
0.0
 11
402.3595756276191
 21
-1561.887993467477
 31
0.0
  0
LINE
  5
9E
330
1F
100
AcDbEntity
  8
Graypants_Ohio32
100
AcDbLine
 10
-401.5826912564225
 20
-1576.087993467481
 30
0.0
 11
401.5826912564225
 21
-1576.087993467481
 31
0.0
  0
LINE
  5
9F
330
1F
100
AcDbEntity
  8
Graypants_Ohio32
100
AcDbLine
 10
-402.3595756276191
 20
-1568.987993467479
 30
0.0
 11
402.3595756276191
 21
-1568.987993467479
 31
0.0
  0
LINE
  5
A0
330
1F
100
AcDbEntity
  8
Graypants_Ohio32
100
AcDbLine
 10
-400.5140826683346
 20
-1583.18799346748
 30
0.0
 11
400.5140826683346
 21
-1583.18799346748
 31
0.0
  0
LINE
  5
A1
330
1F
100
AcDbEntity
  8
Graypants_Ohio32
100
AcDbLine
 10
-399.0481306311922
 20
-1590.287993467478
 30
0.0
 11
399.0481306311922
 21
-1590.287993467478
 31
0.0
  0
LINE
  5
A2
330
1F
100
AcDbEntity
  8
Graypants_Ohio32
100
AcDbLine
 10
-397.1890683268357
 20
-1597.387993467481
 30
0.0
 11
397.1890683268357
 21
-1597.387993467481
 31
0.0
  0
LINE
  5
A3
330
1F
100
AcDbEntity
  8
Graypants_Ohio32
100
AcDbLine
 10
-394.9626011348882
 20
-1604.487993467483
 30
0.0
 11
394.9626011348882
 21
-1604.487993467483
 31
0.0
  0
LINE
  5
A4
330
1F
100
AcDbEntity
  8
Graypants_Ohio32
100
AcDbLine
 10
-392.3792401001556
 20
-1611.587993467481
 30
0.0
 11
392.3792401001556
 21
-1611.587993467481
 31
0.0
  0
LINE
  5
A5
330
1F
100
AcDbEntity
  8
Graypants_Ohio32
100
AcDbLine
 10
-389.4464677201686
 20
-1618.68799346748
 30
0.0
 11
389.4464677201686
 21
-1618.68799346748
 31
0.0
  0
LINE
  5
A6
330
1F
100
AcDbEntity
  8
Graypants_Ohio32
100
AcDbLine
 10
-386.1706221080822
 20
-1625.787993467482
 30
0.0
 11
386.1706221080822
 21
-1625.787993467482
 31
0.0
  0
LINE
  5
A7
330
1F
100
AcDbEntity
  8
Graypants_Ohio32
100
AcDbLine
 10
-382.5568829314216
 20
-1632.887993467484
 30
0.0
 11
382.5568829314216
 21
-1632.887993467484
 31
0.0
  0
LINE
  5
A8
330
1F
100
AcDbEntity
  8
Graypants_Ohio32
100
AcDbLine
 10
-378.6092309310116
 20
-1639.987993467483
 30
0.0
 11
378.6092309310116
 21
-1639.987993467483
 31
0.0
  0
LINE
  5
A9
330
1F
100
AcDbEntity
  8
Graypants_Ohio32
100
AcDbLine
 10
-374.3304232493683
 20
-1647.087993467481
 30
0.0
 11
374.3304232493683
 21
-1647.087993467481
 31
0.0
  0
LINE
  5
AA
330
1F
100
AcDbEntity
  8
Graypants_Ohio32
100
AcDbLine
 10
-369.7219176366634
 20
-1654.187993467483
 30
0.0
 11
369.7219176366634
 21
-1654.187993467483
 31
0.0
  0
LINE
  5
AB
330
1F
100
AcDbEntity
  8
Graypants_Ohio32
100
AcDbLine
 10
-364.7837405204482
 20
-1661.287993467486
 30
0.0
 11
364.7837405204482
 21
-1661.287993467486
 31
0.0
  0
LINE
  5
AC
330
1F
100
AcDbEntity
  8
Graypants_Ohio32
100
AcDbLine
 10
-359.5142781496324
 20
-1668.387993467484
 30
0.0
 11
359.5142781496324
 21
-1668.387993467484
 31
0.0
  0
LINE
  5
AD
330
1F
100
AcDbEntity
  8
Graypants_Ohio32
100
AcDbLine
 10
-353.9100322648228
 20
-1675.487993467483
 30
0.0
 11
353.9100322648228
 21
-1675.487993467483
 31
0.0
  0
LINE
  5
AE
330
1F
100
AcDbEntity
  8
Graypants_Ohio32
100
AcDbLine
 10
-347.963105178118
 20
-1682.587993467485
 30
0.0
 11
347.963105178118
 21
-1682.587993467485
 31
0.0
  0
LINE
  5
AF
330
1F
100
AcDbEntity
  8
Graypants_Ohio32
100
AcDbLine
 10
-341.6609337478949
 20
-1689.687993467487
 30
0.0
 11
341.6609337478949
 21
-1689.687993467487
 31
0.0
  0
LINE
  5
B0
330
1F
100
AcDbEntity
  8
Graypants_Ohio32
100
AcDbLine
 10
-334.9923996181096
 20
-1696.787993467486
 30
0.0
 11
334.9923996181096
 21
-1696.787993467486
 31
0.0
  0
LINE
  5
B1
330
1F
100
AcDbEntity
  8
Graypants_Ohio32
100
AcDbLine
 10
-327.9719059944182
 20
-1703.887993467484
 30
0.0
 11
327.9719059944182
 21
-1703.887993467484
 31
0.0
  0
LINE
  5
B2
330
1F
100
AcDbEntity
  8
Graypants_Ohio32
100
AcDbLine
 10
-320.7012455231597
 20
-1710.987993467486
 30
0.0
 11
320.7012455231597
 21
-1710.987993467486
 31
0.0
  0
LINE
  5
B3
330
1F
100
AcDbEntity
  8
Graypants_Ohio32
100
AcDbLine
 10
-312.2879766185214
 20
-1718.087993467489
 30
0.0
 11
312.2879766185215
 21
-1718.087993467489
 31
0.0
  0
LINE
  5
B4
330
1F
100
AcDbEntity
  8
Graypants_Ohio32
100
AcDbLine
 10
-402.3595756276191
 20
-1547.68799346748
 30
0.0
 11
-402.3595756276191
 21
-1554.787993467478
 31
0.0
  0
LINE
  5
B5
330
1F
100
AcDbEntity
  8
Graypants_Ohio32
100
AcDbLine
 10
-312.2879766185215
 20
-1391.487993467468
 30
0.0
 11
-312.2879766185215
 21
-1398.58799346747
 31
0.0
  0
LINE
  5
B6
330
1F
100
AcDbEntity
  8
Graypants_Ohio32
100
AcDbLine
 10
-320.7012455231597
 20
-1398.58799346747
 30
0.0
 11
-320.7012455231597
 21
-1405.687993467473
 31
0.0
  0
LINE
  5
B7
330
1F
100
AcDbEntity
  8
Graypants_Ohio32
100
AcDbLine
 10
-369.7219176366634
 20
-1455.387993467473
 30
0.0
 11
-369.7219176366634
 21
-1462.487993467475
 31
0.0
  0
LINE
  5
B8
330
1F
100
AcDbEntity
  8
Graypants_Ohio32
100
AcDbLine
 10
-374.3304232493683
 20
-1462.487993467475
 30
0.0
 11
-374.3304232493683
 21
-1469.587993467474
 31
0.0
  0
LINE
  5
B9
330
1F
100
AcDbEntity
  8
Graypants_Ohio32
100
AcDbLine
 10
-378.6092309310116
 20
-1469.587993467474
 30
0.0
 11
-378.6092309310116
 21
-1476.687993467473
 31
0.0
  0
LINE
  5
BA
330
1F
100
AcDbEntity
  8
Graypants_Ohio32
100
AcDbLine
 10
-382.5568829314216
 20
-1476.687993467473
 30
0.0
 11
-382.5568829314216
 21
-1483.787993467475
 31
0.0
  0
LINE
  5
BB
330
1F
100
AcDbEntity
  8
Graypants_Ohio32
100
AcDbLine
 10
-386.1706221080822
 20
-1483.787993467475
 30
0.0
 11
-386.1706221080822
 21
-1490.887993467477
 31
0.0
  0
LINE
  5
BC
330
1F
100
AcDbEntity
  8
Graypants_Ohio32
100
AcDbLine
 10
-389.4464677201686
 20
-1490.887993467477
 30
0.0
 11
-389.4464677201686
 21
-1497.987993467475
 31
0.0
  0
LINE
  5
BD
330
1F
100
AcDbEntity
  8
Graypants_Ohio32
100
AcDbLine
 10
-392.3792401001556
 20
-1497.987993467475
 30
0.0
 11
-392.3792401001556
 21
-1505.087993467474
 31
0.0
  0
LINE
  5
BE
330
1F
100
AcDbEntity
  8
Graypants_Ohio32
100
AcDbLine
 10
-394.9626011348882
 20
-1505.087993467474
 30
0.0
 11
-394.9626011348882
 21
-1512.187993467476
 31
0.0
  0
LINE
  5
BF
330
1F
100
AcDbEntity
  8
Graypants_Ohio32
100
AcDbLine
 10
-397.1890683268357
 20
-1512.187993467476
 30
0.0
 11
-397.1890683268357
 21
-1519.287993467478
 31
0.0
  0
LINE
  5
C0
330
1F
100
AcDbEntity
  8
Graypants_Ohio32
100
AcDbLine
 10
-399.0481306311922
 20
-1519.287993467478
 30
0.0
 11
-399.0481306311922
 21
-1526.387993467477
 31
0.0
  0
LINE
  5
C1
330
1F
100
AcDbEntity
  8
Graypants_Ohio32
100
AcDbLine
 10
-400.5140826683346
 20
-1526.387993467477
 30
0.0
 11
-400.5140826683346
 21
-1533.487993467475
 31
0.0
  0
LINE
  5
C2
330
1F
100
AcDbEntity
  8
Graypants_Ohio32
100
AcDbLine
 10
-401.5826912564225
 20
-1533.487993467475
 30
0.0
 11
-401.5826912564225
 21
-1540.587993467478
 31
0.0
  0
LINE
  5
C3
330
1F
100
AcDbEntity
  8
Graypants_Ohio32
100
AcDbLine
 10
-402.3595756276191
 20
-1540.587993467478
 30
0.0
 11
-402.3595756276191
 21
-1547.68799346748
 31
0.0
  0
LINE
  5
C4
330
1F
100
AcDbEntity
  8
Graypants_Ohio32
100
AcDbLine
 10
-327.9719059944182
 20
-1405.687993467473
 30
0.0
 11
-327.9719059944182
 21
-1412.787993467471
 31
0.0
  0
LINE
  5
C5
330
1F
100
AcDbEntity
  8
Graypants_Ohio32
100
AcDbLine
 10
-334.9923996181096
 20
-1412.787993467471
 30
0.0
 11
-334.9923996181096
 21
-1419.88799346747
 31
0.0
  0
LINE
  5
C6
330
1F
100
AcDbEntity
  8
Graypants_Ohio32
100
AcDbLine
 10
-341.6609337478949
 20
-1419.88799346747
 30
0.0
 11
-341.6609337478949
 21
-1426.987993467472
 31
0.0
  0
LINE
  5
C7
330
1F
100
AcDbEntity
  8
Graypants_Ohio32
100
AcDbLine
 10
-347.963105178118
 20
-1426.987993467472
 30
0.0
 11
-347.963105178118
 21
-1434.087993467474
 31
0.0
  0
LINE
  5
C8
330
1F
100
AcDbEntity
  8
Graypants_Ohio32
100
AcDbLine
 10
-353.9100322648228
 20
-1434.087993467474
 30
0.0
 11
-353.9100322648228
 21
-1441.187993467473
 31
0.0
  0
LINE
  5
C9
330
1F
100
AcDbEntity
  8
Graypants_Ohio32
100
AcDbLine
 10
-359.5142781496324
 20
-1441.187993467473
 30
0.0
 11
-359.5142781496324
 21
-1448.287993467471
 31
0.0
  0
LINE
  5
CA
330
1F
100
AcDbEntity
  8
Graypants_Ohio32
100
AcDbLine
 10
-364.7837405204482
 20
-1448.287993467471
 30
0.0
 11
-364.7837405204482
 21
-1455.387993467473
 31
0.0
  0
LINE
  5
CB
330
1F
100
AcDbEntity
  8
Graypants_Ohio32
100
AcDbLine
 10
-364.7837405204482
 20
-1661.287993467486
 30
0.0
 11
-364.7837405204482
 21
-1654.187993467483
 31
0.0
  0
LINE
  5
CC
330
1F
100
AcDbEntity
  8
Graypants_Ohio32
100
AcDbLine
 10
-359.5142781496324
 20
-1668.387993467484
 30
0.0
 11
-359.5142781496324
 21
-1661.287993467486
 31
0.0
  0
LINE
  5
CD
330
1F
100
AcDbEntity
  8
Graypants_Ohio32
100
AcDbLine
 10
-353.9100322648228
 20
-1675.487993467483
 30
0.0
 11
-353.9100322648228
 21
-1668.387993467484
 31
0.0
  0
LINE
  5
CE
330
1F
100
AcDbEntity
  8
Graypants_Ohio32
100
AcDbLine
 10
-347.963105178118
 20
-1682.587993467485
 30
0.0
 11
-347.963105178118
 21
-1675.487993467483
 31
0.0
  0
LINE
  5
CF
330
1F
100
AcDbEntity
  8
Graypants_Ohio32
100
AcDbLine
 10
-341.6609337478949
 20
-1689.687993467487
 30
0.0
 11
-341.6609337478949
 21
-1682.587993467485
 31
0.0
  0
LINE
  5
D0
330
1F
100
AcDbEntity
  8
Graypants_Ohio32
100
AcDbLine
 10
-334.9923996181096
 20
-1696.787993467486
 30
0.0
 11
-334.9923996181096
 21
-1689.687993467487
 31
0.0
  0
LINE
  5
D1
330
1F
100
AcDbEntity
  8
Graypants_Ohio32
100
AcDbLine
 10
-327.9719059944182
 20
-1703.887993467484
 30
0.0
 11
-327.9719059944182
 21
-1696.787993467486
 31
0.0
  0
LINE
  5
D2
330
1F
100
AcDbEntity
  8
Graypants_Ohio32
100
AcDbLine
 10
-402.3595756276191
 20
-1568.987993467479
 30
0.0
 11
-402.3595756276191
 21
-1561.887993467477
 31
0.0
  0
LINE
  5
D3
330
1F
100
AcDbEntity
  8
Graypants_Ohio32
100
AcDbLine
 10
-401.5826912564225
 20
-1576.087993467481
 30
0.0
 11
-401.5826912564225
 21
-1568.987993467479
 31
0.0
  0
LINE
  5
D4
330
1F
100
AcDbEntity
  8
Graypants_Ohio32
100
AcDbLine
 10
-400.5140826683346
 20
-1583.18799346748
 30
0.0
 11
-400.5140826683346
 21
-1576.087993467481
 31
0.0
  0
LINE
  5
D5
330
1F
100
AcDbEntity
  8
Graypants_Ohio32
100
AcDbLine
 10
-399.0481306311922
 20
-1590.287993467478
 30
0.0
 11
-399.0481306311922
 21
-1583.18799346748
 31
0.0
  0
LINE
  5
D6
330
1F
100
AcDbEntity
  8
Graypants_Ohio32
100
AcDbLine
 10
-397.1890683268357
 20
-1597.387993467481
 30
0.0
 11
-397.1890683268357
 21
-1590.287993467478
 31
0.0
  0
LINE
  5
D7
330
1F
100
AcDbEntity
  8
Graypants_Ohio32
100
AcDbLine
 10
-394.9626011348882
 20
-1604.487993467483
 30
0.0
 11
-394.9626011348882
 21
-1597.387993467481
 31
0.0
  0
LINE
  5
D8
330
1F
100
AcDbEntity
  8
Graypants_Ohio32
100
AcDbLine
 10
-392.3792401001556
 20
-1611.587993467481
 30
0.0
 11
-392.3792401001556
 21
-1604.487993467483
 31
0.0
  0
LINE
  5
D9
330
1F
100
AcDbEntity
  8
Graypants_Ohio32
100
AcDbLine
 10
-389.4464677201686
 20
-1618.68799346748
 30
0.0
 11
-389.4464677201686
 21
-1611.587993467481
 31
0.0
  0
LINE
  5
DA
330
1F
100
AcDbEntity
  8
Graypants_Ohio32
100
AcDbLine
 10
-386.1706221080822
 20
-1625.787993467482
 30
0.0
 11
-386.1706221080822
 21
-1618.68799346748
 31
0.0
  0
LINE
  5
DB
330
1F
100
AcDbEntity
  8
Graypants_Ohio32
100
AcDbLine
 10
-382.5568829314216
 20
-1632.887993467484
 30
0.0
 11
-382.5568829314216
 21
-1625.787993467482
 31
0.0
  0
LINE
  5
DC
330
1F
100
AcDbEntity
  8
Graypants_Ohio32
100
AcDbLine
 10
-378.6092309310116
 20
-1639.987993467483
 30
0.0
 11
-378.6092309310116
 21
-1632.887993467484
 31
0.0
  0
LINE
  5
DD
330
1F
100
AcDbEntity
  8
Graypants_Ohio32
100
AcDbLine
 10
-374.3304232493683
 20
-1647.087993467481
 30
0.0
 11
-374.3304232493683
 21
-1639.987993467483
 31
0.0
  0
LINE
  5
DE
330
1F
100
AcDbEntity
  8
Graypants_Ohio32
100
AcDbLine
 10
-369.7219176366634
 20
-1654.187993467483
 30
0.0
 11
-369.7219176366634
 21
-1647.087993467481
 31
0.0
  0
LINE
  5
DF
330
1F
100
AcDbEntity
  8
Graypants_Ohio32
100
AcDbLine
 10
-320.7012455231597
 20
-1710.987993467486
 30
0.0
 11
-320.7012455231597
 21
-1703.887993467484
 31
0.0
  0
LINE
  5
E0
330
1F
100
AcDbEntity
  8
Graypants_Ohio32
100
AcDbLine
 10
-312.2879766185215
 20
-1718.087993467489
 30
0.0
 11
-312.2879766185215
 21
-1710.987993467486
 31
0.0
  0
LINE
  5
E1
330
1F
100
AcDbEntity
  8
Graypants_Ohio32
100
AcDbLine
 10
-402.3595756276191
 20
-1561.887993467477
 30
0.0
 11
-402.3595756276191
 21
-1554.787993467478
 31
0.0
  0
LINE
  5
E2
330
1F
100
AcDbEntity
  8
Graypants_Ohio32
 62
    36
420
  8866048
370
    -3
100
AcDbLine
 10
-1.500000000010687
 20
-1720.456854278931
 30
0.0
 11
-1.500000000010004
 21
-1722.137736631872
 31
0.0
  0
LINE
  5
E3
330
1F
100
AcDbEntity
  8
Graypants_Ohio32
 62
    36
420
  8866048
370
    -3
100
AcDbLine
 10
1.499999999989313
 20
-1720.456854278931
 30
0.0
 11
1.499999999989768
 21
-1722.137736631872
 31
0.0
  0
LINE
  5
E4
330
1F
100
AcDbEntity
  8
Graypants_Ohio32
 62
    36
420
  8866048
370
    -3
100
AcDbLine
 10
1.499999999989768
 20
-1722.137736631872
 30
0.0
 11
-1.500000000010004
 21
-1722.137736631872
 31
0.0
  0
POLYLINE
  5
E5
330
1F
100
AcDbEntity
  8
Graypants_Ohio32
 62
    36
420
  8866048
370
    -3
100
AcDb2dPolyline
 66
     1
 10
0.0
 20
0.0
 30
0.0
  0
VERTEX
  5
E6
330
E5
100
AcDbEntity
  8
Graypants_Ohio32
 62
    36
420
  8866048
370
    -3
100
AcDbVertex
100
AcDb2dVertex
 10
244.5851804641802
 20
-1720.456854278929
 30
0.0
  0
VERTEX
  5
E7
330
E5
100
AcDbEntity
  8
Graypants_Ohio32
 62
    36
420
  8866048
370
    -3
100
AcDbVertex
100
AcDb2dVertex
 10
244.6244293102762
 20
-1720.545658400752
 30
0.0
  0
VERTEX
  5
E8
330
E5
100
AcDbEntity
  8
Graypants_Ohio32
 62
    36
420
  8866048
370
    -3
100
AcDbVertex
100
AcDb2dVertex
 10
244.6665994648631
 20
-1720.633685529187
 30
0.0
  0
VERTEX
  5
E9
330
E5
100
AcDbEntity
  8
Graypants_Ohio32
 62
    36
420
  8866048
370
    -3
100
AcDbVertex
100
AcDb2dVertex
 10
244.7116912721617
 20
-1720.720754649642
 30
0.0
  0
VERTEX
  5
EA
330
E5
100
AcDbEntity
  8
Graypants_Ohio32
 62
    36
420
  8866048
370
    -3
100
AcDbVertex
100
AcDb2dVertex
 10
244.7596943541696
 20
-1720.806682060168
 30
0.0
  0
VERTEX
  5
EB
330
E5
100
AcDbEntity
  8
Graypants_Ohio32
 62
    36
420
  8866048
370
    -3
100
AcDbVertex
100
AcDb2dVertex
 10
244.8105872283446
 20
-1720.891282392427
 30
0.0
  0
VERTEX
  5
EC
330
E5
100
AcDbEntity
  8
Graypants_Ohio32
 62
    36
420
  8866048
370
    -3
100
AcDbVertex
100
AcDb2dVertex
 10
244.8643370101669
 20
-1720.974369697608
 30
0.0
  0
VERTEX
  5
ED
330
E5
100
AcDbEntity
  8
Graypants_Ohio32
 62
    36
420
  8866048
370
    -3
100
AcDbVertex
100
AcDb2dVertex
 10
244.9208992091139
 20
-1721.055758586593
 30
0.0
  0
VERTEX
  5
EE
330
E5
100
AcDbEntity
  8
Graypants_Ohio32
 62
    36
420
  8866048
370
    -3
100
AcDbVertex
100
AcDb2dVertex
 10
244.9802176254609
 20
-1721.135265412092
 30
0.0
  0
VERTEX
  5
EF
330
E5
100
AcDbEntity
  8
Graypants_Ohio32
 62
    36
420
  8866048
370
    -3
100
AcDbVertex
100
AcDb2dVertex
 10
245.0422243539445
 20
-1721.212709479028
 30
0.0
  0
VERTEX
  5
F0
330
E5
100
AcDbEntity
  8
Graypants_Ohio32
 62
    36
420
  8866048
370
    -3
100
AcDbVertex
100
AcDb2dVertex
 10
245.0742114400741
 20
-1721.250602619201
 30
0.0
  0
VERTEX
  5
F1
330
E5
100
AcDbEntity
  8
Graypants_Ohio32
 62
    36
420
  8866048
370
    -3
100
AcDbVertex
100
AcDb2dVertex
 10
245.1068398987439
 20
-1721.28791426827
 30
0.0
  0
VERTEX
  5
F2
330
E5
100
AcDbEntity
  8
Graypants_Ohio32
 62
    36
420
  8866048
370
    -3
100
AcDbVertex
100
AcDb2dVertex
 10
245.1400980195172
 20
-1721.324623214248
 30
0.0
  0
VERTEX
  5
F3
330
E5
100
AcDbEntity
  8
Graypants_Ohio32
 62
    36
420
  8866048
370
    -3
100
AcDbVertex
100
AcDb2dVertex
 10
245.1739734024509
 20
-1721.360708657895
 30
0.0
  0
VERTEX
  5
F4
330
E5
100
AcDbEntity
  8
Graypants_Ohio32
 62
    36
420
  8866048
370
    -3
100
AcDbVertex
100
AcDb2dVertex
 10
245.208452971517
 20
-1721.396150249596
 30
0.0
  0
VERTEX
  5
F5
330
E5
100
AcDbEntity
  8
Graypants_Ohio32
 62
    36
420
  8866048
370
    -3
100
AcDbVertex
100
AcDb2dVertex
 10
245.2435229897811
 20
-1721.430928125535
 30
0.0
  0
VERTEX
  5
F6
330
E5
100
AcDbEntity
  8
Graypants_Ohio32
 62
    36
420
  8866048
370
    -3
100
AcDbVertex
100
AcDb2dVertex
 10
245.2791690763068
 20
-1721.465022943068
 30
0.0
  0
VERTEX
  5
F7
330
E5
100
AcDbEntity
  8
Graypants_Ohio32
 62
    36
420
  8866048
370
    -3
100
AcDbVertex
100
AcDb2dVertex
 10
245.3153762247494
 20
-1721.498415915144
 30
0.0
  0
VERTEX
  5
F8
330
E5
100
AcDbEntity
  8
Graypants_Ohio32
 62
    36
420
  8866048
370
    -3
100
AcDbVertex
100
AcDb2dVertex
 10
245.3521288235906
 20
-1721.531088843662
 30
0.0
  0
VERTEX
  5
F9
330
E5
100
AcDbEntity
  8
Graypants_Ohio32
 62
    36
420
  8866048
370
    -3
100
AcDbVertex
100
AcDb2dVertex
 10
245.3894106779621
 20
-1721.563024151636
 30
0.0
  0
VERTEX
  5
FA
330
E5
100
AcDbEntity
  8
Graypants_Ohio32
 62
    36
420
  8866048
370
    -3
100
AcDbVertex
100
AcDb2dVertex
 10
245.4272050329936
 20
-1721.594204914057
 30
0.0
  0
VERTEX
  5
FB
330
E5
100
AcDbEntity
  8
Graypants_Ohio32
 62
    36
420
  8866048
370
    -3
100
AcDbVertex
100
AcDb2dVertex
 10
245.4654945986192
 20
-1721.624614887339
 30
0.0
  0
VERTEX
  5
FC
330
E5
100
AcDbEntity
  8
Graypants_Ohio32
 62
    36
420
  8866048
370
    -3
100
AcDbVertex
100
AcDb2dVertex
 10
245.5042615757641
 20
-1721.654238537235
 30
0.0
  0
VERTEX
  5
FD
330
E5
100
AcDbEntity
  8
Graypants_Ohio32
 62
    36
420
  8866048
370
    -3
100
AcDbVertex
100
AcDb2dVertex
 10
245.5434876838291
 20
-1721.683061065137
 30
0.0
  0
VERTEX
  5
FE
330
E5
100
AcDbEntity
  8
Graypants_Ohio32
 62
    36
420
  8866048
370
    -3
100
AcDbVertex
100
AcDb2dVertex
 10
245.583154189385
 20
-1721.711068432656
 30
0.0
  0
VERTEX
  5
FF
330
E5
100
AcDbEntity
  8
Graypants_Ohio32
 62
    36
420
  8866048
370
    -3
100
AcDbVertex
100
AcDb2dVertex
 10
245.623241935982
 20
-1721.738247384397
 30
0.0
  0
VERTEX
  5
100
330
E5
100
AcDbEntity
  8
Graypants_Ohio32
 62
    36
420
  8866048
370
    -3
100
AcDbVertex
100
AcDb2dVertex
 10
245.6637313749738
 20
-1721.764585468865
 30
0.0
  0
VERTEX
  5
101
330
E5
100
AcDbEntity
  8
Graypants_Ohio32
 62
    36
420
  8866048
370
    -3
100
AcDbVertex
100
AcDb2dVertex
 10
245.7046025972542
 20
-1721.790071057407
 30
0.0
  0
VERTEX
  5
102
330
E5
100
AcDbEntity
  8
Graypants_Ohio32
 62
    36
420
  8866048
370
    -3
100
AcDbVertex
100
AcDb2dVertex
 10
245.7458353657959
 20
-1721.814693361158
 30
0.0
  0
VERTEX
  5
103
330
E5
100
AcDbEntity
  8
Graypants_Ohio32
 62
    36
420
  8866048
370
    -3
100
AcDbVertex
100
AcDb2dVertex
 10
245.7874091488818
 20
-1721.838442445923
 30
0.0
  0
VERTEX
  5
104
330
E5
100
AcDbEntity
  8
Graypants_Ohio32
 62
    36
420
  8866048
370
    -3
100
AcDbVertex
100
AcDb2dVertex
 10
245.8293031539139
 20
-1721.861309244952
 30
0.0
  0
VERTEX
  5
105
330
E5
100
AcDbEntity
  8
Graypants_Ohio32
 62
    36
420
  8866048
370
    -3
100
AcDbVertex
100
AcDb2dVertex
 10
245.8714963616844
 20
-1721.883285569589
 30
0.0
  0
VERTEX
  5
106
330
E5
100
AcDbEntity
  8
Graypants_Ohio32
 62
    36
420
  8866048
370
    -3
100
AcDbVertex
100
AcDb2dVertex
 10
245.913967560991
 20
-1721.904364117757
 30
0.0
  0
VERTEX
  5
107
330
E5
100
AcDbEntity
  8
Graypants_Ohio32
 62
    36
420
  8866048
370
    -3
100
AcDbVertex
100
AcDb2dVertex
 10
245.9566953834788
 20
-1721.92453848028
 30
0.0
  0
VERTEX
  5
108
330
E5
100
AcDbEntity
  8
Graypants_Ohio32
 62
    36
420
  8866048
370
    -3
100
AcDbVertex
100
AcDb2dVertex
 10
245.9996583385914
 20
-1721.943803145027
 30
0.0
  0
VERTEX
  5
109
330
E5
100
AcDbEntity
  8
Graypants_Ohio32
 62
    36
420
  8866048
370
    -3
100
AcDbVertex
100
AcDb2dVertex
 10
246.0428348485124
 20
-1721.962153498894
 30
0.0
  0
VERTEX
  5
10A
330
E5
100
AcDbEntity
  8
Graypants_Ohio32
 62
    36
420
  8866048
370
    -3
100
AcDbVertex
100
AcDb2dVertex
 10
246.0862032829833
 20
-1721.979585827636
 30
0.0
  0
VERTEX
  5
10B
330
E5
100
AcDbEntity
  8
Graypants_Ohio32
 62
    36
420
  8866048
370
    -3
100
AcDbVertex
100
AcDb2dVertex
 10
246.1297419938824
 20
-1721.996097313571
 30
0.0
  0
VERTEX
  5
10C
330
E5
100
AcDbEntity
  8
Graypants_Ohio32
 62
    36
420
  8866048
370
    -3
100
AcDbVertex
100
AcDb2dVertex
 10
246.1734293494554
 20
-1722.011686031201
 30
0.0
  0
VERTEX
  5
10D
330
E5
100
AcDbEntity
  8
Graypants_Ohio32
 62
    36
420
  8866048
370
    -3
100
AcDbVertex
100
AcDb2dVertex
 10
246.2172437680867
 20
-1722.026350940783
 30
0.0
  0
VERTEX
  5
10E
330
E5
100
AcDbEntity
  8
Graypants_Ohio32
 62
    36
420
  8866048
370
    -3
100
AcDbVertex
100
AcDb2dVertex
 10
246.2611637515107
 20
-1722.040091879904
 30
0.0
  0
VERTEX
  5
10F
330
E5
100
AcDbEntity
  8
Graypants_Ohio32
 62
    36
420
  8866048
370
    -3
100
AcDbVertex
100
AcDb2dVertex
 10
246.3051679173602
 20
-1722.05290955312
 30
0.0
  0
VERTEX
  5
110
330
E5
100
AcDbEntity
  8
Graypants_Ohio32
 62
    36
420
  8866048
370
    -3
100
AcDbVertex
100
AcDb2dVertex
 10
246.3492350309588
 20
-1722.06480551973
 30
0.0
  0
VERTEX
  5
111
330
E5
100
AcDbEntity
  8
Graypants_Ohio32
 62
    36
420
  8866048
370
    -3
100
AcDbVertex
100
AcDb2dVertex
 10
246.3933440362652
 20
-1722.075782179749
 30
0.0
  0
VERTEX
  5
112
330
E5
100
AcDbEntity
  8
Graypants_Ohio32
 62
    36
420
  8866048
370
    -3
100
AcDbVertex
100
AcDb2dVertex
 10
246.4374740858874
 20
-1722.085842758169
 30
0.0
  0
VERTEX
  5
113
330
E5
100
AcDbEntity
  8
Graypants_Ohio32
 62
    36
420
  8866048
370
    -3
100
AcDbVertex
100
AcDb2dVertex
 10
246.4816045700857
 20
-1722.094991287581
 30
0.0
  0
VERTEX
  5
114
330
E5
100
AcDbEntity
  8
Graypants_Ohio32
 62
    36
420
  8866048
370
    -3
100
AcDbVertex
100
AcDb2dVertex
 10
246.5257151446945
 20
-1722.103232589272
 30
0.0
  0
VERTEX
  5
115
330
E5
100
AcDbEntity
  8
Graypants_Ohio32
 62
    36
420
  8866048
370
    -3
100
AcDbVertex
100
AcDb2dVertex
 10
246.5697857578946
 20
-1722.110572252855
 30
0.0
  0
VERTEX
  5
116
330
E5
100
AcDbEntity
  8
Graypants_Ohio32
 62
    36
420
  8866048
370
    -3
100
AcDbVertex
100
AcDb2dVertex
 10
246.6137966757785
 20
-1722.117016614568
 30
0.0
  0
VERTEX
  5
117
330
E5
100
AcDbEntity
  8
Graypants_Ohio32
 62
    36
420
  8866048
370
    -3
100
AcDbVertex
100
AcDb2dVertex
 10
246.6577285066549
 20
-1722.122572734319
 30
0.0
  0
VERTEX
  5
118
330
E5
100
AcDbEntity
  8
Graypants_Ohio32
 62
    36
420
  8866048
370
    -3
100
AcDbVertex
100
AcDb2dVertex
 10
246.7015622240474
 20
-1722.127248371589
 30
0.0
  0
VERTEX
  5
119
330
E5
100
AcDbEntity
  8
Graypants_Ohio32
 62
    36
420
  8866048
370
    -3
100
AcDbVertex
100
AcDb2dVertex
 10
246.7452791883469
 20
-1722.131051960302
 30
0.0
  0
VERTEX
  5
11A
330
E5
100
AcDbEntity
  8
Graypants_Ohio32
 62
    36
420
  8866048
370
    -3
100
AcDbVertex
100
AcDb2dVertex
 10
246.788861167088
 20
-1722.133992582761
 30
0.0
  0
VERTEX
  5
11B
330
E5
100
AcDbEntity
  8
Graypants_Ohio32
 62
    36
420
  8866048
370
    -3
100
AcDbVertex
100
AcDb2dVertex
 10
246.8322903538211
 20
-1722.136079942763
 30
0.0
  0
VERTEX
  5
11C
330
E5
100
AcDbEntity
  8
Graypants_Ohio32
 62
    36
420
  8866048
370
    -3
100
AcDbVertex
100
AcDb2dVertex
 10
246.8755493855635
 20
-1722.137324338005
 30
0.0
  0
VERTEX
  5
11D
330
E5
100
AcDbEntity
  8
Graypants_Ohio32
 62
    36
420
  8866048
370
    -3
100
AcDbVertex
100
AcDb2dVertex
 10
246.9186213588166
 20
-1722.13773663187
 30
0.0
  0
SEQEND
  5
11E
330
E5
100
AcDbEntity
  8
Graypants_Ohio32
 62
    36
420
  8866048
370
    -3
  0
POLYLINE
  5
11F
330
1F
100
AcDbEntity
  8
Graypants_Ohio32
 62
    36
420
  8866048
370
    -3
100
AcDb2dPolyline
 66
     1
 10
0.0
 20
0.0
 30
0.0
  0
VERTEX
  5
120
330
11F
100
AcDbEntity
  8
Graypants_Ohio32
 62
    36
420
  8866048
370
    -3
100
AcDbVertex
100
AcDb2dVertex
 10
266.186784661254
 20
-1722.137736631868
 30
0.0
  0
VERTEX
  5
121
330
11F
100
AcDbEntity
  8
Graypants_Ohio32
 62
    36
420
  8866048
370
    -3
100
AcDbVertex
100
AcDb2dVertex
 10
266.2252291633375
 20
-1722.137243911256
 30
0.0
  0
VERTEX
  5
122
330
11F
100
AcDbEntity
  8
Graypants_Ohio32
 62
    36
420
  8866048
370
    -3
100
AcDbVertex
100
AcDb2dVertex
 10
266.2639999086642
 20
-1722.135748245279
 30
0.0
  0
VERTEX
  5
123
330
11F
100
AcDbEntity
  8
Graypants_Ohio32
 62
    36
420
  8866048
370
    -3
100
AcDbVertex
100
AcDb2dVertex
 10
266.3030715023008
 20
-1722.133223997713
 30
0.0
  0
VERTEX
  5
124
330
11F
100
AcDbEntity
  8
Graypants_Ohio32
 62
    36
420
  8866048
370
    -3
100
AcDbVertex
100
AcDb2dVertex
 10
266.342417112033
 20
-1722.129646449094
 30
0.0
  0
VERTEX
  5
125
330
11F
100
AcDbEntity
  8
Graypants_Ohio32
 62
    36
420
  8866048
370
    -3
100
AcDbVertex
100
AcDb2dVertex
 10
266.3820084851857
 20
-1722.124991910926
 30
0.0
  0
VERTEX
  5
126
330
11F
100
AcDbEntity
  8
Graypants_Ohio32
 62
    36
420
  8866048
370
    -3
100
AcDbVertex
100
AcDb2dVertex
 10
266.421815972737
 20
-1722.119237841205
 30
0.0
  0
VERTEX
  5
127
330
11F
100
AcDbEntity
  8
Graypants_Ohio32
 62
    36
420
  8866048
370
    -3
100
AcDbVertex
100
AcDb2dVertex
 10
266.4618085610147
 20
-1722.112362960617
 30
0.0
  0
VERTEX
  5
128
330
11F
100
AcDbEntity
  8
Graypants_Ohio32
 62
    36
420
  8866048
370
    -3
100
AcDbVertex
100
AcDb2dVertex
 10
266.5019539112178
 20
-1722.104347368701
 30
0.0
  0
VERTEX
  5
129
330
11F
100
AcDbEntity
  8
Graypants_Ohio32
 62
    36
420
  8866048
370
    -3
100
AcDbVertex
100
AcDb2dVertex
 10
266.5422184069542
 20
-1722.09517265922
 30
0.0
  0
VERTEX
  5
12A
330
11F
100
AcDbEntity
  8
Graypants_Ohio32
 62
    36
420
  8866048
370
    -3
100
AcDbVertex
100
AcDb2dVertex
 10
266.5825672099297
 20
-1722.084822033954
 30
0.0
  0
VERTEX
  5
12B
330
11F
100
AcDbEntity
  8
Graypants_Ohio32
 62
    36
420
  8866048
370
    -3
100
AcDbVertex
100
AcDb2dVertex
 10
266.622964323857
 20
-1722.073280414072
 30
0.0
  0
VERTEX
  5
12C
330
11F
100
AcDbEntity
  8
Graypants_Ohio32
 62
    36
420
  8866048
370
    -3
100
AcDbVertex
100
AcDb2dVertex
 10
266.6633726665912
 20
-1722.060534548242
 30
0.0
  0
VERTEX
  5
12D
330
11F
100
AcDbEntity
  8
Graypants_Ohio32
 62
    36
420
  8866048
370
    -3
100
AcDbVertex
100
AcDb2dVertex
 10
266.7037541504204
 20
-1722.04657311658
 30
0.0
  0
VERTEX
  5
12E
330
11F
100
AcDbEntity
  8
Graypants_Ohio32
 62
    36
420
  8866048
370
    -3
100
AcDbVertex
100
AcDb2dVertex
 10
266.7440697703655
 20
-1722.031386829552
 30
0.0
  0
VERTEX
  5
12F
330
11F
100
AcDbEntity
  8
Graypants_Ohio32
 62
    36
420
  8866048
370
    -3
100
AcDbVertex
100
AcDb2dVertex
 10
266.7842797002656
 20
-1722.014968520943
 30
0.0
  0
VERTEX
  5
130
330
11F
100
AcDbEntity
  8
Graypants_Ohio32
 62
    36
420
  8866048
370
    -3
100
AcDbVertex
100
AcDb2dVertex
 10
266.8243433963398
 20
-1721.997313233993
 30
0.0
  0
VERTEX
  5
131
330
11F
100
AcDbEntity
  8
Graypants_Ohio32
 62
    36
420
  8866048
370
    -3
100
AcDbVertex
100
AcDb2dVertex
 10
266.8642197078384
 20
-1721.978418299833
 30
0.0
  0
VERTEX
  5
132
330
11F
100
AcDbEntity
  8
Graypants_Ohio32
 62
    36
420
  8866048
370
    -3
100
AcDbVertex
100
AcDb2dVertex
 10
266.9038669943084
 20
-1721.958283407382
 30
0.0
  0
VERTEX
  5
133
330
11F
100
AcDbEntity
  8
Graypants_Ohio32
 62
    36
420
  8866048
370
    -3
100
AcDbVertex
100
AcDb2dVertex
 10
266.9432432489223
 20
-1721.936910663914
 30
0.0
  0
VERTEX
  5
134
330
11F
100
AcDbEntity
  8
Graypants_Ohio32
 62
    36
420
  8866048
370
    -3
100
AcDbVertex
100
AcDb2dVertex
 10
266.9823062272365
 20
-1721.914304645528
 30
0.0
  0
VERTEX
  5
135
330
11F
100
AcDbEntity
  8
Graypants_Ohio32
 62
    36
420
  8866048
370
    -3
100
AcDbVertex
100
AcDb2dVertex
 10
267.0210135806733
 20
-1721.890472436851
 30
0.0
  0
VERTEX
  5
136
330
11F
100
AcDbEntity
  8
Graypants_Ohio32
 62
    36
420
  8866048
370
    -3
100
AcDbVertex
100
AcDb2dVertex
 10
267.0593229939481
 20
-1721.865423659363
 30
0.0
  0
VERTEX
  5
137
330
11F
100
AcDbEntity
  8
Graypants_Ohio32
 62
    36
420
  8866048
370
    -3
100
AcDbVertex
100
AcDb2dVertex
 10
267.0971923256042
 20
-1721.839170487816
 30
0.0
  0
VERTEX
  5
138
330
11F
100
AcDbEntity
  8
Graypants_Ohio32
 62
    36
420
  8866048
370
    -3
100
AcDbVertex
100
AcDb2dVertex
 10
267.1345797507571
 20
-1721.811727654305
 30
0.0
  0
VERTEX
  5
139
330
11F
100
AcDbEntity
  8
Graypants_Ohio32
 62
    36
420
  8866048
370
    -3
100
AcDbVertex
100
AcDb2dVertex
 10
267.1714439051083
 20
-1721.783112439686
 30
0.0
  0
VERTEX
  5
13A
330
11F
100
AcDbEntity
  8
Graypants_Ohio32
 62
    36
420
  8866048
370
    -3
100
AcDbVertex
100
AcDb2dVertex
 10
267.2077440292468
 20
-1721.753344652086
 30
0.0
  0
VERTEX
  5
13B
330
11F
100
AcDbEntity
  8
Graypants_Ohio32
 62
    36
420
  8866048
370
    -3
100
AcDbVertex
100
AcDb2dVertex
 10
267.2434401122359
 20
-1721.722446592438
 30
0.0
  0
VERTEX
  5
13C
330
11F
100
AcDbEntity
  8
Graypants_Ohio32
 62
    36
420
  8866048
370
    -3
100
AcDbVertex
100
AcDb2dVertex
 10
267.2784930334616
 20
-1721.690443007018
 30
0.0
  0
VERTEX
  5
13D
330
11F
100
AcDbEntity
  8
Graypants_Ohio32
 62
    36
420
  8866048
370
    -3
100
AcDbVertex
100
AcDb2dVertex
 10
267.3128647017228
 20
-1721.657361027151
 30
0.0
  0
VERTEX
  5
13E
330
11F
100
AcDbEntity
  8
Graypants_Ohio32
 62
    36
420
  8866048
370
    -3
100
AcDbVertex
100
AcDb2dVertex
 10
267.3465181905462
 20
-1721.62323009632
 30
0.0
  0
VERTEX
  5
13F
330
11F
100
AcDbEntity
  8
Graypants_Ohio32
 62
    36
420
  8866048
370
    -3
100
AcDbVertex
100
AcDb2dVertex
 10
267.3794178687371
 20
-1721.588081885077
 30
0.0
  0
VERTEX
  5
140
330
11F
100
AcDbEntity
  8
Graypants_Ohio32
 62
    36
420
  8866048
370
    -3
100
AcDbVertex
100
AcDb2dVertex
 10
267.4115295252062
 20
-1721.551950194241
 30
0.0
  0
VERTEX
  5
141
330
11F
100
AcDbEntity
  8
Graypants_Ohio32
 62
    36
420
  8866048
370
    -3
100
AcDbVertex
100
AcDb2dVertex
 10
267.4428204871616
 20
-1721.514870847003
 30
0.0
  0
VERTEX
  5
142
330
11F
100
AcDbEntity
  8
Graypants_Ohio32
 62
    36
420
  8866048
370
    -3
100
AcDbVertex
100
AcDb2dVertex
 10
267.4732597308104
 20
-1721.476881570653
 30
0.0
  0
VERTEX
  5
143
330
11F
100
AcDbEntity
  8
Graypants_Ohio32
 62
    36
420
  8866048
370
    -3
100
AcDbVertex
100
AcDb2dVertex
 10
267.5028179837852
 20
-1721.438021868754
 30
0.0
  0
VERTEX
  5
144
330
11F
100
AcDbEntity
  8
Graypants_Ohio32
 62
    36
420
  8866048
370
    -3
100
AcDbVertex
100
AcDb2dVertex
 10
267.5314678185838
 20
-1721.398332884667
 30
0.0
  0
VERTEX
  5
145
330
11F
100
AcDbEntity
  8
Graypants_Ohio32
 62
    36
420
  8866048
370
    -3
100
AcDbVertex
100
AcDb2dVertex
 10
267.5591837364012
 20
-1721.35785725741
 30
0.0
  0
VERTEX
  5
146
330
11F
100
AcDbEntity
  8
Graypants_Ohio32
 62
    36
420
  8866048
370
    -3
100
AcDbVertex
100
AcDb2dVertex
 10
267.5859422408219
 20
-1721.316638970914
 30
0.0
  0
VERTEX
  5
147
330
11F
100
AcDbEntity
  8
Graypants_Ohio32
 62
    36
420
  8866048
370
    -3
100
AcDbVertex
100
AcDb2dVertex
 10
267.611721900941
 20
-1721.274723197773
 30
0.0
  0
VERTEX
  5
148
330
11F
100
AcDbEntity
  8
Graypants_Ohio32
 62
    36
420
  8866048
370
    -3
100
AcDbVertex
100
AcDb2dVertex
 10
267.6365034035858
 20
-1721.232156138638
 30
0.0
  0
VERTEX
  5
149
330
11F
100
AcDbEntity
  8
Graypants_Ohio32
 62
    36
420
  8866048
370
    -3
100
AcDbVertex
100
AcDb2dVertex
 10
267.6602695944132
 20
-1721.188984858424
 30
0.0
  0
VERTEX
  5
14A
330
11F
100
AcDbEntity
  8
Graypants_Ohio32
 62
    36
420
  8866048
370
    -3
100
AcDbVertex
100
AcDb2dVertex
 10
267.683005507765
 20
-1721.145257120507
 30
0.0
  0
VERTEX
  5
14B
330
11F
100
AcDbEntity
  8
Graypants_Ohio32
 62
    36
420
  8866048
370
    -3
100
AcDbVertex
100
AcDb2dVertex
 10
267.7046983852711
 20
-1721.101021220105
 30
0.0
  0
VERTEX
  5
14C
330
11F
100
AcDbEntity
  8
Graypants_Ohio32
 62
    36
420
  8866048
370
    -3
100
AcDbVertex
100
AcDb2dVertex
 10
267.7253376832885
 20
-1721.05632581798
 30
0.0
  0
VERTEX
  5
14D
330
11F
100
AcDbEntity
  8
Graypants_Ohio32
 62
    36
420
  8866048
370
    -3
100
AcDbVertex
100
AcDb2dVertex
 10
267.7449150693706
 20
-1721.011219775616
 30
0.0
  0
VERTEX
  5
14E
330
11F
100
AcDbEntity
  8
Graypants_Ohio32
 62
    36
420
  8866048
370
    -3
100
AcDbVertex
100
AcDb2dVertex
 10
267.7634244080497
 20
-1720.965751992938
 30
0.0
  0
VERTEX
  5
14F
330
11F
100
AcDbEntity
  8
Graypants_Ohio32
 62
    36
420
  8866048
370
    -3
100
AcDbVertex
100
AcDb2dVertex
 10
267.7808617363083
 20
-1720.919971249628
 30
0.0
  0
VERTEX
  5
150
330
11F
100
AcDbEntity
  8
Graypants_Ohio32
 62
    36
420
  8866048
370
    -3
100
AcDbVertex
100
AcDb2dVertex
 10
267.7972252291951
 20
-1720.873926050992
 30
0.0
  0
VERTEX
  5
151
330
11F
100
AcDbEntity
  8
Graypants_Ohio32
 62
    36
420
  8866048
370
    -3
100
AcDbVertex
100
AcDb2dVertex
 10
267.8125151561121
 20
-1720.827664479285
 30
0.0
  0
VERTEX
  5
152
330
11F
100
AcDbEntity
  8
Graypants_Ohio32
 62
    36
420
  8866048
370
    -3
100
AcDbVertex
100
AcDb2dVertex
 10
267.8267338283678
 20
-1720.781234051299
 30
0.0
  0
VERTEX
  5
153
330
11F
100
AcDbEntity
  8
Graypants_Ohio32
 62
    36
420
  8866048
370
    -3
100
AcDbVertex
100
AcDb2dVertex
 10
267.8398855386434
 20
-1720.73468158296
 30
0.0
  0
VERTEX
  5
154
330
11F
100
AcDbEntity
  8
Graypants_Ohio32
 62
    36
420
  8866048
370
    -3
100
AcDbVertex
100
AcDb2dVertex
 10
267.851976493063
 20
-1720.688053061559
 30
0.0
  0
VERTEX
  5
155
330
11F
100
AcDbEntity
  8
Graypants_Ohio32
 62
    36
420
  8866048
370
    -3
100
AcDbVertex
100
AcDb2dVertex
 10
267.8630147365976
 20
-1720.641393526166
 30
0.0
  0
VERTEX
  5
156
330
11F
100
AcDbEntity
  8
Graypants_Ohio32
 62
    36
420
  8866048
370
    -3
100
AcDbVertex
100
AcDb2dVertex
 10
267.8730100725554
 20
-1720.594746956681
 30
0.0
  0
VERTEX
  5
157
330
11F
100
AcDbEntity
  8
Graypants_Ohio32
 62
    36
420
  8866048
370
    -3
100
AcDbVertex
100
AcDb2dVertex
 10
267.881973976927
 20
-1720.548156171879
 30
0.0
  0
VERTEX
  5
158
330
11F
100
AcDbEntity
  8
Graypants_Ohio32
 62
    36
420
  8866048
370
    -3
100
AcDbVertex
100
AcDb2dVertex
 10
267.8899195083615
 20
-1720.501662736692
 30
0.0
  0
VERTEX
  5
159
330
11F
100
AcDbEntity
  8
Graypants_Ohio32
 62
    36
420
  8866048
370
    -3
100
AcDbVertex
100
AcDb2dVertex
 10
267.8968612145448
 20
-1720.455306878918
 30
0.0
  0
VERTEX
  5
15A
330
11F
100
AcDbEntity
  8
Graypants_Ohio32
 62
    36
420
  8866048
370
    -3
100
AcDbVertex
100
AcDb2dVertex
 10
267.9028150357454
 20
-1720.409127415422
 30
0.0
  0
VERTEX
  5
15B
330
11F
100
AcDbEntity
  8
Graypants_Ohio32
 62
    36
420
  8866048
370
    -3
100
AcDbVertex
100
AcDb2dVertex
 10
267.9077982062687
 20
-1720.363161687836
 30
0.0
  0
VERTEX
  5
15C
330
11F
100
AcDbEntity
  8
Graypants_Ohio32
 62
    36
420
  8866048
370
    -3
100
AcDbVertex
100
AcDb2dVertex
 10
267.9118291545408
 20
-1720.317445507663
 30
0.0
  0
VERTEX
  5
15D
330
11F
100
AcDbEntity
  8
Graypants_Ohio32
 62
    36
420
  8866048
370
    -3
100
AcDbVertex
100
AcDb2dVertex
 10
267.9149274025095
 20
-1720.272013110647
 30
0.0
  0
VERTEX
  5
15E
330
11F
100
AcDbEntity
  8
Graypants_Ohio32
 62
    36
420
  8866048
370
    -3
100
AcDbVertex
100
AcDb2dVertex
 10
267.9171134650142
 20
-1720.226897120165
 30
0.0
  0
VERTEX
  5
15F
330
11F
100
AcDbEntity
  8
Graypants_Ohio32
 62
    36
420
  8866048
370
    -3
100
AcDbVertex
100
AcDb2dVertex
 10
267.918408749737
 20
-1720.182128519392
 30
0.0
  0
VERTEX
  5
160
330
11F
100
AcDbEntity
  8
Graypants_Ohio32
 62
    36
420
  8866048
370
    -3
100
AcDbVertex
100
AcDb2dVertex
 10
267.9188354583021
 20
-1720.137736631868
 30
0.0
  0
SEQEND
  5
161
330
11F
100
AcDbEntity
  8
Graypants_Ohio32
 62
    36
420
  8866048
370
    -3
  0
POLYLINE
  5
162
330
1F
100
AcDbEntity
  8
Graypants_Ohio32
 62
    36
420
  8866048
370
    -3
100
AcDb2dPolyline
 66
     1
 10
0.0
 20
0.0
 30
0.0
  0
VERTEX
  5
163
330
162
100
AcDbEntity
  8
Graypants_Ohio32
 62
    36
420
  8866048
370
    -3
100
AcDbVertex
100
AcDb2dVertex
 10
264.6867846339198
 20
-1722.137736631868
 30
0.0
  0
VERTEX
  5
164
330
162
100
AcDbEntity
  8
Graypants_Ohio32
 62
    36
420
  8866048
370
    -3
100
AcDbVertex
100
AcDb2dVertex
 10
264.7252291360034
 20
-1722.137243911256
 30
0.0
  0
VERTEX
  5
165
330
162
100
AcDbEntity
  8
Graypants_Ohio32
 62
    36
420
  8866048
370
    -3
100
AcDbVertex
100
AcDb2dVertex
 10
264.7639998813301
 20
-1722.135748245279
 30
0.0
  0
VERTEX
  5
166
330
162
100
AcDbEntity
  8
Graypants_Ohio32
 62
    36
420
  8866048
370
    -3
100
AcDbVertex
100
AcDb2dVertex
 10
264.8030714749667
 20
-1722.133223997713
 30
0.0
  0
VERTEX
  5
167
330
162
100
AcDbEntity
  8
Graypants_Ohio32
 62
    36
420
  8866048
370
    -3
100
AcDbVertex
100
AcDb2dVertex
 10
264.8424170846988
 20
-1722.129646449094
 30
0.0
  0
VERTEX
  5
168
330
162
100
AcDbEntity
  8
Graypants_Ohio32
 62
    36
420
  8866048
370
    -3
100
AcDbVertex
100
AcDb2dVertex
 10
264.8820084578516
 20
-1722.124991910926
 30
0.0
  0
VERTEX
  5
169
330
162
100
AcDbEntity
  8
Graypants_Ohio32
 62
    36
420
  8866048
370
    -3
100
AcDbVertex
100
AcDb2dVertex
 10
264.9218159454029
 20
-1722.119237841205
 30
0.0
  0
VERTEX
  5
16A
330
162
100
AcDbEntity
  8
Graypants_Ohio32
 62
    36
420
  8866048
370
    -3
100
AcDbVertex
100
AcDb2dVertex
 10
264.9618085336805
 20
-1722.112362960617
 30
0.0
  0
VERTEX
  5
16B
330
162
100
AcDbEntity
  8
Graypants_Ohio32
 62
    36
420
  8866048
370
    -3
100
AcDbVertex
100
AcDb2dVertex
 10
265.0019538838836
 20
-1722.104347368701
 30
0.0
  0
VERTEX
  5
16C
330
162
100
AcDbEntity
  8
Graypants_Ohio32
 62
    36
420
  8866048
370
    -3
100
AcDbVertex
100
AcDb2dVertex
 10
265.04221837962
 20
-1722.09517265922
 30
0.0
  0
VERTEX
  5
16D
330
162
100
AcDbEntity
  8
Graypants_Ohio32
 62
    36
420
  8866048
370
    -3
100
AcDbVertex
100
AcDb2dVertex
 10
265.0825671825955
 20
-1722.084822033954
 30
0.0
  0
VERTEX
  5
16E
330
162
100
AcDbEntity
  8
Graypants_Ohio32
 62
    36
420
  8866048
370
    -3
100
AcDbVertex
100
AcDb2dVertex
 10
265.1229642965228
 20
-1722.073280414072
 30
0.0
  0
VERTEX
  5
16F
330
162
100
AcDbEntity
  8
Graypants_Ohio32
 62
    36
420
  8866048
370
    -3
100
AcDbVertex
100
AcDb2dVertex
 10
265.163372639257
 20
-1722.060534548242
 30
0.0
  0
VERTEX
  5
170
330
162
100
AcDbEntity
  8
Graypants_Ohio32
 62
    36
420
  8866048
370
    -3
100
AcDbVertex
100
AcDb2dVertex
 10
265.2037541230862
 20
-1722.04657311658
 30
0.0
  0
VERTEX
  5
171
330
162
100
AcDbEntity
  8
Graypants_Ohio32
 62
    36
420
  8866048
370
    -3
100
AcDbVertex
100
AcDb2dVertex
 10
265.2440697430313
 20
-1722.031386829552
 30
0.0
  0
VERTEX
  5
172
330
162
100
AcDbEntity
  8
Graypants_Ohio32
 62
    36
420
  8866048
370
    -3
100
AcDbVertex
100
AcDb2dVertex
 10
265.2842796729313
 20
-1722.014968520943
 30
0.0
  0
VERTEX
  5
173
330
162
100
AcDbEntity
  8
Graypants_Ohio32
 62
    36
420
  8866048
370
    -3
100
AcDbVertex
100
AcDb2dVertex
 10
265.3243433690056
 20
-1721.997313233993
 30
0.0
  0
VERTEX
  5
174
330
162
100
AcDbEntity
  8
Graypants_Ohio32
 62
    36
420
  8866048
370
    -3
100
AcDbVertex
100
AcDb2dVertex
 10
265.3642196805041
 20
-1721.978418299833
 30
0.0
  0
VERTEX
  5
175
330
162
100
AcDbEntity
  8
Graypants_Ohio32
 62
    36
420
  8866048
370
    -3
100
AcDbVertex
100
AcDb2dVertex
 10
265.4038669669741
 20
-1721.958283407382
 30
0.0
  0
VERTEX
  5
176
330
162
100
AcDbEntity
  8
Graypants_Ohio32
 62
    36
420
  8866048
370
    -3
100
AcDbVertex
100
AcDb2dVertex
 10
265.443243221588
 20
-1721.936910663914
 30
0.0
  0
VERTEX
  5
177
330
162
100
AcDbEntity
  8
Graypants_Ohio32
 62
    36
420
  8866048
370
    -3
100
AcDbVertex
100
AcDb2dVertex
 10
265.4823061999022
 20
-1721.914304645528
 30
0.0
  0
VERTEX
  5
178
330
162
100
AcDbEntity
  8
Graypants_Ohio32
 62
    36
420
  8866048
370
    -3
100
AcDbVertex
100
AcDb2dVertex
 10
265.521013553339
 20
-1721.890472436851
 30
0.0
  0
VERTEX
  5
179
330
162
100
AcDbEntity
  8
Graypants_Ohio32
 62
    36
420
  8866048
370
    -3
100
AcDbVertex
100
AcDb2dVertex
 10
265.5593229666138
 20
-1721.865423659363
 30
0.0
  0
VERTEX
  5
17A
330
162
100
AcDbEntity
  8
Graypants_Ohio32
 62
    36
420
  8866048
370
    -3
100
AcDbVertex
100
AcDb2dVertex
 10
265.5971922982699
 20
-1721.839170487816
 30
0.0
  0
VERTEX
  5
17B
330
162
100
AcDbEntity
  8
Graypants_Ohio32
 62
    36
420
  8866048
370
    -3
100
AcDbVertex
100
AcDb2dVertex
 10
265.6345797234228
 20
-1721.811727654305
 30
0.0
  0
VERTEX
  5
17C
330
162
100
AcDbEntity
  8
Graypants_Ohio32
 62
    36
420
  8866048
370
    -3
100
AcDbVertex
100
AcDb2dVertex
 10
265.671443877774
 20
-1721.783112439686
 30
0.0
  0
VERTEX
  5
17D
330
162
100
AcDbEntity
  8
Graypants_Ohio32
 62
    36
420
  8866048
370
    -3
100
AcDbVertex
100
AcDb2dVertex
 10
265.7077440019125
 20
-1721.753344652086
 30
0.0
  0
VERTEX
  5
17E
330
162
100
AcDbEntity
  8
Graypants_Ohio32
 62
    36
420
  8866048
370
    -3
100
AcDbVertex
100
AcDb2dVertex
 10
265.7434400849016
 20
-1721.722446592438
 30
0.0
  0
VERTEX
  5
17F
330
162
100
AcDbEntity
  8
Graypants_Ohio32
 62
    36
420
  8866048
370
    -3
100
AcDbVertex
100
AcDb2dVertex
 10
265.7784930061273
 20
-1721.690443007018
 30
0.0
  0
VERTEX
  5
180
330
162
100
AcDbEntity
  8
Graypants_Ohio32
 62
    36
420
  8866048
370
    -3
100
AcDbVertex
100
AcDb2dVertex
 10
265.8128646743885
 20
-1721.657361027151
 30
0.0
  0
VERTEX
  5
181
330
162
100
AcDbEntity
  8
Graypants_Ohio32
 62
    36
420
  8866048
370
    -3
100
AcDbVertex
100
AcDb2dVertex
 10
265.8465181632118
 20
-1721.62323009632
 30
0.0
  0
VERTEX
  5
182
330
162
100
AcDbEntity
  8
Graypants_Ohio32
 62
    36
420
  8866048
370
    -3
100
AcDbVertex
100
AcDb2dVertex
 10
265.8794178414028
 20
-1721.588081885077
 30
0.0
  0
VERTEX
  5
183
330
162
100
AcDbEntity
  8
Graypants_Ohio32
 62
    36
420
  8866048
370
    -3
100
AcDbVertex
100
AcDb2dVertex
 10
265.9115294978719
 20
-1721.551950194241
 30
0.0
  0
VERTEX
  5
184
330
162
100
AcDbEntity
  8
Graypants_Ohio32
 62
    36
420
  8866048
370
    -3
100
AcDbVertex
100
AcDb2dVertex
 10
265.9428204598273
 20
-1721.514870847003
 30
0.0
  0
VERTEX
  5
185
330
162
100
AcDbEntity
  8
Graypants_Ohio32
 62
    36
420
  8866048
370
    -3
100
AcDbVertex
100
AcDb2dVertex
 10
265.9732597034761
 20
-1721.476881570653
 30
0.0
  0
VERTEX
  5
186
330
162
100
AcDbEntity
  8
Graypants_Ohio32
 62
    36
420
  8866048
370
    -3
100
AcDbVertex
100
AcDb2dVertex
 10
266.0028179564508
 20
-1721.438021868754
 30
0.0
  0
VERTEX
  5
187
330
162
100
AcDbEntity
  8
Graypants_Ohio32
 62
    36
420
  8866048
370
    -3
100
AcDbVertex
100
AcDb2dVertex
 10
266.0314677912494
 20
-1721.398332884667
 30
0.0
  0
VERTEX
  5
188
330
162
100
AcDbEntity
  8
Graypants_Ohio32
 62
    36
420
  8866048
370
    -3
100
AcDbVertex
100
AcDb2dVertex
 10
266.0591837090669
 20
-1721.35785725741
 30
0.0
  0
VERTEX
  5
189
330
162
100
AcDbEntity
  8
Graypants_Ohio32
 62
    36
420
  8866048
370
    -3
100
AcDbVertex
100
AcDb2dVertex
 10
266.0859422134875
 20
-1721.316638970914
 30
0.0
  0
VERTEX
  5
18A
330
162
100
AcDbEntity
  8
Graypants_Ohio32
 62
    36
420
  8866048
370
    -3
100
AcDbVertex
100
AcDb2dVertex
 10
266.1117218736067
 20
-1721.274723197773
 30
0.0
  0
VERTEX
  5
18B
330
162
100
AcDbEntity
  8
Graypants_Ohio32
 62
    36
420
  8866048
370
    -3
100
AcDbVertex
100
AcDb2dVertex
 10
266.1365033762515
 20
-1721.232156138638
 30
0.0
  0
VERTEX
  5
18C
330
162
100
AcDbEntity
  8
Graypants_Ohio32
 62
    36
420
  8866048
370
    -3
100
AcDbVertex
100
AcDb2dVertex
 10
266.1602695670789
 20
-1721.188984858424
 30
0.0
  0
VERTEX
  5
18D
330
162
100
AcDbEntity
  8
Graypants_Ohio32
 62
    36
420
  8866048
370
    -3
100
AcDbVertex
100
AcDb2dVertex
 10
266.1830054804307
 20
-1721.145257120507
 30
0.0
  0
VERTEX
  5
18E
330
162
100
AcDbEntity
  8
Graypants_Ohio32
 62
    36
420
  8866048
370
    -3
100
AcDbVertex
100
AcDb2dVertex
 10
266.2046983579367
 20
-1721.101021220105
 30
0.0
  0
VERTEX
  5
18F
330
162
100
AcDbEntity
  8
Graypants_Ohio32
 62
    36
420
  8866048
370
    -3
100
AcDbVertex
100
AcDb2dVertex
 10
266.2253376559541
 20
-1721.05632581798
 30
0.0
  0
VERTEX
  5
190
330
162
100
AcDbEntity
  8
Graypants_Ohio32
 62
    36
420
  8866048
370
    -3
100
AcDbVertex
100
AcDb2dVertex
 10
266.2449150420363
 20
-1721.011219775616
 30
0.0
  0
VERTEX
  5
191
330
162
100
AcDbEntity
  8
Graypants_Ohio32
 62
    36
420
  8866048
370
    -3
100
AcDbVertex
100
AcDb2dVertex
 10
266.2634243807153
 20
-1720.965751992938
 30
0.0
  0
VERTEX
  5
192
330
162
100
AcDbEntity
  8
Graypants_Ohio32
 62
    36
420
  8866048
370
    -3
100
AcDbVertex
100
AcDb2dVertex
 10
266.280861708974
 20
-1720.919971249628
 30
0.0
  0
VERTEX
  5
193
330
162
100
AcDbEntity
  8
Graypants_Ohio32
 62
    36
420
  8866048
370
    -3
100
AcDbVertex
100
AcDb2dVertex
 10
266.2972252018608
 20
-1720.873926050992
 30
0.0
  0
VERTEX
  5
194
330
162
100
AcDbEntity
  8
Graypants_Ohio32
 62
    36
420
  8866048
370
    -3
100
AcDbVertex
100
AcDb2dVertex
 10
266.3125151287776
 20
-1720.827664479285
 30
0.0
  0
VERTEX
  5
195
330
162
100
AcDbEntity
  8
Graypants_Ohio32
 62
    36
420
  8866048
370
    -3
100
AcDbVertex
100
AcDb2dVertex
 10
266.3267338010334
 20
-1720.781234051299
 30
0.0
  0
VERTEX
  5
196
330
162
100
AcDbEntity
  8
Graypants_Ohio32
 62
    36
420
  8866048
370
    -3
100
AcDbVertex
100
AcDb2dVertex
 10
266.339885511309
 20
-1720.73468158296
 30
0.0
  0
VERTEX
  5
197
330
162
100
AcDbEntity
  8
Graypants_Ohio32
 62
    36
420
  8866048
370
    -3
100
AcDbVertex
100
AcDb2dVertex
 10
266.3519764657286
 20
-1720.688053061559
 30
0.0
  0
VERTEX
  5
198
330
162
100
AcDbEntity
  8
Graypants_Ohio32
 62
    36
420
  8866048
370
    -3
100
AcDbVertex
100
AcDb2dVertex
 10
266.3630147092632
 20
-1720.641393526166
 30
0.0
  0
VERTEX
  5
199
330
162
100
AcDbEntity
  8
Graypants_Ohio32
 62
    36
420
  8866048
370
    -3
100
AcDbVertex
100
AcDb2dVertex
 10
266.373010045221
 20
-1720.594746956681
 30
0.0
  0
VERTEX
  5
19A
330
162
100
AcDbEntity
  8
Graypants_Ohio32
 62
    36
420
  8866048
370
    -3
100
AcDbVertex
100
AcDb2dVertex
 10
266.3819739495927
 20
-1720.548156171879
 30
0.0
  0
VERTEX
  5
19B
330
162
100
AcDbEntity
  8
Graypants_Ohio32
 62
    36
420
  8866048
370
    -3
100
AcDbVertex
100
AcDb2dVertex
 10
266.3899194810271
 20
-1720.501662736692
 30
0.0
  0
VERTEX
  5
19C
330
162
100
AcDbEntity
  8
Graypants_Ohio32
 62
    36
420
  8866048
370
    -3
100
AcDbVertex
100
AcDb2dVertex
 10
266.3968611872104
 20
-1720.455306878918
 30
0.0
  0
VERTEX
  5
19D
330
162
100
AcDbEntity
  8
Graypants_Ohio32
 62
    36
420
  8866048
370
    -3
100
AcDbVertex
100
AcDb2dVertex
 10
266.402815008411
 20
-1720.409127415422
 30
0.0
  0
VERTEX
  5
19E
330
162
100
AcDbEntity
  8
Graypants_Ohio32
 62
    36
420
  8866048
370
    -3
100
AcDbVertex
100
AcDb2dVertex
 10
266.4077981789343
 20
-1720.363161687836
 30
0.0
  0
VERTEX
  5
19F
330
162
100
AcDbEntity
  8
Graypants_Ohio32
 62
    36
420
  8866048
370
    -3
100
AcDbVertex
100
AcDb2dVertex
 10
266.4118291272064
 20
-1720.317445507663
 30
0.0
  0
VERTEX
  5
1A0
330
162
100
AcDbEntity
  8
Graypants_Ohio32
 62
    36
420
  8866048
370
    -3
100
AcDbVertex
100
AcDb2dVertex
 10
266.4149273751751
 20
-1720.272013110647
 30
0.0
  0
VERTEX
  5
1A1
330
162
100
AcDbEntity
  8
Graypants_Ohio32
 62
    36
420
  8866048
370
    -3
100
AcDbVertex
100
AcDb2dVertex
 10
266.4171134376797
 20
-1720.226897120165
 30
0.0
  0
VERTEX
  5
1A2
330
162
100
AcDbEntity
  8
Graypants_Ohio32
 62
    36
420
  8866048
370
    -3
100
AcDbVertex
100
AcDb2dVertex
 10
266.4184087224025
 20
-1720.182128519392
 30
0.0
  0
VERTEX
  5
1A3
330
162
100
AcDbEntity
  8
Graypants_Ohio32
 62
    36
420
  8866048
370
    -3
100
AcDbVertex
100
AcDb2dVertex
 10
266.4188354309676
 20
-1720.137736631868
 30
0.0
  0
SEQEND
  5
1A4
330
162
100
AcDbEntity
  8
Graypants_Ohio32
 62
    36
420
  8866048
370
    -3
  0
LINE
  5
1A5
330
1F
100
AcDbEntity
  8
Graypants_Ohio32
 62
    36
420
  8866048
370
    -3
100
AcDbLine
 10
267.9188354583021
 20
-1720.137736631868
 30
0.0
 11
267.9188354583021
 21
-1718.093566944183
 31
0.0
  0
LINE
  5
1A6
330
1F
100
AcDbEntity
  8
Graypants_Ohio32
 62
    36
420
  8866048
370
    -3
100
AcDbLine
 10
266.4188354309676
 20
-1720.137736631868
 30
0.0
 11
266.4188354309676
 21
-1718.093635954068
 31
0.0
  0
LINE
  5
1A7
330
1F
100
AcDbEntity
  8
Graypants_Ohio32
 62
    36
420
  8866048
370
    -3
100
AcDbLine
 10
266.186784661254
 20
-1722.137736631868
 30
0.0
 11
264.6867846339198
 21
-1722.137736631868
 31
0.0
  0
POLYLINE
  5
1A8
330
1F
100
AcDbEntity
  8
Graypants_Ohio32
 62
    36
420
  8866048
370
    -3
100
AcDb2dPolyline
 66
     1
 10
0.0
 20
0.0
 30
0.0
  0
VERTEX
  5
1A9
330
1A8
100
AcDbEntity
  8
Graypants_Ohio32
 62
    36
420
  8866048
370
    -3
100
AcDbVertex
100
AcDb2dVertex
 10
-244.5851826801897
 20
-1720.45685427893
 30
0.0
  0
VERTEX
  5
1AA
330
1A8
100
AcDbEntity
  8
Graypants_Ohio32
 62
    36
420
  8866048
370
    -3
100
AcDbVertex
100
AcDb2dVertex
 10
-244.6244315266371
 20
-1720.545658400753
 30
0.0
  0
VERTEX
  5
1AB
330
1A8
100
AcDbEntity
  8
Graypants_Ohio32
 62
    36
420
  8866048
370
    -3
100
AcDbVertex
100
AcDb2dVertex
 10
-244.6666016816014
 20
-1720.633685529188
 30
0.0
  0
VERTEX
  5
1AC
330
1A8
100
AcDbEntity
  8
Graypants_Ohio32
 62
    36
420
  8866048
370
    -3
100
AcDbVertex
100
AcDb2dVertex
 10
-244.7116934893036
 20
-1720.720754649644
 30
0.0
  0
VERTEX
  5
1AD
330
1A8
100
AcDbEntity
  8
Graypants_Ohio32
 62
    36
420
  8866048
370
    -3
100
AcDbVertex
100
AcDb2dVertex
 10
-244.7596965717411
 20
-1720.806682060169
 30
0.0
  0
VERTEX
  5
1AE
330
1A8
100
AcDbEntity
  8
Graypants_Ohio32
 62
    36
420
  8866048
370
    -3
100
AcDbVertex
100
AcDb2dVertex
 10
-244.8105894463717
 20
-1720.891282392428
 30
0.0
  0
VERTEX
  5
1AF
330
1A8
100
AcDbEntity
  8
Graypants_Ohio32
 62
    36
420
  8866048
370
    -3
100
AcDbVertex
100
AcDb2dVertex
 10
-244.864339228675
 20
-1720.974369697609
 30
0.0
  0
VERTEX
  5
1B0
330
1A8
100
AcDbEntity
  8
Graypants_Ohio32
 62
    36
420
  8866048
370
    -3
100
AcDbVertex
100
AcDb2dVertex
 10
-244.9209014281283
 20
-1721.055758586594
 30
0.0
  0
VERTEX
  5
1B1
330
1A8
100
AcDbEntity
  8
Graypants_Ohio32
 62
    36
420
  8866048
370
    -3
100
AcDbVertex
100
AcDb2dVertex
 10
-244.9802198450062
 20
-1721.135265412094
 30
0.0
  0
VERTEX
  5
1B2
330
1A8
100
AcDbEntity
  8
Graypants_Ohio32
 62
    36
420
  8866048
370
    -3
100
AcDbVertex
100
AcDb2dVertex
 10
-245.0422265740448
 20
-1721.212709479029
 30
0.0
  0
VERTEX
  5
1B3
330
1A8
100
AcDbEntity
  8
Graypants_Ohio32
 62
    36
420
  8866048
370
    -3
100
AcDbVertex
100
AcDb2dVertex
 10
-245.0742136604607
 20
-1721.250602619202
 30
0.0
  0
VERTEX
  5
1B4
330
1A8
100
AcDbEntity
  8
Graypants_Ohio32
 62
    36
420
  8866048
370
    -3
100
AcDbVertex
100
AcDb2dVertex
 10
-245.1068421194225
 20
-1721.287914268271
 30
0.0
  0
VERTEX
  5
1B5
330
1A8
100
AcDbEntity
  8
Graypants_Ohio32
 62
    36
420
  8866048
370
    -3
100
AcDbVertex
100
AcDb2dVertex
 10
-245.1401002404936
 20
-1721.324623214249
 30
0.0
  0
VERTEX
  5
1B6
330
1A8
100
AcDbEntity
  8
Graypants_Ohio32
 62
    36
420
  8866048
370
    -3
100
AcDbVertex
100
AcDb2dVertex
 10
-245.1739756237304
 20
-1721.360708657897
 30
0.0
  0
VERTEX
  5
1B7
330
1A8
100
AcDbEntity
  8
Graypants_Ohio32
 62
    36
420
  8866048
370
    -3
100
AcDbVertex
100
AcDb2dVertex
 10
-245.2084551931052
 20
-1721.396150249597
 30
0.0
  0
VERTEX
  5
1B8
330
1A8
100
AcDbEntity
  8
Graypants_Ohio32
 62
    36
420
  8866048
370
    -3
100
AcDbVertex
100
AcDb2dVertex
 10
-245.2435252116831
 20
-1721.430928125536
 30
0.0
  0
VERTEX
  5
1B9
330
1A8
100
AcDbEntity
  8
Graypants_Ohio32
 62
    36
420
  8866048
370
    -3
100
AcDbVertex
100
AcDb2dVertex
 10
-245.2791712985278
 20
-1721.465022943069
 30
0.0
  0
VERTEX
  5
1BA
330
1A8
100
AcDbEntity
  8
Graypants_Ohio32
 62
    36
420
  8866048
370
    -3
100
AcDbVertex
100
AcDb2dVertex
 10
-245.3153784472945
 20
-1721.498415915146
 30
0.0
  0
VERTEX
  5
1BB
330
1A8
100
AcDbEntity
  8
Graypants_Ohio32
 62
    36
420
  8866048
370
    -3
100
AcDbVertex
100
AcDb2dVertex
 10
-245.3521310464647
 20
-1721.531088843663
 30
0.0
  0
VERTEX
  5
1BC
330
1A8
100
AcDbEntity
  8
Graypants_Ohio32
 62
    36
420
  8866048
370
    -3
100
AcDbVertex
100
AcDb2dVertex
 10
-245.3894129011699
 20
-1721.563024151637
 30
0.0
  0
VERTEX
  5
1BD
330
1A8
100
AcDbEntity
  8
Graypants_Ohio32
 62
    36
420
  8866048
370
    -3
100
AcDbVertex
100
AcDb2dVertex
 10
-245.4272072565396
 20
-1721.594204914058
 30
0.0
  0
VERTEX
  5
1BE
330
1A8
100
AcDbEntity
  8
Graypants_Ohio32
 62
    36
420
  8866048
370
    -3
100
AcDbVertex
100
AcDb2dVertex
 10
-245.465496822508
 20
-1721.62461488734
 30
0.0
  0
VERTEX
  5
1BF
330
1A8
100
AcDbEntity
  8
Graypants_Ohio32
 62
    36
420
  8866048
370
    -3
100
AcDbVertex
100
AcDb2dVertex
 10
-245.5042637999998
 20
-1721.654238537236
 30
0.0
  0
VERTEX
  5
1C0
330
1A8
100
AcDbEntity
  8
Graypants_Ohio32
 62
    36
420
  8866048
370
    -3
100
AcDbVertex
100
AcDb2dVertex
 10
-245.543489908416
 20
-1721.683061065138
 30
0.0
  0
VERTEX
  5
1C1
330
1A8
100
AcDbEntity
  8
Graypants_Ohio32
 62
    36
420
  8866048
370
    -3
100
AcDbVertex
100
AcDb2dVertex
 10
-245.5831564143269
 20
-1721.711068432657
 30
0.0
  0
VERTEX
  5
1C2
330
1A8
100
AcDbEntity
  8
Graypants_Ohio32
 62
    36
420
  8866048
370
    -3
100
AcDbVertex
100
AcDb2dVertex
 10
-245.6232441612826
 20
-1721.738247384399
 30
0.0
  0
VERTEX
  5
1C3
330
1A8
100
AcDbEntity
  8
Graypants_Ohio32
 62
    36
420
  8866048
370
    -3
100
AcDbVertex
100
AcDb2dVertex
 10
-245.6637336006368
 20
-1721.764585468867
 30
0.0
  0
VERTEX
  5
1C4
330
1A8
100
AcDbEntity
  8
Graypants_Ohio32
 62
    36
420
  8866048
370
    -3
100
AcDbVertex
100
AcDb2dVertex
 10
-245.7046048232831
 20
-1721.790071057408
 30
0.0
  0
VERTEX
  5
1C5
330
1A8
100
AcDbEntity
  8
Graypants_Ohio32
 62
    36
420
  8866048
370
    -3
100
AcDbVertex
100
AcDb2dVertex
 10
-245.7458375921939
 20
-1721.81469336116
 30
0.0
  0
VERTEX
  5
1C6
330
1A8
100
AcDbEntity
  8
Graypants_Ohio32
 62
    36
420
  8866048
370
    -3
100
AcDbVertex
100
AcDb2dVertex
 10
-245.7874113756519
 20
-1721.838442445925
 30
0.0
  0
VERTEX
  5
1C7
330
1A8
100
AcDbEntity
  8
Graypants_Ohio32
 62
    36
420
  8866048
370
    -3
100
AcDbVertex
100
AcDb2dVertex
 10
-245.8293053810589
 20
-1721.861309244954
 30
0.0
  0
VERTEX
  5
1C8
330
1A8
100
AcDbEntity
  8
Graypants_Ohio32
 62
    36
420
  8866048
370
    -3
100
AcDbVertex
100
AcDb2dVertex
 10
-245.8714985892071
 20
-1721.88328556959
 30
0.0
  0
VERTEX
  5
1C9
330
1A8
100
AcDbEntity
  8
Graypants_Ohio32
 62
    36
420
  8866048
370
    -3
100
AcDbVertex
100
AcDb2dVertex
 10
-245.9139697888937
 20
-1721.904364117758
 30
0.0
  0
VERTEX
  5
1CA
330
1A8
100
AcDbEntity
  8
Graypants_Ohio32
 62
    36
420
  8866048
370
    -3
100
AcDbVertex
100
AcDb2dVertex
 10
-245.956697611764
 20
-1721.924538480281
 30
0.0
  0
VERTEX
  5
1CB
330
1A8
100
AcDbEntity
  8
Graypants_Ohio32
 62
    36
420
  8866048
370
    -3
100
AcDbVertex
100
AcDb2dVertex
 10
-245.9996605672612
 20
-1721.943803145029
 30
0.0
  0
VERTEX
  5
1CC
330
1A8
100
AcDbEntity
  8
Graypants_Ohio32
 62
    36
420
  8866048
370
    -3
100
AcDbVertex
100
AcDb2dVertex
 10
-246.0428370775686
 20
-1721.962153498896
 30
0.0
  0
VERTEX
  5
1CD
330
1A8
100
AcDbEntity
  8
Graypants_Ohio32
 62
    36
420
  8866048
370
    -3
100
AcDbVertex
100
AcDb2dVertex
 10
-246.0862055124277
 20
-1721.979585827637
 30
0.0
  0
VERTEX
  5
1CE
330
1A8
100
AcDbEntity
  8
Graypants_Ohio32
 62
    36
420
  8866048
370
    -3
100
AcDbVertex
100
AcDb2dVertex
 10
-246.1297442237165
 20
-1721.996097313572
 30
0.0
  0
VERTEX
  5
1CF
330
1A8
100
AcDbEntity
  8
Graypants_Ohio32
 62
    36
420
  8866048
370
    -3
100
AcDbVertex
100
AcDb2dVertex
 10
-246.1734315796805
 20
-1722.011686031202
 30
0.0
  0
VERTEX
  5
1D0
330
1A8
100
AcDbEntity
  8
Graypants_Ohio32
 62
    36
420
  8866048
370
    -3
100
AcDbVertex
100
AcDb2dVertex
 10
-246.217245998704
 20
-1722.026350940785
 30
0.0
  0
VERTEX
  5
1D1
330
1A8
100
AcDbEntity
  8
Graypants_Ohio32
 62
    36
420
  8866048
370
    -3
100
AcDbVertex
100
AcDb2dVertex
 10
-246.2611659825211
 20
-1722.040091879905
 30
0.0
  0
VERTEX
  5
1D2
330
1A8
100
AcDbEntity
  8
Graypants_Ohio32
 62
    36
420
  8866048
370
    -3
100
AcDbVertex
100
AcDb2dVertex
 10
-246.3051701487645
 20
-1722.052909553121
 30
0.0
  0
VERTEX
  5
1D3
330
1A8
100
AcDbEntity
  8
Graypants_Ohio32
 62
    36
420
  8866048
370
    -3
100
AcDbVertex
100
AcDb2dVertex
 10
-246.3492372627575
 20
-1722.064805519731
 30
0.0
  0
VERTEX
  5
1D4
330
1A8
100
AcDbEntity
  8
Graypants_Ohio32
 62
    36
420
  8866048
370
    -3
100
AcDbVertex
100
AcDb2dVertex
 10
-246.3933462684587
 20
-1722.07578217975
 30
0.0
  0
VERTEX
  5
1D5
330
1A8
100
AcDbEntity
  8
Graypants_Ohio32
 62
    36
420
  8866048
370
    -3
100
AcDbVertex
100
AcDb2dVertex
 10
-246.4374763184759
 20
-1722.08584275817
 30
0.0
  0
VERTEX
  5
1D6
330
1A8
100
AcDbEntity
  8
Graypants_Ohio32
 62
    36
420
  8866048
370
    -3
100
AcDbVertex
100
AcDb2dVertex
 10
-246.4816068030691
 20
-1722.094991287583
 30
0.0
  0
VERTEX
  5
1D7
330
1A8
100
AcDbEntity
  8
Graypants_Ohio32
 62
    36
420
  8866048
370
    -3
100
AcDbVertex
100
AcDb2dVertex
 10
-246.5257173780727
 20
-1722.103232589274
 30
0.0
  0
VERTEX
  5
1D8
330
1A8
100
AcDbEntity
  8
Graypants_Ohio32
 62
    36
420
  8866048
370
    -3
100
AcDbVertex
100
AcDb2dVertex
 10
-246.5697879916673
 20
-1722.110572252857
 30
0.0
  0
VERTEX
  5
1D9
330
1A8
100
AcDbEntity
  8
Graypants_Ohio32
 62
    36
420
  8866048
370
    -3
100
AcDbVertex
100
AcDb2dVertex
 10
-246.6137989099451
 20
-1722.11701661457
 30
0.0
  0
VERTEX
  5
1DA
330
1A8
100
AcDbEntity
  8
Graypants_Ohio32
 62
    36
420
  8866048
370
    -3
100
AcDbVertex
100
AcDb2dVertex
 10
-246.6577307412148
 20
-1722.12257273432
 30
0.0
  0
VERTEX
  5
1DB
330
1A8
100
AcDbEntity
  8
Graypants_Ohio32
 62
    36
420
  8866048
370
    -3
100
AcDbVertex
100
AcDb2dVertex
 10
-246.7015644589996
 20
-1722.127248371591
 30
0.0
  0
VERTEX
  5
1DC
330
1A8
100
AcDbEntity
  8
Graypants_Ohio32
 62
    36
420
  8866048
370
    -3
100
AcDbVertex
100
AcDb2dVertex
 10
-246.7452814236904
 20
-1722.131051960303
 30
0.0
  0
VERTEX
  5
1DD
330
1A8
100
AcDbEntity
  8
Graypants_Ohio32
 62
    36
420
  8866048
370
    -3
100
AcDbVertex
100
AcDb2dVertex
 10
-246.7888634028216
 20
-1722.133992582762
 30
0.0
  0
VERTEX
  5
1DE
330
1A8
100
AcDbEntity
  8
Graypants_Ohio32
 62
    36
420
  8866048
370
    -3
100
AcDbVertex
100
AcDb2dVertex
 10
-246.8322925899433
 20
-1722.136079942765
 30
0.0
  0
VERTEX
  5
1DF
330
1A8
100
AcDbEntity
  8
Graypants_Ohio32
 62
    36
420
  8866048
370
    -3
100
AcDbVertex
100
AcDb2dVertex
 10
-246.8755516220729
 20
-1722.137324338006
 30
0.0
  0
VERTEX
  5
1E0
330
1A8
100
AcDbEntity
  8
Graypants_Ohio32
 62
    36
420
  8866048
370
    -3
100
AcDbVertex
100
AcDb2dVertex
 10
-246.9186235957116
 20
-1722.137736631871
 30
0.0
  0
SEQEND
  5
1E1
330
1A8
100
AcDbEntity
  8
Graypants_Ohio32
 62
    36
420
  8866048
370
    -3
  0
POLYLINE
  5
1E2
330
1F
100
AcDbEntity
  8
Graypants_Ohio32
 62
    36
420
  8866048
370
    -3
100
AcDb2dPolyline
 66
     1
 10
0.0
 20
0.0
 30
0.0
  0
VERTEX
  5
1E3
330
1E2
100
AcDbEntity
  8
Graypants_Ohio32
 62
    36
420
  8866048
370
    -3
100
AcDbVertex
100
AcDb2dVertex
 10
-264.6867870298483
 20
-1722.13773663187
 30
0.0
  0
VERTEX
  5
1E4
330
1E2
100
AcDbEntity
  8
Graypants_Ohio32
 62
    36
420
  8866048
370
    -3
100
AcDbVertex
100
AcDb2dVertex
 10
-264.725231532276
 20
-1722.137243911257
 30
0.0
  0
VERTEX
  5
1E5
330
1E2
100
AcDbEntity
  8
Graypants_Ohio32
 62
    36
420
  8866048
370
    -3
100
AcDbVertex
100
AcDb2dVertex
 10
-264.7640022779497
 20
-1722.135748245281
 30
0.0
  0
VERTEX
  5
1E6
330
1E2
100
AcDbEntity
  8
Graypants_Ohio32
 62
    36
420
  8866048
370
    -3
100
AcDbVertex
100
AcDb2dVertex
 10
-264.803073871936
 20
-1722.133223997715
 30
0.0
  0
VERTEX
  5
1E7
330
1E2
100
AcDbEntity
  8
Graypants_Ohio32
 62
    36
420
  8866048
370
    -3
100
AcDbVertex
100
AcDb2dVertex
 10
-264.8424194820203
 20
-1722.129646449095
 30
0.0
  0
VERTEX
  5
1E8
330
1E2
100
AcDbEntity
  8
Graypants_Ohio32
 62
    36
420
  8866048
370
    -3
100
AcDbVertex
100
AcDb2dVertex
 10
-264.8820108555274
 20
-1722.124991910927
 30
0.0
  0
VERTEX
  5
1E9
330
1E2
100
AcDbEntity
  8
Graypants_Ohio32
 62
    36
420
  8866048
370
    -3
100
AcDbVertex
100
AcDb2dVertex
 10
-264.921818343435
 20
-1722.119237841206
 30
0.0
  0
VERTEX
  5
1EA
330
1E2
100
AcDbEntity
  8
Graypants_Ohio32
 62
    36
420
  8866048
370
    -3
100
AcDbVertex
100
AcDb2dVertex
 10
-264.9618109320706
 20
-1722.112362960619
 30
0.0
  0
VERTEX
  5
1EB
330
1E2
100
AcDbEntity
  8
Graypants_Ohio32
 62
    36
420
  8866048
370
    -3
100
AcDbVertex
100
AcDb2dVertex
 10
-265.001956282633
 20
-1722.104347368703
 30
0.0
  0
VERTEX
  5
1EC
330
1E2
100
AcDbEntity
  8
Graypants_Ohio32
 62
    36
420
  8866048
370
    -3
100
AcDbVertex
100
AcDb2dVertex
 10
-265.0422207787298
 20
-1722.095172659222
 30
0.0
  0
VERTEX
  5
1ED
330
1E2
100
AcDbEntity
  8
Graypants_Ohio32
 62
    36
420
  8866048
370
    -3
100
AcDbVertex
100
AcDb2dVertex
 10
-265.0825695820665
 20
-1722.084822033955
 30
0.0
  0
VERTEX
  5
1EE
330
1E2
100
AcDbEntity
  8
Graypants_Ohio32
 62
    36
420
  8866048
370
    -3
100
AcDbVertex
100
AcDb2dVertex
 10
-265.1229666963553
 20
-1722.073280414074
 30
0.0
  0
VERTEX
  5
1EF
330
1E2
100
AcDbEntity
  8
Graypants_Ohio32
 62
    36
420
  8866048
370
    -3
100
AcDbVertex
100
AcDb2dVertex
 10
-265.1633750394512
 20
-1722.060534548244
 30
0.0
  0
VERTEX
  5
1F0
330
1E2
100
AcDbEntity
  8
Graypants_Ohio32
 62
    36
420
  8866048
370
    -3
100
AcDbVertex
100
AcDb2dVertex
 10
-265.2037565236418
 20
-1722.046573116581
 30
0.0
  0
VERTEX
  5
1F1
330
1E2
100
AcDbEntity
  8
Graypants_Ohio32
 62
    36
420
  8866048
370
    -3
100
AcDbVertex
100
AcDb2dVertex
 10
-265.2440721439478
 20
-1722.031386829553
 30
0.0
  0
VERTEX
  5
1F2
330
1E2
100
AcDbEntity
  8
Graypants_Ohio32
 62
    36
420
  8866048
370
    -3
100
AcDbVertex
100
AcDb2dVertex
 10
-265.2842820742077
 20
-1722.014968520945
 30
0.0
  0
VERTEX
  5
1F3
330
1E2
100
AcDbEntity
  8
Graypants_Ohio32
 62
    36
420
  8866048
370
    -3
100
AcDbVertex
100
AcDb2dVertex
 10
-265.3243457706406
 20
-1721.997313233995
 30
0.0
  0
VERTEX
  5
1F4
330
1E2
100
AcDbEntity
  8
Graypants_Ohio32
 62
    36
420
  8866048
370
    -3
100
AcDbVertex
100
AcDb2dVertex
 10
-265.364222082496
 20
-1721.978418299834
 30
0.0
  0
VERTEX
  5
1F5
330
1E2
100
AcDbEntity
  8
Graypants_Ohio32
 62
    36
420
  8866048
370
    -3
100
AcDbVertex
100
AcDb2dVertex
 10
-265.4038693693209
 20
-1721.958283407384
 30
0.0
  0
VERTEX
  5
1F6
330
1E2
100
AcDbEntity
  8
Graypants_Ohio32
 62
    36
420
  8866048
370
    -3
100
AcDbVertex
100
AcDb2dVertex
 10
-265.4432456242872
 20
-1721.936910663916
 30
0.0
  0
VERTEX
  5
1F7
330
1E2
100
AcDbEntity
  8
Graypants_Ohio32
 62
    36
420
  8866048
370
    -3
100
AcDbVertex
100
AcDb2dVertex
 10
-265.4823086029511
 20
-1721.914304645529
 30
0.0
  0
VERTEX
  5
1F8
330
1E2
100
AcDbEntity
  8
Graypants_Ohio32
 62
    36
420
  8866048
370
    -3
100
AcDbVertex
100
AcDb2dVertex
 10
-265.5210159567343
 20
-1721.890472436852
 30
0.0
  0
VERTEX
  5
1F9
330
1E2
100
AcDbEntity
  8
Graypants_Ohio32
 62
    36
420
  8866048
370
    -3
100
AcDbVertex
100
AcDb2dVertex
 10
-265.559325370352
 20
-1721.865423659365
 30
0.0
  0
VERTEX
  5
1FA
330
1E2
100
AcDbEntity
  8
Graypants_Ohio32
 62
    36
420
  8866048
370
    -3
100
AcDbVertex
100
AcDb2dVertex
 10
-265.5971947023471
 20
-1721.839170487817
 30
0.0
  0
VERTEX
  5
1FB
330
1E2
100
AcDbEntity
  8
Graypants_Ohio32
 62
    36
420
  8866048
370
    -3
100
AcDbVertex
100
AcDb2dVertex
 10
-265.6345821278346
 20
-1721.811727654307
 30
0.0
  0
VERTEX
  5
1FC
330
1E2
100
AcDbEntity
  8
Graypants_Ohio32
 62
    36
420
  8866048
370
    -3
100
AcDbVertex
100
AcDb2dVertex
 10
-265.6714462825157
 20
-1721.783112439687
 30
0.0
  0
VERTEX
  5
1FD
330
1E2
100
AcDbEntity
  8
Graypants_Ohio32
 62
    36
420
  8866048
370
    -3
100
AcDbVertex
100
AcDb2dVertex
 10
-265.7077464069792
 20
-1721.753344652088
 30
0.0
  0
VERTEX
  5
1FE
330
1E2
100
AcDbEntity
  8
Graypants_Ohio32
 62
    36
420
  8866048
370
    -3
100
AcDbVertex
100
AcDb2dVertex
 10
-265.7434424902877
 20
-1721.72244659244
 30
0.0
  0
VERTEX
  5
1FF
330
1E2
100
AcDbEntity
  8
Graypants_Ohio32
 62
    36
420
  8866048
370
    -3
100
AcDbVertex
100
AcDb2dVertex
 10
-265.7784954118272
 20
-1721.69044300702
 30
0.0
  0
VERTEX
  5
200
330
1E2
100
AcDbEntity
  8
Graypants_Ohio32
 62
    36
420
  8866048
370
    -3
100
AcDbVertex
100
AcDb2dVertex
 10
-265.8128670803961
 20
-1721.657361027152
 30
0.0
  0
VERTEX
  5
201
330
1E2
100
AcDbEntity
  8
Graypants_Ohio32
 62
    36
420
  8866048
370
    -3
100
AcDbVertex
100
AcDb2dVertex
 10
-265.8465205695206
 20
-1721.623230096322
 30
0.0
  0
VERTEX
  5
202
330
1E2
100
AcDbEntity
  8
Graypants_Ohio32
 62
    36
420
  8866048
370
    -3
100
AcDbVertex
100
AcDb2dVertex
 10
-265.8794202480059
 20
-1721.588081885079
 30
0.0
  0
VERTEX
  5
203
330
1E2
100
AcDbEntity
  8
Graypants_Ohio32
 62
    36
420
  8866048
370
    -3
100
AcDbVertex
100
AcDb2dVertex
 10
-265.9115319047625
 20
-1721.551950194243
 30
0.0
  0
VERTEX
  5
204
330
1E2
100
AcDbEntity
  8
Graypants_Ohio32
 62
    36
420
  8866048
370
    -3
100
AcDbVertex
100
AcDb2dVertex
 10
-265.9428228669979
 20
-1721.514870847005
 30
0.0
  0
VERTEX
  5
205
330
1E2
100
AcDbEntity
  8
Graypants_Ohio32
 62
    36
420
  8866048
370
    -3
100
AcDbVertex
100
AcDb2dVertex
 10
-265.9732621109193
 20
-1721.476881570655
 30
0.0
  0
VERTEX
  5
206
330
1E2
100
AcDbEntity
  8
Graypants_Ohio32
 62
    36
420
  8866048
370
    -3
100
AcDbVertex
100
AcDb2dVertex
 10
-266.0028203641586
 20
-1721.438021868756
 30
0.0
  0
VERTEX
  5
207
330
1E2
100
AcDbEntity
  8
Graypants_Ohio32
 62
    36
420
  8866048
370
    -3
100
AcDbVertex
100
AcDb2dVertex
 10
-266.0314701992136
 20
-1721.398332884668
 30
0.0
  0
VERTEX
  5
208
330
1E2
100
AcDbEntity
  8
Graypants_Ohio32
 62
    36
420
  8866048
370
    -3
100
AcDbVertex
100
AcDb2dVertex
 10
-266.0591861172791
 20
-1721.357857257412
 30
0.0
  0
VERTEX
  5
209
330
1E2
100
AcDbEntity
  8
Graypants_Ohio32
 62
    36
420
  8866048
370
    -3
100
AcDbVertex
100
AcDb2dVertex
 10
-266.0859446219392
 20
-1721.316638970916
 30
0.0
  0
VERTEX
  5
20A
330
1E2
100
AcDbEntity
  8
Graypants_Ohio32
 62
    36
420
  8866048
370
    -3
100
AcDbVertex
100
AcDb2dVertex
 10
-266.1117242822891
 20
-1721.274723197775
 30
0.0
  0
VERTEX
  5
20B
330
1E2
100
AcDbEntity
  8
Graypants_Ohio32
 62
    36
420
  8866048
370
    -3
100
AcDbVertex
100
AcDb2dVertex
 10
-266.1365057851557
 20
-1721.23215613864
 30
0.0
  0
VERTEX
  5
20C
330
1E2
100
AcDbEntity
  8
Graypants_Ohio32
 62
    36
420
  8866048
370
    -3
100
AcDbVertex
100
AcDb2dVertex
 10
-266.1602719761958
 20
-1721.188984858425
 30
0.0
  0
VERTEX
  5
20D
330
1E2
100
AcDbEntity
  8
Graypants_Ohio32
 62
    36
420
  8866048
370
    -3
100
AcDbVertex
100
AcDb2dVertex
 10
-266.1830078897511
 20
-1721.145257120508
 30
0.0
  0
VERTEX
  5
20E
330
1E2
100
AcDbEntity
  8
Graypants_Ohio32
 62
    36
420
  8866048
370
    -3
100
AcDbVertex
100
AcDb2dVertex
 10
-266.2047007674514
 20
-1721.101021220106
 30
0.0
  0
VERTEX
  5
20F
330
1E2
100
AcDbEntity
  8
Graypants_Ohio32
 62
    36
420
  8866048
370
    -3
100
AcDbVertex
100
AcDb2dVertex
 10
-266.2253400656535
 20
-1721.056325817982
 30
0.0
  0
VERTEX
  5
210
330
1E2
100
AcDbEntity
  8
Graypants_Ohio32
 62
    36
420
  8866048
370
    -3
100
AcDbVertex
100
AcDb2dVertex
 10
-266.2449174519109
 20
-1721.011219775618
 30
0.0
  0
VERTEX
  5
211
330
1E2
100
AcDbEntity
  8
Graypants_Ohio32
 62
    36
420
  8866048
370
    -3
100
AcDbVertex
100
AcDb2dVertex
 10
-266.2634267907556
 20
-1720.96575199294
 30
0.0
  0
VERTEX
  5
212
330
1E2
100
AcDbEntity
  8
Graypants_Ohio32
 62
    36
420
  8866048
370
    -3
100
AcDbVertex
100
AcDb2dVertex
 10
-266.2808641191704
 20
-1720.919971249629
 30
0.0
  0
VERTEX
  5
213
330
1E2
100
AcDbEntity
  8
Graypants_Ohio32
 62
    36
420
  8866048
370
    -3
100
AcDbVertex
100
AcDb2dVertex
 10
-266.2972276122036
 20
-1720.873926050994
 30
0.0
  0
VERTEX
  5
214
330
1E2
100
AcDbEntity
  8
Graypants_Ohio32
 62
    36
420
  8866048
370
    -3
100
AcDbVertex
100
AcDb2dVertex
 10
-266.3125175392573
 20
-1720.827664479286
 30
0.0
  0
VERTEX
  5
215
330
1E2
100
AcDbEntity
  8
Graypants_Ohio32
 62
    36
420
  8866048
370
    -3
100
AcDbVertex
100
AcDb2dVertex
 10
-266.3267362116404
 20
-1720.7812340513
 30
0.0
  0
VERTEX
  5
216
330
1E2
100
AcDbEntity
  8
Graypants_Ohio32
 62
    36
420
  8866048
370
    -3
100
AcDbVertex
100
AcDb2dVertex
 10
-266.3398879220337
 20
-1720.734681582962
 30
0.0
  0
VERTEX
  5
217
330
1E2
100
AcDbEntity
  8
Graypants_Ohio32
 62
    36
420
  8866048
370
    -3
100
AcDbVertex
100
AcDb2dVertex
 10
-266.3519788765615
 20
-1720.688053061561
 30
0.0
  0
VERTEX
  5
218
330
1E2
100
AcDbEntity
  8
Graypants_Ohio32
 62
    36
420
  8866048
370
    -3
100
AcDbVertex
100
AcDb2dVertex
 10
-266.3630171201949
 20
-1720.641393526167
 30
0.0
  0
VERTEX
  5
219
330
1E2
100
AcDbEntity
  8
Graypants_Ohio32
 62
    36
420
  8866048
370
    -3
100
AcDbVertex
100
AcDb2dVertex
 10
-266.3730124562421
 20
-1720.594746956683
 30
0.0
  0
VERTEX
  5
21A
330
1E2
100
AcDbEntity
  8
Graypants_Ohio32
 62
    36
420
  8866048
370
    -3
100
AcDbVertex
100
AcDb2dVertex
 10
-266.3819763606941
 20
-1720.548156171881
 30
0.0
  0
VERTEX
  5
21B
330
1E2
100
AcDbEntity
  8
Graypants_Ohio32
 62
    36
420
  8866048
370
    -3
100
AcDbVertex
100
AcDb2dVertex
 10
-266.3899218921997
 20
-1720.501662736694
 30
0.0
  0
VERTEX
  5
21C
330
1E2
100
AcDbEntity
  8
Graypants_Ohio32
 62
    36
420
  8866048
370
    -3
100
AcDbVertex
100
AcDb2dVertex
 10
-266.396863598445
 20
-1720.45530687892
 30
0.0
  0
VERTEX
  5
21D
330
1E2
100
AcDbEntity
  8
Graypants_Ohio32
 62
    36
420
  8866048
370
    -3
100
AcDbVertex
100
AcDb2dVertex
 10
-266.402817419699
 20
-1720.409127415424
 30
0.0
  0
VERTEX
  5
21E
330
1E2
100
AcDbEntity
  8
Graypants_Ohio32
 62
    36
420
  8866048
370
    -3
100
AcDbVertex
100
AcDb2dVertex
 10
-266.4078005902668
 20
-1720.363161687837
 30
0.0
  0
VERTEX
  5
21F
330
1E2
100
AcDbEntity
  8
Graypants_Ohio32
 62
    36
420
  8866048
370
    -3
100
AcDbVertex
100
AcDb2dVertex
 10
-266.411831538575
 20
-1720.317445507665
 30
0.0
  0
VERTEX
  5
220
330
1E2
100
AcDbEntity
  8
Graypants_Ohio32
 62
    36
420
  8866048
370
    -3
100
AcDbVertex
100
AcDb2dVertex
 10
-266.4149297865715
 20
-1720.272013110648
 30
0.0
  0
VERTEX
  5
221
330
1E2
100
AcDbEntity
  8
Graypants_Ohio32
 62
    36
420
  8866048
370
    -3
100
AcDbVertex
100
AcDb2dVertex
 10
-266.4171158490956
 20
-1720.226897120167
 30
0.0
  0
VERTEX
  5
222
330
1E2
100
AcDbEntity
  8
Graypants_Ohio32
 62
    36
420
  8866048
370
    -3
100
AcDbVertex
100
AcDb2dVertex
 10
-266.41841113383
 20
-1720.182128519393
 30
0.0
  0
VERTEX
  5
223
330
1E2
100
AcDbEntity
  8
Graypants_Ohio32
 62
    36
420
  8866048
370
    -3
100
AcDbVertex
100
AcDb2dVertex
 10
-266.4188378423989
 20
-1720.13773663187
 30
0.0
  0
SEQEND
  5
224
330
1E2
100
AcDbEntity
  8
Graypants_Ohio32
 62
    36
420
  8866048
370
    -3
  0
POLYLINE
  5
225
330
1F
100
AcDbEntity
  8
Graypants_Ohio32
 62
    36
420
  8866048
370
    -3
100
AcDb2dPolyline
 66
     1
 10
0.0
 20
0.0
 30
0.0
  0
VERTEX
  5
226
330
225
100
AcDbEntity
  8
Graypants_Ohio32
 62
    36
420
  8866048
370
    -3
100
AcDbVertex
100
AcDb2dVertex
 10
-266.1867870169053
 20
-1722.13773663187
 30
0.0
  0
VERTEX
  5
227
330
225
100
AcDbEntity
  8
Graypants_Ohio32
 62
    36
420
  8866048
370
    -3
100
AcDbVertex
100
AcDb2dVertex
 10
-266.2252315193329
 20
-1722.137243911257
 30
0.0
  0
VERTEX
  5
228
330
225
100
AcDbEntity
  8
Graypants_Ohio32
 62
    36
420
  8866048
370
    -3
100
AcDbVertex
100
AcDb2dVertex
 10
-266.2640022650066
 20
-1722.135748245281
 30
0.0
  0
VERTEX
  5
229
330
225
100
AcDbEntity
  8
Graypants_Ohio32
 62
    36
420
  8866048
370
    -3
100
AcDbVertex
100
AcDb2dVertex
 10
-266.3030738589929
 20
-1722.133223997715
 30
0.0
  0
VERTEX
  5
22A
330
225
100
AcDbEntity
  8
Graypants_Ohio32
 62
    36
420
  8866048
370
    -3
100
AcDbVertex
100
AcDb2dVertex
 10
-266.3424194690772
 20
-1722.129646449095
 30
0.0
  0
VERTEX
  5
22B
330
225
100
AcDbEntity
  8
Graypants_Ohio32
 62
    36
420
  8866048
370
    -3
100
AcDbVertex
100
AcDb2dVertex
 10
-266.3820108425844
 20
-1722.124991910927
 30
0.0
  0
VERTEX
  5
22C
330
225
100
AcDbEntity
  8
Graypants_Ohio32
 62
    36
420
  8866048
370
    -3
100
AcDbVertex
100
AcDb2dVertex
 10
-266.421818330492
 20
-1722.119237841206
 30
0.0
  0
VERTEX
  5
22D
330
225
100
AcDbEntity
  8
Graypants_Ohio32
 62
    36
420
  8866048
370
    -3
100
AcDbVertex
100
AcDb2dVertex
 10
-266.4618109191276
 20
-1722.112362960619
 30
0.0
  0
VERTEX
  5
22E
330
225
100
AcDbEntity
  8
Graypants_Ohio32
 62
    36
420
  8866048
370
    -3
100
AcDbVertex
100
AcDb2dVertex
 10
-266.5019562696899
 20
-1722.104347368703
 30
0.0
  0
VERTEX
  5
22F
330
225
100
AcDbEntity
  8
Graypants_Ohio32
 62
    36
420
  8866048
370
    -3
100
AcDbVertex
100
AcDb2dVertex
 10
-266.5422207657868
 20
-1722.095172659222
 30
0.0
  0
VERTEX
  5
230
330
225
100
AcDbEntity
  8
Graypants_Ohio32
 62
    36
420
  8866048
370
    -3
100
AcDbVertex
100
AcDb2dVertex
 10
-266.5825695691234
 20
-1722.084822033955
 30
0.0
  0
VERTEX
  5
231
330
225
100
AcDbEntity
  8
Graypants_Ohio32
 62
    36
420
  8866048
370
    -3
100
AcDbVertex
100
AcDb2dVertex
 10
-266.6229666834123
 20
-1722.073280414074
 30
0.0
  0
VERTEX
  5
232
330
225
100
AcDbEntity
  8
Graypants_Ohio32
 62
    36
420
  8866048
370
    -3
100
AcDbVertex
100
AcDb2dVertex
 10
-266.6633750265082
 20
-1722.060534548244
 30
0.0
  0
VERTEX
  5
233
330
225
100
AcDbEntity
  8
Graypants_Ohio32
 62
    36
420
  8866048
370
    -3
100
AcDbVertex
100
AcDb2dVertex
 10
-266.7037565106988
 20
-1722.046573116581
 30
0.0
  0
VERTEX
  5
234
330
225
100
AcDbEntity
  8
Graypants_Ohio32
 62
    36
420
  8866048
370
    -3
100
AcDbVertex
100
AcDb2dVertex
 10
-266.7440721310048
 20
-1722.031386829553
 30
0.0
  0
VERTEX
  5
235
330
225
100
AcDbEntity
  8
Graypants_Ohio32
 62
    36
420
  8866048
370
    -3
100
AcDbVertex
100
AcDb2dVertex
 10
-266.7842820612647
 20
-1722.014968520945
 30
0.0
  0
VERTEX
  5
236
330
225
100
AcDbEntity
  8
Graypants_Ohio32
 62
    36
420
  8866048
370
    -3
100
AcDbVertex
100
AcDb2dVertex
 10
-266.8243457576976
 20
-1721.997313233995
 30
0.0
  0
VERTEX
  5
237
330
225
100
AcDbEntity
  8
Graypants_Ohio32
 62
    36
420
  8866048
370
    -3
100
AcDbVertex
100
AcDb2dVertex
 10
-266.864222069553
 20
-1721.978418299834
 30
0.0
  0
VERTEX
  5
238
330
225
100
AcDbEntity
  8
Graypants_Ohio32
 62
    36
420
  8866048
370
    -3
100
AcDbVertex
100
AcDb2dVertex
 10
-266.9038693563779
 20
-1721.958283407384
 30
0.0
  0
VERTEX
  5
239
330
225
100
AcDbEntity
  8
Graypants_Ohio32
 62
    36
420
  8866048
370
    -3
100
AcDbVertex
100
AcDb2dVertex
 10
-266.9432456113442
 20
-1721.936910663916
 30
0.0
  0
VERTEX
  5
23A
330
225
100
AcDbEntity
  8
Graypants_Ohio32
 62
    36
420
  8866048
370
    -3
100
AcDbVertex
100
AcDb2dVertex
 10
-266.9823085900081
 20
-1721.914304645529
 30
0.0
  0
VERTEX
  5
23B
330
225
100
AcDbEntity
  8
Graypants_Ohio32
 62
    36
420
  8866048
370
    -3
100
AcDbVertex
100
AcDb2dVertex
 10
-267.0210159437913
 20
-1721.890472436852
 30
0.0
  0
VERTEX
  5
23C
330
225
100
AcDbEntity
  8
Graypants_Ohio32
 62
    36
420
  8866048
370
    -3
100
AcDbVertex
100
AcDb2dVertex
 10
-267.059325357409
 20
-1721.865423659365
 30
0.0
  0
VERTEX
  5
23D
330
225
100
AcDbEntity
  8
Graypants_Ohio32
 62
    36
420
  8866048
370
    -3
100
AcDbVertex
100
AcDb2dVertex
 10
-267.0971946894041
 20
-1721.839170487817
 30
0.0
  0
VERTEX
  5
23E
330
225
100
AcDbEntity
  8
Graypants_Ohio32
 62
    36
420
  8866048
370
    -3
100
AcDbVertex
100
AcDb2dVertex
 10
-267.1345821148916
 20
-1721.811727654307
 30
0.0
  0
VERTEX
  5
23F
330
225
100
AcDbEntity
  8
Graypants_Ohio32
 62
    36
420
  8866048
370
    -3
100
AcDbVertex
100
AcDb2dVertex
 10
-267.1714462695728
 20
-1721.783112439687
 30
0.0
  0
VERTEX
  5
240
330
225
100
AcDbEntity
  8
Graypants_Ohio32
 62
    36
420
  8866048
370
    -3
100
AcDbVertex
100
AcDb2dVertex
 10
-267.2077463940362
 20
-1721.753344652088
 30
0.0
  0
VERTEX
  5
241
330
225
100
AcDbEntity
  8
Graypants_Ohio32
 62
    36
420
  8866048
370
    -3
100
AcDbVertex
100
AcDb2dVertex
 10
-267.2434424773447
 20
-1721.72244659244
 30
0.0
  0
VERTEX
  5
242
330
225
100
AcDbEntity
  8
Graypants_Ohio32
 62
    36
420
  8866048
370
    -3
100
AcDbVertex
100
AcDb2dVertex
 10
-267.2784953988842
 20
-1721.69044300702
 30
0.0
  0
VERTEX
  5
243
330
225
100
AcDbEntity
  8
Graypants_Ohio32
 62
    36
420
  8866048
370
    -3
100
AcDbVertex
100
AcDb2dVertex
 10
-267.312867067453
 20
-1721.657361027152
 30
0.0
  0
VERTEX
  5
244
330
225
100
AcDbEntity
  8
Graypants_Ohio32
 62
    36
420
  8866048
370
    -3
100
AcDbVertex
100
AcDb2dVertex
 10
-267.3465205565776
 20
-1721.623230096322
 30
0.0
  0
VERTEX
  5
245
330
225
100
AcDbEntity
  8
Graypants_Ohio32
 62
    36
420
  8866048
370
    -3
100
AcDbVertex
100
AcDb2dVertex
 10
-267.3794202350629
 20
-1721.588081885079
 30
0.0
  0
VERTEX
  5
246
330
225
100
AcDbEntity
  8
Graypants_Ohio32
 62
    36
420
  8866048
370
    -3
100
AcDbVertex
100
AcDb2dVertex
 10
-267.4115318918195
 20
-1721.551950194243
 30
0.0
  0
VERTEX
  5
247
330
225
100
AcDbEntity
  8
Graypants_Ohio32
 62
    36
420
  8866048
370
    -3
100
AcDbVertex
100
AcDb2dVertex
 10
-267.4428228540549
 20
-1721.514870847005
 30
0.0
  0
VERTEX
  5
248
330
225
100
AcDbEntity
  8
Graypants_Ohio32
 62
    36
420
  8866048
370
    -3
100
AcDbVertex
100
AcDb2dVertex
 10
-267.4732620979763
 20
-1721.476881570655
 30
0.0
  0
VERTEX
  5
249
330
225
100
AcDbEntity
  8
Graypants_Ohio32
 62
    36
420
  8866048
370
    -3
100
AcDbVertex
100
AcDb2dVertex
 10
-267.5028203512156
 20
-1721.438021868756
 30
0.0
  0
VERTEX
  5
24A
330
225
100
AcDbEntity
  8
Graypants_Ohio32
 62
    36
420
  8866048
370
    -3
100
AcDbVertex
100
AcDb2dVertex
 10
-267.5314701862706
 20
-1721.398332884668
 30
0.0
  0
VERTEX
  5
24B
330
225
100
AcDbEntity
  8
Graypants_Ohio32
 62
    36
420
  8866048
370
    -3
100
AcDbVertex
100
AcDb2dVertex
 10
-267.559186104336
 20
-1721.357857257412
 30
0.0
  0
VERTEX
  5
24C
330
225
100
AcDbEntity
  8
Graypants_Ohio32
 62
    36
420
  8866048
370
    -3
100
AcDbVertex
100
AcDb2dVertex
 10
-267.5859446089962
 20
-1721.316638970916
 30
0.0
  0
VERTEX
  5
24D
330
225
100
AcDbEntity
  8
Graypants_Ohio32
 62
    36
420
  8866048
370
    -3
100
AcDbVertex
100
AcDb2dVertex
 10
-267.6117242693462
 20
-1721.274723197775
 30
0.0
  0
VERTEX
  5
24E
330
225
100
AcDbEntity
  8
Graypants_Ohio32
 62
    36
420
  8866048
370
    -3
100
AcDbVertex
100
AcDb2dVertex
 10
-267.6365057722127
 20
-1721.23215613864
 30
0.0
  0
VERTEX
  5
24F
330
225
100
AcDbEntity
  8
Graypants_Ohio32
 62
    36
420
  8866048
370
    -3
100
AcDbVertex
100
AcDb2dVertex
 10
-267.6602719632529
 20
-1721.188984858425
 30
0.0
  0
VERTEX
  5
250
330
225
100
AcDbEntity
  8
Graypants_Ohio32
 62
    36
420
  8866048
370
    -3
100
AcDbVertex
100
AcDb2dVertex
 10
-267.6830078768081
 20
-1721.145257120508
 30
0.0
  0
VERTEX
  5
251
330
225
100
AcDbEntity
  8
Graypants_Ohio32
 62
    36
420
  8866048
370
    -3
100
AcDbVertex
100
AcDb2dVertex
 10
-267.7047007545083
 20
-1721.101021220106
 30
0.0
  0
VERTEX
  5
252
330
225
100
AcDbEntity
  8
Graypants_Ohio32
 62
    36
420
  8866048
370
    -3
100
AcDbVertex
100
AcDb2dVertex
 10
-267.7253400527105
 20
-1721.056325817982
 30
0.0
  0
VERTEX
  5
253
330
225
100
AcDbEntity
  8
Graypants_Ohio32
 62
    36
420
  8866048
370
    -3
100
AcDbVertex
100
AcDb2dVertex
 10
-267.7449174389679
 20
-1721.011219775618
 30
0.0
  0
VERTEX
  5
254
330
225
100
AcDbEntity
  8
Graypants_Ohio32
 62
    36
420
  8866048
370
    -3
100
AcDbVertex
100
AcDb2dVertex
 10
-267.7634267778126
 20
-1720.96575199294
 30
0.0
  0
VERTEX
  5
255
330
225
100
AcDbEntity
  8
Graypants_Ohio32
 62
    36
420
  8866048
370
    -3
100
AcDbVertex
100
AcDb2dVertex
 10
-267.7808641062273
 20
-1720.919971249629
 30
0.0
  0
VERTEX
  5
256
330
225
100
AcDbEntity
  8
Graypants_Ohio32
 62
    36
420
  8866048
370
    -3
100
AcDbVertex
100
AcDb2dVertex
 10
-267.7972275992606
 20
-1720.873926050994
 30
0.0
  0
VERTEX
  5
257
330
225
100
AcDbEntity
  8
Graypants_Ohio32
 62
    36
420
  8866048
370
    -3
100
AcDbVertex
100
AcDb2dVertex
 10
-267.8125175263143
 20
-1720.827664479286
 30
0.0
  0
VERTEX
  5
258
330
225
100
AcDbEntity
  8
Graypants_Ohio32
 62
    36
420
  8866048
370
    -3
100
AcDbVertex
100
AcDb2dVertex
 10
-267.8267361986973
 20
-1720.7812340513
 30
0.0
  0
VERTEX
  5
259
330
225
100
AcDbEntity
  8
Graypants_Ohio32
 62
    36
420
  8866048
370
    -3
100
AcDbVertex
100
AcDb2dVertex
 10
-267.8398879090907
 20
-1720.734681582962
 30
0.0
  0
VERTEX
  5
25A
330
225
100
AcDbEntity
  8
Graypants_Ohio32
 62
    36
420
  8866048
370
    -3
100
AcDbVertex
100
AcDb2dVertex
 10
-267.8519788636185
 20
-1720.688053061561
 30
0.0
  0
VERTEX
  5
25B
330
225
100
AcDbEntity
  8
Graypants_Ohio32
 62
    36
420
  8866048
370
    -3
100
AcDbVertex
100
AcDb2dVertex
 10
-267.8630171072518
 20
-1720.641393526167
 30
0.0
  0
VERTEX
  5
25C
330
225
100
AcDbEntity
  8
Graypants_Ohio32
 62
    36
420
  8866048
370
    -3
100
AcDbVertex
100
AcDb2dVertex
 10
-267.8730124432992
 20
-1720.594746956683
 30
0.0
  0
VERTEX
  5
25D
330
225
100
AcDbEntity
  8
Graypants_Ohio32
 62
    36
420
  8866048
370
    -3
100
AcDbVertex
100
AcDb2dVertex
 10
-267.881976347751
 20
-1720.548156171881
 30
0.0
  0
VERTEX
  5
25E
330
225
100
AcDbEntity
  8
Graypants_Ohio32
 62
    36
420
  8866048
370
    -3
100
AcDbVertex
100
AcDb2dVertex
 10
-267.8899218792566
 20
-1720.501662736694
 30
0.0
  0
VERTEX
  5
25F
330
225
100
AcDbEntity
  8
Graypants_Ohio32
 62
    36
420
  8866048
370
    -3
100
AcDbVertex
100
AcDb2dVertex
 10
-267.896863585502
 20
-1720.45530687892
 30
0.0
  0
VERTEX
  5
260
330
225
100
AcDbEntity
  8
Graypants_Ohio32
 62
    36
420
  8866048
370
    -3
100
AcDbVertex
100
AcDb2dVertex
 10
-267.902817406756
 20
-1720.409127415424
 30
0.0
  0
VERTEX
  5
261
330
225
100
AcDbEntity
  8
Graypants_Ohio32
 62
    36
420
  8866048
370
    -3
100
AcDbVertex
100
AcDb2dVertex
 10
-267.9078005773238
 20
-1720.363161687837
 30
0.0
  0
VERTEX
  5
262
330
225
100
AcDbEntity
  8
Graypants_Ohio32
 62
    36
420
  8866048
370
    -3
100
AcDbVertex
100
AcDb2dVertex
 10
-267.911831525632
 20
-1720.317445507665
 30
0.0
  0
VERTEX
  5
263
330
225
100
AcDbEntity
  8
Graypants_Ohio32
 62
    36
420
  8866048
370
    -3
100
AcDbVertex
100
AcDb2dVertex
 10
-267.9149297736284
 20
-1720.272013110648
 30
0.0
  0
VERTEX
  5
264
330
225
100
AcDbEntity
  8
Graypants_Ohio32
 62
    36
420
  8866048
370
    -3
100
AcDbVertex
100
AcDb2dVertex
 10
-267.9171158361526
 20
-1720.226897120167
 30
0.0
  0
VERTEX
  5
265
330
225
100
AcDbEntity
  8
Graypants_Ohio32
 62
    36
420
  8866048
370
    -3
100
AcDbVertex
100
AcDb2dVertex
 10
-267.918411120887
 20
-1720.182128519393
 30
0.0
  0
VERTEX
  5
266
330
225
100
AcDbEntity
  8
Graypants_Ohio32
 62
    36
420
  8866048
370
    -3
100
AcDbVertex
100
AcDb2dVertex
 10
-267.9188378294559
 20
-1720.13773663187
 30
0.0
  0
SEQEND
  5
267
330
225
100
AcDbEntity
  8
Graypants_Ohio32
 62
    36
420
  8866048
370
    -3
  0
LINE
  5
268
330
1F
100
AcDbEntity
  8
Graypants_Ohio32
 62
    36
420
  8866048
370
    -3
100
AcDbLine
 10
-266.4188378423989
 20
-1720.13773663187
 30
0.0
 11
-266.4188378423989
 21
-1718.093635954064
 31
0.0
  0
LINE
  5
269
330
1F
100
AcDbEntity
  8
Graypants_Ohio32
 62
    36
420
  8866048
370
    -3
100
AcDbLine
 10
-267.9188378294559
 20
-1720.13773663187
 30
0.0
 11
-267.9188378294559
 21
-1718.093635954064
 31
0.0
  0
LINE
  5
26A
330
1F
100
AcDbEntity
  8
Graypants_Ohio32
 62
    36
420
  8866048
370
    -3
100
AcDbLine
 10
-264.6867870298483
 20
-1722.13773663187
 30
0.0
 11
-266.1867870169053
 21
-1722.13773663187
 31
0.0
  0
ARC
  5
26B
330
1F
100
AcDbEntity
  8
Graypants_Ohio32
 62
    36
420
  8866048
370
    -3
100
AcDbCircle
 10
-180.8469058151766
 20
-1747.477722576849
 30
0.0
 40
69.22929482014499
100
AcDbArc
 50
154.8844076728924
 51
157.0262260887606
  0
ARC
  5
26C
330
1F
100
AcDbEntity
  8
Graypants_Ohio32
 62
    36
420
  8866048
370
    -3
100
AcDbCircle
 10
-180.846903225069
 20
-1747.477722493432
 30
0.0
 40
69.22929513201298
210
0.0
220
0.0
230
-1.0
100
AcDbArc
 50
154.8844078701339
 51
157.0262262731663
  0
LINE
  5
26D
330
1F
100
AcDbEntity
  8
Graypants_Ohio32
 62
    36
420
  8866048
370
    -3
100
AcDbLine
 10
-1.500000000010859
 20
-1718.093635954066
 30
0.0
 11
-1.500000000010687
 21
-1720.456854278931
 31
0.0
  0
LINE
  5
26E
330
1F
100
AcDbEntity
  8
Graypants_Ohio32
 62
    36
420
  8866048
370
    -3
100
AcDbLine
 10
1.499999999989098
 20
-1718.092553087499
 30
0.0
 11
1.499999999989313
 21
-1720.456854278931
 31
0.0
  0
LINE
  5
26F
330
1F
100
AcDbEntity
  8
Graypants_Ohio32
 62
    36
420
  8866048
370
    -3
100
AcDbLine
 10
246.9186213588166
 20
-1722.13773663187
 30
0.0
 11
264.6867846339198
 21
-1722.137736631868
 31
0.0
  0
LINE
  5
270
330
1F
100
AcDbEntity
  8
Graypants_Ohio32
 62
    36
420
  8866048
370
    -3
100
AcDbLine
 10
-246.9186235957116
 20
-1722.137736631871
 30
0.0
 11
-264.6867870298483
 21
-1722.13773663187
 31
0.0
  0
LINE
  5
271
330
1F
100
AcDbEntity
  8
Graypants_Ohio32
100
AcDbLine
 10
402.3595756276191
 20
-1547.68799346748
 30
0.0
 11
402.3595756276191
 21
-1554.787993467478
 31
0.0
  0
LINE
  5
272
330
1F
100
AcDbEntity
  8
Graypants_Ohio32
100
AcDbLine
 10
312.2879766185215
 20
-1391.487993467468
 30
0.0
 11
312.2879766185215
 21
-1398.58799346747
 31
0.0
  0
LINE
  5
273
330
1F
100
AcDbEntity
  8
Graypants_Ohio32
100
AcDbLine
 10
320.7012455231597
 20
-1398.58799346747
 30
0.0
 11
320.7012455231597
 21
-1405.687993467473
 31
0.0
  0
LINE
  5
274
330
1F
100
AcDbEntity
  8
Graypants_Ohio32
100
AcDbLine
 10
369.7219176366634
 20
-1455.387993467473
 30
0.0
 11
369.7219176366634
 21
-1462.487993467475
 31
0.0
  0
LINE
  5
275
330
1F
100
AcDbEntity
  8
Graypants_Ohio32
100
AcDbLine
 10
374.3304232493683
 20
-1462.487993467475
 30
0.0
 11
374.3304232493683
 21
-1469.587993467474
 31
0.0
  0
LINE
  5
276
330
1F
100
AcDbEntity
  8
Graypants_Ohio32
100
AcDbLine
 10
378.6092309310116
 20
-1469.587993467474
 30
0.0
 11
378.6092309310116
 21
-1476.687993467473
 31
0.0
  0
LINE
  5
277
330
1F
100
AcDbEntity
  8
Graypants_Ohio32
100
AcDbLine
 10
382.5568829314216
 20
-1476.687993467473
 30
0.0
 11
382.5568829314216
 21
-1483.787993467475
 31
0.0
  0
LINE
  5
278
330
1F
100
AcDbEntity
  8
Graypants_Ohio32
100
AcDbLine
 10
386.1706221080822
 20
-1483.787993467475
 30
0.0
 11
386.1706221080822
 21
-1490.887993467477
 31
0.0
  0
LINE
  5
279
330
1F
100
AcDbEntity
  8
Graypants_Ohio32
100
AcDbLine
 10
389.4464677201686
 20
-1490.887993467477
 30
0.0
 11
389.4464677201686
 21
-1497.987993467475
 31
0.0
  0
LINE
  5
27A
330
1F
100
AcDbEntity
  8
Graypants_Ohio32
100
AcDbLine
 10
392.3792401001556
 20
-1497.987993467475
 30
0.0
 11
392.3792401001556
 21
-1505.087993467474
 31
0.0
  0
LINE
  5
27B
330
1F
100
AcDbEntity
  8
Graypants_Ohio32
100
AcDbLine
 10
394.9626011348882
 20
-1505.087993467474
 30
0.0
 11
394.9626011348882
 21
-1512.187993467476
 31
0.0
  0
LINE
  5
27C
330
1F
100
AcDbEntity
  8
Graypants_Ohio32
100
AcDbLine
 10
397.1890683268357
 20
-1512.187993467476
 30
0.0
 11
397.1890683268357
 21
-1519.287993467478
 31
0.0
  0
LINE
  5
27D
330
1F
100
AcDbEntity
  8
Graypants_Ohio32
100
AcDbLine
 10
399.0481306311922
 20
-1519.287993467478
 30
0.0
 11
399.0481306311922
 21
-1526.387993467477
 31
0.0
  0
LINE
  5
27E
330
1F
100
AcDbEntity
  8
Graypants_Ohio32
100
AcDbLine
 10
400.5140826683346
 20
-1526.387993467477
 30
0.0
 11
400.5140826683346
 21
-1533.487993467475
 31
0.0
  0
LINE
  5
27F
330
1F
100
AcDbEntity
  8
Graypants_Ohio32
100
AcDbLine
 10
401.5826912564225
 20
-1533.487993467475
 30
0.0
 11
401.5826912564225
 21
-1540.587993467478
 31
0.0
  0
LINE
  5
280
330
1F
100
AcDbEntity
  8
Graypants_Ohio32
100
AcDbLine
 10
402.3595756276191
 20
-1540.587993467478
 30
0.0
 11
402.3595756276191
 21
-1547.68799346748
 31
0.0
  0
LINE
  5
281
330
1F
100
AcDbEntity
  8
Graypants_Ohio32
100
AcDbLine
 10
327.9719059944182
 20
-1405.687993467473
 30
0.0
 11
327.9719059944182
 21
-1412.787993467471
 31
0.0
  0
LINE
  5
282
330
1F
100
AcDbEntity
  8
Graypants_Ohio32
100
AcDbLine
 10
334.9923996181096
 20
-1412.787993467471
 30
0.0
 11
334.9923996181096
 21
-1419.88799346747
 31
0.0
  0
LINE
  5
283
330
1F
100
AcDbEntity
  8
Graypants_Ohio32
100
AcDbLine
 10
341.6609337478949
 20
-1419.88799346747
 30
0.0
 11
341.6609337478949
 21
-1426.987993467472
 31
0.0
  0
LINE
  5
284
330
1F
100
AcDbEntity
  8
Graypants_Ohio32
100
AcDbLine
 10
347.963105178118
 20
-1426.987993467472
 30
0.0
 11
347.963105178118
 21
-1434.087993467474
 31
0.0
  0
LINE
  5
285
330
1F
100
AcDbEntity
  8
Graypants_Ohio32
100
AcDbLine
 10
353.9100322648228
 20
-1434.087993467474
 30
0.0
 11
353.9100322648228
 21
-1441.187993467473
 31
0.0
  0
LINE
  5
286
330
1F
100
AcDbEntity
  8
Graypants_Ohio32
100
AcDbLine
 10
359.5142781496324
 20
-1441.187993467473
 30
0.0
 11
359.5142781496324
 21
-1448.287993467471
 31
0.0
  0
LINE
  5
287
330
1F
100
AcDbEntity
  8
Graypants_Ohio32
100
AcDbLine
 10
364.7837405204482
 20
-1448.287993467471
 30
0.0
 11
364.7837405204482
 21
-1455.387993467473
 31
0.0
  0
LINE
  5
288
330
1F
100
AcDbEntity
  8
Graypants_Ohio32
100
AcDbLine
 10
364.7837405204482
 20
-1661.287993467486
 30
0.0
 11
364.7837405204482
 21
-1654.187993467483
 31
0.0
  0
LINE
  5
289
330
1F
100
AcDbEntity
  8
Graypants_Ohio32
100
AcDbLine
 10
359.5142781496324
 20
-1668.387993467484
 30
0.0
 11
359.5142781496324
 21
-1661.287993467486
 31
0.0
  0
LINE
  5
28A
330
1F
100
AcDbEntity
  8
Graypants_Ohio32
100
AcDbLine
 10
353.9100322648228
 20
-1675.487993467483
 30
0.0
 11
353.9100322648228
 21
-1668.387993467484
 31
0.0
  0
LINE
  5
28B
330
1F
100
AcDbEntity
  8
Graypants_Ohio32
100
AcDbLine
 10
347.963105178118
 20
-1682.587993467485
 30
0.0
 11
347.963105178118
 21
-1675.487993467483
 31
0.0
  0
LINE
  5
28C
330
1F
100
AcDbEntity
  8
Graypants_Ohio32
100
AcDbLine
 10
341.6609337478949
 20
-1689.687993467487
 30
0.0
 11
341.6609337478949
 21
-1682.587993467485
 31
0.0
  0
LINE
  5
28D
330
1F
100
AcDbEntity
  8
Graypants_Ohio32
100
AcDbLine
 10
334.9923996181096
 20
-1696.787993467486
 30
0.0
 11
334.9923996181096
 21
-1689.687993467487
 31
0.0
  0
LINE
  5
28E
330
1F
100
AcDbEntity
  8
Graypants_Ohio32
100
AcDbLine
 10
327.9719059944182
 20
-1703.887993467484
 30
0.0
 11
327.9719059944182
 21
-1696.787993467486
 31
0.0
  0
LINE
  5
28F
330
1F
100
AcDbEntity
  8
Graypants_Ohio32
100
AcDbLine
 10
402.3595756276191
 20
-1568.987993467479
 30
0.0
 11
402.3595756276191
 21
-1561.887993467477
 31
0.0
  0
LINE
  5
290
330
1F
100
AcDbEntity
  8
Graypants_Ohio32
100
AcDbLine
 10
401.5826912564225
 20
-1576.087993467481
 30
0.0
 11
401.5826912564225
 21
-1568.987993467479
 31
0.0
  0
LINE
  5
291
330
1F
100
AcDbEntity
  8
Graypants_Ohio32
100
AcDbLine
 10
400.5140826683346
 20
-1583.18799346748
 30
0.0
 11
400.5140826683346
 21
-1576.087993467481
 31
0.0
  0
LINE
  5
292
330
1F
100
AcDbEntity
  8
Graypants_Ohio32
100
AcDbLine
 10
399.0481306311922
 20
-1590.287993467478
 30
0.0
 11
399.0481306311922
 21
-1583.18799346748
 31
0.0
  0
LINE
  5
293
330
1F
100
AcDbEntity
  8
Graypants_Ohio32
100
AcDbLine
 10
397.1890683268357
 20
-1597.387993467481
 30
0.0
 11
397.1890683268357
 21
-1590.287993467478
 31
0.0
  0
LINE
  5
294
330
1F
100
AcDbEntity
  8
Graypants_Ohio32
100
AcDbLine
 10
394.9626011348882
 20
-1604.487993467483
 30
0.0
 11
394.9626011348882
 21
-1597.387993467481
 31
0.0
  0
LINE
  5
295
330
1F
100
AcDbEntity
  8
Graypants_Ohio32
100
AcDbLine
 10
392.3792401001556
 20
-1611.587993467481
 30
0.0
 11
392.3792401001556
 21
-1604.487993467483
 31
0.0
  0
LINE
  5
296
330
1F
100
AcDbEntity
  8
Graypants_Ohio32
100
AcDbLine
 10
389.4464677201686
 20
-1618.68799346748
 30
0.0
 11
389.4464677201686
 21
-1611.587993467481
 31
0.0
  0
LINE
  5
297
330
1F
100
AcDbEntity
  8
Graypants_Ohio32
100
AcDbLine
 10
386.1706221080822
 20
-1625.787993467482
 30
0.0
 11
386.1706221080822
 21
-1618.68799346748
 31
0.0
  0
LINE
  5
298
330
1F
100
AcDbEntity
  8
Graypants_Ohio32
100
AcDbLine
 10
382.5568829314216
 20
-1632.887993467484
 30
0.0
 11
382.5568829314216
 21
-1625.787993467482
 31
0.0
  0
LINE
  5
299
330
1F
100
AcDbEntity
  8
Graypants_Ohio32
100
AcDbLine
 10
378.6092309310116
 20
-1639.987993467483
 30
0.0
 11
378.6092309310116
 21
-1632.887993467484
 31
0.0
  0
LINE
  5
29A
330
1F
100
AcDbEntity
  8
Graypants_Ohio32
100
AcDbLine
 10
374.3304232493683
 20
-1647.087993467481
 30
0.0
 11
374.3304232493683
 21
-1639.987993467483
 31
0.0
  0
LINE
  5
29B
330
1F
100
AcDbEntity
  8
Graypants_Ohio32
100
AcDbLine
 10
369.7219176366634
 20
-1654.187993467483
 30
0.0
 11
369.7219176366634
 21
-1647.087993467481
 31
0.0
  0
LINE
  5
29C
330
1F
100
AcDbEntity
  8
Graypants_Ohio32
100
AcDbLine
 10
320.7012455231597
 20
-1710.987993467486
 30
0.0
 11
320.7012455231597
 21
-1703.887993467484
 31
0.0
  0
LINE
  5
29D
330
1F
100
AcDbEntity
  8
Graypants_Ohio32
100
AcDbLine
 10
312.2879766185215
 20
-1718.087993467489
 30
0.0
 11
312.2879766185215
 21
-1710.987993467486
 31
0.0
  0
LINE
  5
29E
330
1F
100
AcDbEntity
  8
Graypants_Ohio32
100
AcDbLine
 10
402.3595756276191
 20
-1561.887993467477
 30
0.0
 11
402.3595756276191
 21
-1554.787993467478
 31
0.0
  0
LINE
  5
29F
330
1F
100
AcDbEntity
  8
Graypants_Ohio32
 62
    36
420
  8866048
370
    -3
100
AcDbLine
 10
1.587499999999864
 20
-1384.931346680573
 30
0.0
 11
1.587512350047973
 21
-1386.522561510802
 31
0.0
  0
LINE
  5
2A0
330
1F
100
AcDbEntity
  8
Graypants_Ohio32
 62
    36
420
  8866048
370
    -3
100
AcDbLine
 10
1.587499999999864
 20
-1384.931346680573
 30
0.0
 11
-0.0000000000002274
 21
-1384.931346680572
 31
0.0
  0
LINE
  5
2A1
330
1F
100
AcDbEntity
  8
Graypants_Ohio32
 62
    36
420
  8866048
370
    -3
100
AcDbLine
 10
-0.0000000000009095
 20
-692.3779011627039
 30
0.0
 11
57.14999999999964
 21
-692.3779011627039
 31
0.0
  0
LINE
  5
2A2
330
1F
100
AcDbEntity
  8
Graypants_Ohio32
 62
    36
420
  8866048
370
    -3
100
AcDbLine
 10
-57.15000000000032
 20
-700.3154011627037
 30
0.0
 11
-57.15000000000032
 21
-692.3779011627039
 31
0.0
  0
LINE
  5
2A3
330
1F
100
AcDbEntity
  8
Graypants_Ohio32
 62
    36
420
  8866048
370
    -3
100
AcDbLine
 10
57.14999999999964
 20
-692.3779011627039
 30
0.0
 11
57.14999999999964
 21
-700.3154011627037
 31
0.0
  0
LINE
  5
2A4
330
1F
100
AcDbEntity
  8
Graypants_Ohio32
 62
    36
420
  8866048
370
    -3
100
AcDbLine
 10
-57.15000000000032
 20
-692.3779011627039
 30
0.0
 11
-0.0000000000009095
 21
-692.3779011627039
 31
0.0
  0
ARC
  5
2A5
330
1F
100
AcDbEntity
  8
Graypants_Ohio32
 62
    36
420
  8866048
370
    -3
100
AcDbCircle
 10
-55.56249999999986
 20
-700.3154011627041
 30
0.0
 40
1.587499999999771
210
0.0
220
0.0
230
-1.0
100
AcDbArc
 50
179.9999999999877
 51
270.0000000000034
  0
ARC
  5
2A6
330
1F
100
AcDbEntity
  8
Graypants_Ohio32
 62
    36
420
  8866048
370
    -3
100
AcDbCircle
 10
-55.5625000000008
 20
-700.3154011627042
 30
0.0
 40
1.587499999999515
100
AcDbArc
 50
179.9999999999836
 51
270.0000000000126
  0
LINE
  5
2A7
330
1F
100
AcDbEntity
  8
Graypants_Ohio32
 62
    36
420
  8866048
370
    -3
100
AcDbLine
 10
2.381249999999625
 20
-1386.52256151089
 30
0.0
 11
2.381249999999625
 21
-1391.487993467468
 31
0.0
  0
LINE
  5
2A8
330
1F
100
AcDbEntity
  8
Graypants_Ohio32
 62
    36
420
  8866048
370
    -3
100
AcDbLine
 10
12.44599999999991
 20
-701.9029011627035
 30
0.0
 11
12.44600000000014
 21
-1391.487772566667
 31
0.0
  0
LINE
  5
2A9
330
1F
100
AcDbEntity
  8
Graypants_Ohio32
 62
    36
420
  8866048
370
    -3
100
AcDbLine
 10
-1.587620121120153
 20
-1386.522561510913
 30
0.0
 11
-1.587750000000369
 21
-701.9029011627038
 31
0.0
  0
LINE
  5
2AA
330
1F
100
AcDbEntity
  8
Graypants_Ohio32
 62
    36
420
  8866048
370
    -3
100
AcDbLine
 10
-2.381250000000676
 20
-1391.486476850376
 30
0.0
 11
-2.381250000000676
 21
-1386.52256151089
 31
0.0
  0
LINE
  5
2AB
330
1F
100
AcDbEntity
  8
Graypants_Ohio32
 62
    36
420
  8866048
370
    -3
100
AcDbLine
 10
6.604000000000042
 20
-1391.487993467468
 30
0.0
 11
6.604000000000042
 21
-701.9029011627035
 31
0.0
  0
LINE
  5
2AC
330
1F
100
AcDbEntity
  8
Graypants_Ohio32
 62
    36
420
  8866048
370
    -3
100
AcDbLine
 10
0.0002499999998236
 20
-701.9029011627038
 30
0.0
 11
0.000120121413147
 21
-1386.5210103457
 31
0.0
  0
LINE
  5
2AD
330
1F
100
AcDbEntity
  8
Graypants_Ohio32
 62
    36
420
  8866048
370
    -3
100
AcDbLine
 10
-0.0000000000009095
 20
-701.9029011627038
 30
0.0
 11
55.56249999999977
 21
-701.9029011627038
 31
0.0
  0
LINE
  5
2AE
330
1F
100
AcDbEntity
  8
Graypants_Ohio32
 62
    36
420
  8866048
370
    -3
100
AcDbLine
 10
-55.56250000000045
 20
-701.9029011627038
 30
0.0
 11
-0.0000000000009095
 21
-701.9029011627038
 31
0.0
  0
LINE
  5
2AF
330
1F
100
AcDbEntity
  8
Graypants_Ohio32
 62
    36
420
  8866048
370
    -3
100
AcDbLine
 10
-0.793750000000955
 20
-1386.52256151089
 30
0.0
 11
0.7937495763610514
 21
-1386.52256151089
 31
0.0
  0
LINE
  5
2B0
330
1F
100
AcDbEntity
  8
Graypants_Ohio32
 62
    36
420
  8866048
370
    -3
100
AcDbLine
 10
0.7937495763610514
 20
-1386.52256151089
 30
0.0
 11
2.381249999999626
 21
-1386.52256151089
 31
0.0
  0
LINE
  5
2B1
330
1F
100
AcDbEntity
  8
Graypants_Ohio32
 62
    36
420
  8866048
370
    -3
100
AcDbLine
 10
-2.381250000000922
 20
-1386.52256151089
 30
0.0
 11
-0.793750000000955
 21
-1386.52256151089
 31
0.0
  0
LINE
  5
2B2
330
1F
100
AcDbEntity
  8
Graypants_Ohio32
 62
    36
420
  8866048
370
    -3
100
AcDbLine
 10
-254.2944821545443
 20
-148.5490368388541
 30
0.0
 11
-255.7944821416013
 21
-145.9509606200281
 31
0.0
  0
LINE
  5
2B3
330
1F
100
AcDbEntity
  8
Graypants_Ohio32
 62
    36
420
  8866048
370
    -3
100
AcDbLine
 10
-32.86584153791182
 20
-20.70715304335909
 30
0.0
 11
-10.0753175849029
 21
-7.549038055499977
 31
0.0
  0
LINE
  5
2B4
330
1F
100
AcDbEntity
  8
Graypants_Ohio32
 62
    36
420
  8866048
370
    -3
100
AcDbLine
 10
-34.3658415249688
 20
-18.10907682453308
 30
0.0
 11
-11.57531757195989
 21
-4.950961836673969
 31
0.0
  0
LINE
  5
2B5
330
1F
100
AcDbEntity
  8
Graypants_Ohio32
 62
    36
420
  8866048
370
    -3
100
AcDbLine
 10
-77.07552055513065
 20
-42.76752122590597
 30
0.0
 11
-50.22468391405099
 21
-27.26518364156544
 31
0.0
  0
LINE
  5
2B6
330
1F
100
AcDbEntity
  8
Graypants_Ohio32
 62
    36
420
  8866048
370
    -3
100
AcDbLine
 10
255.7944798789663
 20
-145.9509645855371
 30
0.0
 11
254.2944798516321
 21
-148.5490407811094
 31
0.0
  0
LINE
  5
2B7
330
1F
100
AcDbEntity
  8
Graypants_Ohio32
 62
    36
420
  8866048
370
    -3
100
AcDbLine
 10
34.36584124422734
 20
-18.10907735729984
 30
0.0
 11
11.5753174952049
 21
-4.950962016126141
 31
0.0
  0
LINE
  5
2B8
330
1F
100
AcDbEntity
  8
Graypants_Ohio32
 62
    36
420
  8866048
370
    -3
100
AcDbLine
 10
32.86584121689316
 20
-20.70715355287211
 30
0.0
 11
10.07531746787049
 21
-7.549038211698189
 31
0.0
  0
LINE
  5
2B9
330
1F
100
AcDbEntity
  8
Graypants_Ohio32
 62
    36
420
  8866048
370
    -3
100
AcDbLine
 10
77.07551989211674
 20
-42.76752242078828
 30
0.0
 11
50.22630085821751
 21
-27.26611820739736
 31
0.0
  0
LINE
  5
2BA
330
1F
100
AcDbEntity
  8
Graypants_Ohio32
 62
    36
420
  8866048
370
    -3
100
AcDbLine
 10
75.57551986478234
 20
-45.36559861636033
 30
0.0
 11
48.72630083088248
 21
-29.86419440296887
 31
0.0
  0
LINE
  5
2BB
330
1F
100
AcDbEntity
  8
Graypants_Ohio32
 62
    36
420
  8866048
370
    -3
100
AcDbLine
 10
-1.500000000007958
 20
294.5
 30
0.0
 11
1.499999999991815
 21
294.4999999999991
 31
0.0
  0
LINE
  5
2BC
330
1F
100
AcDbEntity
  8
Graypants_Ohio32
 62
    36
420
  8866048
370
    -3
100
AcDbLine
 10
-1.500000000055024
 20
88.13311943108101
 30
0.0
 11
-1.50000000006203
 21
57.13031156925245
 31
0.0
  0
LINE
  5
2BD
330
1F
100
AcDbEntity
  8
Graypants_Ohio32
 62
    36
420
  8866048
370
    -3
100
AcDbLine
 10
1.499999999944976
 20
88.13311943108033
 30
0.0
 11
1.499999999937925
 21
57.13031156925637
 31
0.0
  0
LINE
  5
2BE
330
1F
100
AcDbEntity
  8
Graypants_Ohio32
 62
    36
420
  8866048
370
    -3
100
AcDbLine
 10
-39.57352256290301
 20
0.8507389886249257
 30
0.0
 11
-56.18672890131916
 21
10.44237825055711
 31
0.0
  0
LINE
  5
2BF
330
1F
100
AcDbEntity
  8
Graypants_Ohio32
 62
    36
420
  8866048
370
    -3
100
AcDbLine
 10
-53.51909018782521
 20
52.89630694228185
 30
0.0
 11
-37.13777928540185
 21
43.43855257428413
 31
0.0
  0
ARC
  5
2C0
330
1F
100
AcDbEntity
  8
Graypants_Ohio32
 62
    36
420
  8866048
370
    -3
100
AcDbCircle
 10
-33.22352250811378
 20
11.84926158505431
 30
0.0
 40
12.69999999999964
100
AcDbArc
 50
239.9999997145797
 51
329.9999997145823
  0
ARC
  5
2C1
330
1F
100
AcDbEntity
  8
Graypants_Ohio32
 62
    36
420
  8866048
370
    -3
100
AcDbCircle
 10
26.87352245332502
 20
22.84778418148456
 30
0.0
 40
12.70000000000023
210
0.0
220
0.0
230
-1.0
100
AcDbArc
 50
120.0000002854189
 51
210.000000285418
  0
LINE
  5
2C2
330
1F
100
AcDbEntity
  8
Graypants_Ohio32
 62
    36
420
  8866048
370
    -3
100
AcDbLine
 10
-72.56909035219269
 20
19.9007391529924
 30
0.0
 11
-53.51909018782521
 21
52.89630694228185
 31
0.0
  0
LINE
  5
2C3
330
1F
100
AcDbEntity
  8
Graypants_Ohio32
 62
    36
420
  8866048
370
    -3
100
AcDbLine
 10
20.52352285758911
 20
33.84630636239899
 30
0.0
 11
37.14123363012345
 21
43.44054603986228
 31
0.0
  0
LINE
  5
2C4
330
1F
100
AcDbEntity
  8
Graypants_Ohio32
 62
    36
420
  8866048
370
    -3
100
AcDbLine
 10
72.5690906723064
 20
19.90073821894703
 30
0.0
 11
56.18949911196182
 21
10.44397673115918
 31
0.0
  0
ARC
  5
2C5
330
1F
100
AcDbEntity
  8
Graypants_Ohio32
 62
    36
420
  8866048
370
    -3
100
AcDbCircle
 10
26.87352280279959
 20
22.84778370270428
 30
0.0
 40
12.69999999999984
100
AcDbArc
 50
119.9999997145795
 51
209.9999997145817
  0
ARC
  5
2C6
330
1F
100
AcDbEntity
  8
Graypants_Ohio32
 62
    36
420
  8866048
370
    -3
100
AcDbCircle
 10
-33.22352274801064
 20
11.84926104300906
 30
0.0
 40
12.69999999999976
210
0.0
220
0.0
230
-1.0
100
AcDbArc
 50
240.0000002854169
 51
330.0000002854192
  0
LINE
  5
2C7
330
1F
100
AcDbEntity
  8
Graypants_Ohio32
 62
    36
420
  8866048
370
    -3
100
AcDbLine
 10
53.51909083667374
 20
52.89630619803165
 30
0.0
 11
72.5690906723064
 21
19.90073821894703
 31
0.0
  0
LINE
  5
2C8
330
1F
100
AcDbEntity
  8
Graypants_Ohio32
 62
    36
420
  8866048
370
    -3
100
AcDbLine
 10
19.0499997053123
 20
-34.69704535102142
 30
0.0
 11
19.04999960974487
 21
-53.88153686439045
 31
0.0
  0
LINE
  5
2C9
330
1F
100
AcDbEntity
  8
Graypants_Ohio32
 62
    36
420
  8866048
370
    -3
100
AcDbLine
 10
-19.05000048448278
 20
-72.79704516122638
 30
0.0
 11
-19.05000039025526
 21
-53.88153658843885
 31
0.0
  0
ARC
  5
2CA
330
1F
100
AcDbEntity
  8
Graypants_Ohio32
 62
    36
420
  8866048
370
    -3
100
AcDbCircle
 10
6.349999705312479
 20
-34.69704528775629
 30
0.0
 40
12.69999999999982
100
AcDbArc
 50
359.9999997145807
 51
89.99999971458169
  0
ARC
  5
2CB
330
1F
100
AcDbEntity
  8
Graypants_Ohio32
 62
    36
420
  8866048
370
    -3
100
AcDbCircle
 10
6.35000029468778
 20
-34.69704522449116
 30
0.0
 40
12.69999999999983
210
0.0
220
0.0
230
-1.0
100
AcDbArc
 50
0.000000285418309
 51
90.00000028541926
  0
LINE
  5
2CC
330
1F
100
AcDbEntity
  8
Graypants_Ohio32
 62
    36
420
  8866048
370
    -3
100
AcDbLine
 10
19.04999951551713
 20
-72.79704535102155
 30
0.0
 11
-19.05000048448278
 21
-72.79704516122638
 31
0.0
  0
ARC
  5
2CD
330
1F
100
AcDbEntity
  8
Graypants_Ohio32
 62
    36
420
  8866048
370
    -3
100
AcDbCircle
 10
-0.0000000000001569
 20
-0.0000000000006259
 30
0.0
 40
234.95
210
0.0
220
0.0
230
-1.0
100
AcDbArc
 50
90.36706879659181
 51
209.633491184646
  0
LINE
  5
2CE
330
1F
100
AcDbEntity
  8
Graypants_Ohio32
 62
    36
420
  8866048
370
    -3
100
AcDbLine
 10
19.04999960974487
 20
-53.88153686439045
 30
0.0
 11
19.04999951551713
 21
-72.79704535102155
 31
0.0
  0
LINE
  5
2CF
330
1F
100
AcDbEntity
  8
Graypants_Ohio32
 62
    36
420
  8866048
370
    -3
100
AcDbLine
 10
-19.05000039023298
 20
-53.87708761414615
 30
0.0
 11
-19.05000029468761
 21
-34.69704516122624
 31
0.0
  0
LINE
  5
2D0
330
1F
100
AcDbEntity
  8
Graypants_Ohio32
 62
    36
420
  8866048
370
    -3
100
AcDbLine
 10
-1.50000000006203
 20
57.13031156925246
 30
0.0
 11
-1.500000000066166
 21
38.81623020279494
 31
0.0
  0
LINE
  5
2D1
330
1F
100
AcDbEntity
  8
Graypants_Ohio32
 62
    36
420
  8866048
370
    -3
100
AcDbLine
 10
1.499999999937696
 20
57.13031156925637
 30
0.0
 11
1.499999999933834
 21
38.81623020279426
 31
0.0
  0
LINE
  5
2D2
330
1F
100
AcDbEntity
  8
Graypants_Ohio32
 62
    36
420
  8866048
370
    -3
100
AcDbLine
 10
-37.13777928540185
 20
43.43855257428413
 30
0.0
 11
-20.52352239853576
 21
33.84630677791461
 31
0.0
  0
LINE
  5
2D3
330
1F
100
AcDbEntity
  8
Graypants_Ohio32
 62
    36
420
  8866048
370
    -3
100
AcDbLine
 10
37.14123363012345
 20
43.44054603986228
 30
0.0
 11
53.51909083667374
 21
52.89630619803165
 31
0.0
  0
LINE
  5
2D4
330
1F
100
AcDbEntity
  8
Graypants_Ohio32
 62
    36
420
  8866048
370
    -3
100
AcDbLine
 10
56.18949911196182
 20
10.44397673115918
 30
0.0
 11
39.57352269322178
 21
0.8507383833143649
 31
0.0
  0
LINE
  5
2D5
330
1F
100
AcDbEntity
  8
Graypants_Ohio32
 62
    36
420
  8866048
370
    -3
100
AcDbLine
 10
-48.72338651345397
 20
-29.86251079834323
 30
0.0
 11
-32.86584153791182
 21
-20.70715304335909
 31
0.0
  0
LINE
  5
2D6
330
1F
100
AcDbEntity
  8
Graypants_Ohio32
 62
    36
420
  8866048
370
    -3
100
AcDbLine
 10
-50.22468391405099
 20
-27.26518364156544
 30
0.0
 11
-34.3658415249688
 21
-18.10907682453308
 31
0.0
  0
LINE
  5
2D7
330
1F
100
AcDbEntity
  8
Graypants_Ohio32
 62
    36
420
  8866048
370
    -3
100
AcDbLine
 10
50.22630085821751
 20
-27.26611820739736
 30
0.0
 11
34.36584124422734
 21
-18.10907735729984
 31
0.0
  0
LINE
  5
2D8
330
1F
100
AcDbEntity
  8
Graypants_Ohio32
 62
    36
420
  8866048
370
    -3
100
AcDbLine
 10
48.72630083088247
 20
-29.86419440296886
 30
0.0
 11
32.86584121689316
 21
-20.70715355287211
 31
0.0
  0
ARC
  5
2D9
330
1F
100
AcDbEntity
  8
Graypants_Ohio32
 62
    36
420
  8866048
370
    -3
100
AcDbCircle
 10
-0.0000000000002667
 20
-0.0000000000007266
 30
0.0
 40
234.9500000000001
210
0.0
220
0.0
230
-1.0
100
AcDbArc
 50
330.3657983408502
 51
89.63420194457481
  0
ARC
  5
2DA
330
1F
100
AcDbEntity
  8
Graypants_Ohio32
 62
    36
420
  8866048
370
    -3
100
AcDbCircle
 10
-0.0000000000000901
 20
-0.0000000000001858
 30
0.0
 40
234.9500000000003
210
0.0
220
0.0
230
-1.0
100
AcDbArc
 50
210.365670637862
 51
329.6342022300103
  0
LINE
  5
2DB
330
1F
100
AcDbEntity
  8
Graypants_Ohio32
 62
    36
420
  8866048
370
    -3
100
AcDbLine
 10
-2.749630244276432
 20
39.23159054117809
 30
0.0
 11
-35.35036952430278
 21
-17.23454488421703
 31
0.0
  0
LINE
  5
2DC
330
1F
100
AcDbEntity
  8
Graypants_Ohio32
 62
    36
420
  8866048
370
    -3
100
AcDbLine
 10
-32.60073891739148
 20
-21.99704491314469
 30
0.0
 11
32.60073845454622
 21
-21.9970455991031
 31
0.0
  0
LINE
  5
2DD
330
1F
100
AcDbEntity
  8
Graypants_Ohio32
 62
    36
420
  8866048
370
    -3
100
AcDbLine
 10
35.35036916166609
 20
-17.23454562803067
 30
0.0
 11
2.749631069754741
 21
39.23159048332263
 31
0.0
  0
ARC
  5
2DE
330
1F
100
AcDbEntity
  8
Graypants_Ohio32
 62
    36
420
  8866048
370
    -3
100
AcDbCircle
 10
-0.0123384438986475
 20
-0.0000058024889569
 30
0.0
 40
7.937495937592484
100
AcDbArc
 50
89.91093651556842
 51
90.0012777268019
  0
ARC
  5
2DF
330
1F
100
AcDbEntity
  8
Graypants_Ohio32
 62
    36
420
  8866048
370
    -3
100
AcDbCircle
 10
0.0123384519306355
 20
-0.0000057916497745
 30
0.0
 40
7.937495926761089
100
AcDbArc
 50
89.99872240246924
 51
90.08906346574426
  0
LINE
  5
2E0
330
1F
100
AcDbEntity
  8
Graypants_Ohio32
 62
    36
420
  8866048
370
    -3
100
AcDbLine
 10
2.362986154857429
 20
11.41679236066278
 30
0.0
 11
2.357778158751469
 21
11.45471389761279
 31
0.0
  0
LINE
  5
2E1
330
1F
100
AcDbEntity
  8
Graypants_Ohio32
 62
    36
420
  8866048
370
    -3
100
AcDbLine
 10
2.376796190188219
 20
11.27494825864187
 30
0.0
 11
2.37445538782965
 21
11.3060586589879
 31
0.0
  0
POLYLINE
  5
2E2
330
1F
100
AcDbEntity
  8
Graypants_Ohio32
 62
    36
420
  8866048
370
    -3
100
AcDb2dPolyline
 66
     1
 10
0.0
 20
0.0
 30
0.0
  0
VERTEX
  5
2E3
330
2E2
100
AcDbEntity
  8
Graypants_Ohio32
 62
    36
420
  8866048
370
    -3
100
AcDbVertex
100
AcDb2dVertex
 10
2.381249999999909
 20
-11.11250000011182
 30
0.0
  0
VERTEX
  5
2E4
330
2E2
100
AcDbEntity
  8
Graypants_Ohio32
 62
    36
420
  8866048
370
    -3
100
AcDbVertex
100
AcDb2dVertex
 10
2.348064729243009
 20
-11.44729340135019
 30
0.0
  0
VERTEX
  5
2E5
330
2E2
100
AcDbEntity
  8
Graypants_Ohio32
 62
    36
420
  8866048
370
    -3
100
AcDbVertex
100
AcDb2dVertex
 10
2.33571702701326
 20
-11.5450014264688
 30
0.0
  0
VERTEX
  5
2E6
330
2E2
100
AcDbEntity
  8
Graypants_Ohio32
 62
    36
420
  8866048
370
    -3
100
AcDbVertex
100
AcDb2dVertex
 10
2.326417020982412
 20
-11.60197297054881
 30
0.0
  0
VERTEX
  5
2E7
330
2E2
100
AcDbEntity
  8
Graypants_Ohio32
 62
    36
420
  8866048
370
    -3
100
AcDbVertex
100
AcDb2dVertex
 10
2.31527816563588
 20
-11.65855471182532
 30
0.0
  0
VERTEX
  5
2E8
330
2E2
100
AcDbEntity
  8
Graypants_Ohio32
 62
    36
420
  8866048
370
    -3
100
AcDbVertex
100
AcDb2dVertex
 10
2.302375982294691
 20
-11.71473176148858
 30
0.0
  0
VERTEX
  5
2E9
330
2E2
100
AcDbEntity
  8
Graypants_Ohio32
 62
    36
420
  8866048
370
    -3
100
AcDbVertex
100
AcDb2dVertex
 10
2.287785992279876
 20
-11.77048923072884
 30
0.0
  0
VERTEX
  5
2EA
330
2E2
100
AcDbEntity
  8
Graypants_Ohio32
 62
    36
420
  8866048
370
    -3
100
AcDbVertex
100
AcDb2dVertex
 10
2.271583716912463
 20
-11.82581223073635
 30
0.0
  0
VERTEX
  5
2EB
330
2E2
100
AcDbEntity
  8
Graypants_Ohio32
 62
    36
420
  8866048
370
    -3
100
AcDbVertex
100
AcDb2dVertex
 10
2.253844677513483
 20
-11.88068587270135
 30
0.0
  0
VERTEX
  5
2EC
330
2E2
100
AcDbEntity
  8
Graypants_Ohio32
 62
    36
420
  8866048
370
    -3
100
AcDbVertex
100
AcDb2dVertex
 10
2.234644395403962
 20
-11.93509526781408
 30
0.0
  0
VERTEX
  5
2ED
330
2E2
100
AcDbEntity
  8
Graypants_Ohio32
 62
    36
420
  8866048
370
    -3
100
AcDbVertex
100
AcDb2dVertex
 10
2.214058391904933
 20
-11.9890255272648
 30
0.0
  0
VERTEX
  5
2EE
330
2E2
100
AcDbEntity
  8
Graypants_Ohio32
 62
    36
420
  8866048
370
    -3
100
AcDbVertex
100
AcDb2dVertex
 10
2.190898563113645
 20
-12.04540690834792
 30
0.0
  0
VERTEX
  5
2EF
330
2E2
100
AcDbEntity
  8
Graypants_Ohio32
 62
    36
420
  8866048
370
    -3
100
AcDbVertex
100
AcDb2dVertex
 10
2.166332010776355
 20
-12.10111408828783
 30
0.0
  0
VERTEX
  5
2F0
330
2E2
100
AcDbEntity
  8
Graypants_Ohio32
 62
    36
420
  8866048
370
    -3
100
AcDbVertex
100
AcDb2dVertex
 10
2.140374991530519
 20
-12.15612220018349
 30
0.0
  0
VERTEX
  5
2F1
330
2E2
100
AcDbEntity
  8
Graypants_Ohio32
 62
    36
420
  8866048
370
    -3
100
AcDbVertex
100
AcDb2dVertex
 10
2.113043762013595
 20
-12.21040637713388
 30
0.0
  0
VERTEX
  5
2F2
330
2E2
100
AcDbEntity
  8
Graypants_Ohio32
 62
    36
420
  8866048
370
    -3
100
AcDbVertex
100
AcDb2dVertex
 10
2.084354578863041
 20
-12.26394175223794
 30
0.0
  0
VERTEX
  5
2F3
330
2E2
100
AcDbEntity
  8
Graypants_Ohio32
 62
    36
420
  8866048
370
    -3
100
AcDbVertex
100
AcDb2dVertex
 10
2.054323698716316
 20
-12.31670345859465
 30
0.0
  0
VERTEX
  5
2F4
330
2E2
100
AcDbEntity
  8
Graypants_Ohio32
 62
    36
420
  8866048
370
    -3
100
AcDbVertex
100
AcDb2dVertex
 10
2.022967378210876
 20
-12.36866662930296
 30
0.0
  0
VERTEX
  5
2F5
330
2E2
100
AcDbEntity
  8
Graypants_Ohio32
 62
    36
420
  8866048
370
    -3
100
AcDbVertex
100
AcDb2dVertex
 10
1.99030187398418
 20
-12.41980639746185
 30
0.0
  0
VERTEX
  5
2F6
330
2E2
100
AcDbEntity
  8
Graypants_Ohio32
 62
    36
420
  8866048
370
    -3
100
AcDbVertex
100
AcDb2dVertex
 10
1.956343442673686
 20
-12.47009789617027
 30
0.0
  0
VERTEX
  5
2F7
330
2E2
100
AcDbEntity
  8
Graypants_Ohio32
 62
    36
420
  8866048
370
    -3
100
AcDbVertex
100
AcDb2dVertex
 10
1.921108340916851
 20
-12.5195162585272
 30
0.0
  0
VERTEX
  5
2F8
330
2E2
100
AcDbEntity
  8
Graypants_Ohio32
 62
    36
420
  8866048
370
    -3
100
AcDbVertex
100
AcDb2dVertex
 10
1.884612825351134
 20
-12.56803661763158
 30
0.0
  0
VERTEX
  5
2F9
330
2E2
100
AcDbEntity
  8
Graypants_Ohio32
 62
    36
420
  8866048
370
    -3
100
AcDbVertex
100
AcDb2dVertex
 10
1.846873152613991
 20
-12.6156341065824
 30
0.0
  0
VERTEX
  5
2FA
330
2E2
100
AcDbEntity
  8
Graypants_Ohio32
 62
    36
420
  8866048
370
    -3
100
AcDbVertex
100
AcDb2dVertex
 10
1.807905579342882
 20
-12.6622838584786
 30
0.0
  0
VERTEX
  5
2FB
330
2E2
100
AcDbEntity
  8
Graypants_Ohio32
 62
    36
420
  8866048
370
    -3
100
AcDbVertex
100
AcDb2dVertex
 10
1.767726362175263
 20
-12.70796100641916
 30
0.0
  0
VERTEX
  5
2FC
330
2E2
100
AcDbEntity
  8
Graypants_Ohio32
 62
    36
420
  8866048
370
    -3
100
AcDbVertex
100
AcDb2dVertex
 10
1.726351757748593
 20
-12.75264068350304
 30
0.0
  0
VERTEX
  5
2FD
330
2E2
100
AcDbEntity
  8
Graypants_Ohio32
 62
    36
420
  8866048
370
    -3
100
AcDbVertex
100
AcDb2dVertex
 10
1.68379802270033
 20
-12.79629802282921
 30
0.0
  0
VERTEX
  5
2FE
330
2E2
100
AcDbEntity
  8
Graypants_Ohio32
 62
    36
420
  8866048
370
    -3
100
AcDbVertex
100
AcDb2dVertex
 10
1.639650424894597
 20
-12.83931731723094
 30
0.0
  0
VERTEX
  5
2FF
330
2E2
100
AcDbEntity
  8
Graypants_Ohio32
 62
    36
420
  8866048
370
    -3
100
AcDbVertex
100
AcDb2dVertex
 10
1.594419442740046
 20
-12.88116565624217
 30
0.0
  0
VERTEX
  5
300
330
2E2
100
AcDbEntity
  8
Graypants_Ohio32
 62
    36
420
  8866048
370
    -3
100
AcDbVertex
100
AcDb2dVertex
 10
1.548152110166895
 20
-12.92180279576302
 30
0.0
  0
VERTEX
  5
301
330
2E2
100
AcDbEntity
  8
Graypants_Ohio32
 62
    36
420
  8866048
370
    -3
100
AcDbVertex
100
AcDb2dVertex
 10
1.500897413488067
 20
-12.96119102804299
 30
0.0
  0
VERTEX
  5
302
330
2E2
100
AcDbEntity
  8
Graypants_Ohio32
 62
    36
420
  8866048
370
    -3
100
AcDbVertex
100
AcDb2dVertex
 10
1.452706119785192
 20
-12.9992952969339
 30
0.0
  0
VERTEX
  5
303
330
2E2
100
AcDbEntity
  8
Graypants_Ohio32
 62
    36
420
  8866048
370
    -3
100
AcDbVertex
100
AcDb2dVertex
 10
1.403630597426083
 20
-13.03608329920324
 30
0.0
  0
VERTEX
  5
304
330
2E2
100
AcDbEntity
  8
Graypants_Ohio32
 62
    36
420
  8866048
370
    -3
100
AcDbVertex
100
AcDb2dVertex
 10
1.353724630030562
 20
-13.07152557131439
 30
0.0
  0
VERTEX
  5
305
330
2E2
100
AcDbEntity
  8
Graypants_Ohio32
 62
    36
420
  8866048
370
    -3
100
AcDbVertex
100
AcDb2dVertex
 10
1.303043225248291
 20
-13.10559556122127
 30
0.0
  0
VERTEX
  5
306
330
2E2
100
AcDbEntity
  8
Graypants_Ohio32
 62
    36
420
  8866048
370
    -3
100
AcDbVertex
100
AcDb2dVertex
 10
1.251642419742307
 20
-13.13826968486968
 30
0.0
  0
VERTEX
  5
307
330
2E2
100
AcDbEntity
  8
Graypants_Ohio32
 62
    36
420
  8866048
370
    -3
100
AcDbVertex
100
AcDb2dVertex
 10
1.199579081784905
 20
-13.16952736724357
 30
0.0
  0
VERTEX
  5
308
330
2E2
100
AcDbEntity
  8
Graypants_Ohio32
 62
    36
420
  8866048
370
    -3
100
AcDbVertex
100
AcDb2dVertex
 10
1.146910712868597
 20
-13.19935106793978
 30
0.0
  0
VERTEX
  5
309
330
2E2
100
AcDbEntity
  8
Graypants_Ohio32
 62
    36
420
  8866048
370
    -3
100
AcDbVertex
100
AcDb2dVertex
 10
1.093695249714538
 20
-13.22772629139645
 30
0.0
  0
VERTEX
  5
30A
330
2E2
100
AcDbEntity
  8
Graypants_Ohio32
 62
    36
420
  8866048
370
    -3
100
AcDbVertex
100
AcDb2dVertex
 10
1.039990868024728
 20
-13.25464158203804
 30
0.0
  0
VERTEX
  5
30B
330
2E2
100
AcDbEntity
  8
Graypants_Ohio32
 62
    36
420
  8866048
370
    -3
100
AcDbVertex
100
AcDb2dVertex
 10
0.9858557892735352
 20
-13.2800885047294
 30
0.0
  0
VERTEX
  5
30C
330
2E2
100
AcDbEntity
  8
Graypants_Ohio32
 62
    36
420
  8866048
370
    -3
100
AcDbVertex
100
AcDb2dVertex
 10
0.9313480917697704
 20
-13.30406161105352
 30
0.0
  0
VERTEX
  5
30D
330
2E2
100
AcDbEntity
  8
Graypants_Ohio32
 62
    36
420
  8866048
370
    -3
100
AcDbVertex
100
AcDb2dVertex
 10
0.8765255271441442
 20
-13.32655839203903
 30
0.0
  0
VERTEX
  5
30E
330
2E2
100
AcDbEntity
  8
Graypants_Ohio32
 62
    36
420
  8866048
370
    -3
100
AcDbVertex
100
AcDb2dVertex
 10
0.8214453433300057
 20
-13.34757921806406
 30
0.0
  0
VERTEX
  5
30F
330
2E2
100
AcDbEntity
  8
Graypants_Ohio32
 62
    36
420
  8866048
370
    -3
100
AcDbVertex
100
AcDb2dVertex
 10
0.7661641150094453
 20
-13.36712726675128
 30
0.0
  0
VERTEX
  5
310
330
2E2
100
AcDbEntity
  8
Graypants_Ohio32
 62
    36
420
  8866048
370
    -3
100
AcDbVertex
100
AcDb2dVertex
 10
0.7107375823939385
 20
-13.38520843974433
 30
0.0
  0
VERTEX
  5
311
330
2E2
100
AcDbEntity
  8
Graypants_Ohio32
 62
    36
420
  8866048
370
    -3
100
AcDbVertex
100
AcDb2dVertex
 10
0.6552204991004755
 20
-13.40183126931776
 30
0.0
  0
VERTEX
  5
312
330
2E2
100
AcDbEntity
  8
Graypants_Ohio32
 62
    36
420
  8866048
370
    -3
100
AcDbVertex
100
AcDb2dVertex
 10
0.5996664897723575
 20
-13.41700681582122
 30
0.0
  0
VERTEX
  5
313
330
2E2
100
AcDbEntity
  8
Graypants_Ohio32
 62
    36
420
  8866048
370
    -3
100
AcDbVertex
100
AcDb2dVertex
 10
0.5441279179802935
 20
-13.43074855699323
 30
0.0
  0
VERTEX
  5
314
330
2E2
100
AcDbEntity
  8
Graypants_Ohio32
 62
    36
420
  8866048
370
    -3
100
AcDbVertex
100
AcDb2dVertex
 10
0.4886557648257588
 20
-13.44307227020173
 30
0.0
  0
VERTEX
  5
315
330
2E2
100
AcDbEntity
  8
Graypants_Ohio32
 62
    36
420
  8866048
370
    -3
100
AcDbVertex
100
AcDb2dVertex
 10
0.4332995185563691
 20
-13.4539959086774
 30
0.0
  0
VERTEX
  5
316
330
2E2
100
AcDbEntity
  8
Graypants_Ohio32
 62
    36
420
  8866048
370
    -3
100
AcDbVertex
100
AcDb2dVertex
 10
0.3781070753937055
 20
-13.46353947280229
 30
0.0
  0
VERTEX
  5
317
330
2E2
100
AcDbEntity
  8
Graypants_Ohio32
 62
    36
420
  8866048
370
    -3
100
AcDbVertex
100
AcDb2dVertex
 10
0.3231246516689051
 20
-13.47172487750187
 30
0.0
  0
VERTEX
  5
318
330
2E2
100
AcDbEntity
  8
Graypants_Ohio32
 62
    36
420
  8866048
370
    -3
100
AcDbVertex
100
AcDb2dVertex
 10
0.2683967072615482
 20
-13.47857581676354
 30
0.0
  0
VERTEX
  5
319
330
2E2
100
AcDbEntity
  8
Graypants_Ohio32
 62
    36
420
  8866048
370
    -3
100
AcDbVertex
100
AcDb2dVertex
 10
0.2139658802438777
 20
-13.48411762627017
 30
0.0
  0
VERTEX
  5
31A
330
2E2
100
AcDbEntity
  8
Graypants_Ohio32
 62
    36
420
  8866048
370
    -3
100
AcDbVertex
100
AcDb2dVertex
 10
0.1598729325459946
 20
-13.48837714509492
 30
0.0
  0
VERTEX
  5
31B
330
2E2
100
AcDbEntity
  8
Graypants_Ohio32
 62
    36
420
  8866048
370
    -3
100
AcDbVertex
100
AcDb2dVertex
 10
0.1061567063789742
 20
-13.49138257735371
 30
0.0
  0
VERTEX
  5
31C
330
2E2
100
AcDbEntity
  8
Graypants_Ohio32
 62
    36
420
  8866048
370
    -3
100
AcDbVertex
100
AcDb2dVertex
 10
0.0528540910823134
 20
-13.49316335465615
 30
0.0
  0
VERTEX
  5
31D
330
2E2
100
AcDbEntity
  8
Graypants_Ohio32
 62
    36
420
  8866048
370
    -3
100
AcDbVertex
100
AcDb2dVertex
 10
0.0
 20
-13.49375000013586
 30
0.0
  0
VERTEX
  5
31E
330
2E2
100
AcDbEntity
  8
Graypants_Ohio32
 62
    36
420
  8866048
370
    -3
100
AcDbVertex
100
AcDb2dVertex
 10
-0.0528540910823306
 20
-13.49316335465615
 30
0.0
  0
VERTEX
  5
31F
330
2E2
100
AcDbEntity
  8
Graypants_Ohio32
 62
    36
420
  8866048
370
    -3
100
AcDbVertex
100
AcDb2dVertex
 10
-0.1061567063790068
 20
-13.49138257735371
 30
0.0
  0
VERTEX
  5
320
330
2E2
100
AcDbEntity
  8
Graypants_Ohio32
 62
    36
420
  8866048
370
    -3
100
AcDbVertex
100
AcDb2dVertex
 10
-0.1598729325460408
 20
-13.48837714509492
 30
0.0
  0
VERTEX
  5
321
330
2E2
100
AcDbEntity
  8
Graypants_Ohio32
 62
    36
420
  8866048
370
    -3
100
AcDbVertex
100
AcDb2dVertex
 10
-0.2139658802439358
 20
-13.48411762627017
 30
0.0
  0
VERTEX
  5
322
330
2E2
100
AcDbEntity
  8
Graypants_Ohio32
 62
    36
420
  8866048
370
    -3
100
AcDbVertex
100
AcDb2dVertex
 10
-0.2683967072616166
 20
-13.47857581676354
 30
0.0
  0
VERTEX
  5
323
330
2E2
100
AcDbEntity
  8
Graypants_Ohio32
 62
    36
420
  8866048
370
    -3
100
AcDbVertex
100
AcDb2dVertex
 10
-0.3231246516689823
 20
-13.47172487750187
 30
0.0
  0
VERTEX
  5
324
330
2E2
100
AcDbEntity
  8
Graypants_Ohio32
 62
    36
420
  8866048
370
    -3
100
AcDbVertex
100
AcDb2dVertex
 10
-0.3781070753937901
 20
-13.46353947280229
 30
0.0
  0
VERTEX
  5
325
330
2E2
100
AcDbEntity
  8
Graypants_Ohio32
 62
    36
420
  8866048
370
    -3
100
AcDbVertex
100
AcDb2dVertex
 10
-0.4332995185564598
 20
-13.4539959086774
 30
0.0
  0
VERTEX
  5
326
330
2E2
100
AcDbEntity
  8
Graypants_Ohio32
 62
    36
420
  8866048
370
    -3
100
AcDbVertex
100
AcDb2dVertex
 10
-0.4886557648258545
 20
-13.44307227020173
 30
0.0
  0
VERTEX
  5
327
330
2E2
100
AcDbEntity
  8
Graypants_Ohio32
 62
    36
420
  8866048
370
    -3
100
AcDbVertex
100
AcDb2dVertex
 10
-0.5441279179803932
 20
-13.43074855699323
 30
0.0
  0
VERTEX
  5
328
330
2E2
100
AcDbEntity
  8
Graypants_Ohio32
 62
    36
420
  8866048
370
    -3
100
AcDbVertex
100
AcDb2dVertex
 10
-0.5996664897724603
 20
-13.41700681582122
 30
0.0
  0
VERTEX
  5
329
330
2E2
100
AcDbEntity
  8
Graypants_Ohio32
 62
    36
420
  8866048
370
    -3
100
AcDbVertex
100
AcDb2dVertex
 10
-0.6552204991005803
 20
-13.40183126931776
 30
0.0
  0
VERTEX
  5
32A
330
2E2
100
AcDbEntity
  8
Graypants_Ohio32
 62
    36
420
  8866048
370
    -3
100
AcDbVertex
100
AcDb2dVertex
 10
-0.710737582394045
 20
-13.38520843974433
 30
0.0
  0
VERTEX
  5
32B
330
2E2
100
AcDbEntity
  8
Graypants_Ohio32
 62
    36
420
  8866048
370
    -3
100
AcDbVertex
100
AcDb2dVertex
 10
-0.7661641150095528
 20
-13.36712726675128
 30
0.0
  0
VERTEX
  5
32C
330
2E2
100
AcDbEntity
  8
Graypants_Ohio32
 62
    36
420
  8866048
370
    -3
100
AcDbVertex
100
AcDb2dVertex
 10
-0.8214453433301142
 20
-13.34757921806406
 30
0.0
  0
VERTEX
  5
32D
330
2E2
100
AcDbEntity
  8
Graypants_Ohio32
 62
    36
420
  8866048
370
    -3
100
AcDbVertex
100
AcDb2dVertex
 10
-0.8765255271442532
 20
-13.32655839203903
 30
0.0
  0
VERTEX
  5
32E
330
2E2
100
AcDbEntity
  8
Graypants_Ohio32
 62
    36
420
  8866048
370
    -3
100
AcDbVertex
100
AcDb2dVertex
 10
-0.93134809176988
 20
-13.30406161105352
 30
0.0
  0
VERTEX
  5
32F
330
2E2
100
AcDbEntity
  8
Graypants_Ohio32
 62
    36
420
  8866048
370
    -3
100
AcDbVertex
100
AcDb2dVertex
 10
-0.9858557892736453
 20
-13.2800885047294
 30
0.0
  0
VERTEX
  5
330
330
2E2
100
AcDbEntity
  8
Graypants_Ohio32
 62
    36
420
  8866048
370
    -3
100
AcDbVertex
100
AcDb2dVertex
 10
-1.039990868024839
 20
-13.25464158203804
 30
0.0
  0
VERTEX
  5
331
330
2E2
100
AcDbEntity
  8
Graypants_Ohio32
 62
    36
420
  8866048
370
    -3
100
AcDbVertex
100
AcDb2dVertex
 10
-1.093695249714651
 20
-13.22772629139645
 30
0.0
  0
VERTEX
  5
332
330
2E2
100
AcDbEntity
  8
Graypants_Ohio32
 62
    36
420
  8866048
370
    -3
100
AcDbVertex
100
AcDb2dVertex
 10
-1.146910712868712
 20
-13.19935106793978
 30
0.0
  0
VERTEX
  5
333
330
2E2
100
AcDbEntity
  8
Graypants_Ohio32
 62
    36
420
  8866048
370
    -3
100
AcDbVertex
100
AcDb2dVertex
 10
-1.199579081785023
 20
-13.16952736724357
 30
0.0
  0
VERTEX
  5
334
330
2E2
100
AcDbEntity
  8
Graypants_Ohio32
 62
    36
420
  8866048
370
    -3
100
AcDbVertex
100
AcDb2dVertex
 10
-1.251642419742429
 20
-13.13826968486968
 30
0.0
  0
VERTEX
  5
335
330
2E2
100
AcDbEntity
  8
Graypants_Ohio32
 62
    36
420
  8866048
370
    -3
100
AcDbVertex
100
AcDb2dVertex
 10
-1.303043225248417
 20
-13.10559556122127
 30
0.0
  0
VERTEX
  5
336
330
2E2
100
AcDbEntity
  8
Graypants_Ohio32
 62
    36
420
  8866048
370
    -3
100
AcDbVertex
100
AcDb2dVertex
 10
-1.353724630030695
 20
-13.07152557131439
 30
0.0
  0
VERTEX
  5
337
330
2E2
100
AcDbEntity
  8
Graypants_Ohio32
 62
    36
420
  8866048
370
    -3
100
AcDbVertex
100
AcDb2dVertex
 10
-1.403630597426224
 20
-13.03608329920324
 30
0.0
  0
VERTEX
  5
338
330
2E2
100
AcDbEntity
  8
Graypants_Ohio32
 62
    36
420
  8866048
370
    -3
100
AcDbVertex
100
AcDb2dVertex
 10
-1.452706119785342
 20
-12.9992952969339
 30
0.0
  0
VERTEX
  5
339
330
2E2
100
AcDbEntity
  8
Graypants_Ohio32
 62
    36
420
  8866048
370
    -3
100
AcDbVertex
100
AcDb2dVertex
 10
-1.500897413488228
 20
-12.96119102804299
 30
0.0
  0
VERTEX
  5
33A
330
2E2
100
AcDbEntity
  8
Graypants_Ohio32
 62
    36
420
  8866048
370
    -3
100
AcDbVertex
100
AcDb2dVertex
 10
-1.548152110167069
 20
-12.92180279576302
 30
0.0
  0
VERTEX
  5
33B
330
2E2
100
AcDbEntity
  8
Graypants_Ohio32
 62
    36
420
  8866048
370
    -3
100
AcDbVertex
100
AcDb2dVertex
 10
-1.594419442740236
 20
-12.88116565624217
 30
0.0
  0
VERTEX
  5
33C
330
2E2
100
AcDbEntity
  8
Graypants_Ohio32
 62
    36
420
  8866048
370
    -3
100
AcDbVertex
100
AcDb2dVertex
 10
-1.639650424894804
 20
-12.83931731723094
 30
0.0
  0
VERTEX
  5
33D
330
2E2
100
AcDbEntity
  8
Graypants_Ohio32
 62
    36
420
  8866048
370
    -3
100
AcDbVertex
100
AcDb2dVertex
 10
-1.683798022700558
 20
-12.79629802282921
 30
0.0
  0
VERTEX
  5
33E
330
2E2
100
AcDbEntity
  8
Graypants_Ohio32
 62
    36
420
  8866048
370
    -3
100
AcDbVertex
100
AcDb2dVertex
 10
-1.726351757748779
 20
-12.75264068350301
 30
0.0
  0
VERTEX
  5
33F
330
2E2
100
AcDbEntity
  8
Graypants_Ohio32
 62
    36
420
  8866048
370
    -3
100
AcDbVertex
100
AcDb2dVertex
 10
-1.767726362175407
 20
-12.7079610064191
 30
0.0
  0
VERTEX
  5
340
330
2E2
100
AcDbEntity
  8
Graypants_Ohio32
 62
    36
420
  8866048
370
    -3
100
AcDbVertex
100
AcDb2dVertex
 10
-1.807905579342984
 20
-12.66228385847852
 30
0.0
  0
VERTEX
  5
341
330
2E2
100
AcDbEntity
  8
Graypants_Ohio32
 62
    36
420
  8866048
370
    -3
100
AcDbVertex
100
AcDb2dVertex
 10
-1.846873152614055
 20
-12.61563410658231
 30
0.0
  0
VERTEX
  5
342
330
2E2
100
AcDbEntity
  8
Graypants_Ohio32
 62
    36
420
  8866048
370
    -3
100
AcDbVertex
100
AcDb2dVertex
 10
-1.88461282535116
 20
-12.56803661763148
 30
0.0
  0
VERTEX
  5
343
330
2E2
100
AcDbEntity
  8
Graypants_Ohio32
 62
    36
420
  8866048
370
    -3
100
AcDbVertex
100
AcDb2dVertex
 10
-1.921108340916844
 20
-12.5195162585271
 30
0.0
  0
VERTEX
  5
344
330
2E2
100
AcDbEntity
  8
Graypants_Ohio32
 62
    36
420
  8866048
370
    -3
100
AcDbVertex
100
AcDb2dVertex
 10
-1.956343442673648
 20
-12.47009789617018
 30
0.0
  0
VERTEX
  5
345
330
2E2
100
AcDbEntity
  8
Graypants_Ohio32
 62
    36
420
  8866048
370
    -3
100
AcDbVertex
100
AcDb2dVertex
 10
-1.990301873984116
 20
-12.41980639746176
 30
0.0
  0
VERTEX
  5
346
330
2E2
100
AcDbEntity
  8
Graypants_Ohio32
 62
    36
420
  8866048
370
    -3
100
AcDbVertex
100
AcDb2dVertex
 10
-2.02296737821079
 20
-12.36866662930289
 30
0.0
  0
VERTEX
  5
347
330
2E2
100
AcDbEntity
  8
Graypants_Ohio32
 62
    36
420
  8866048
370
    -3
100
AcDbVertex
100
AcDb2dVertex
 10
-2.054323698716213
 20
-12.31670345859458
 30
0.0
  0
VERTEX
  5
348
330
2E2
100
AcDbEntity
  8
Graypants_Ohio32
 62
    36
420
  8866048
370
    -3
100
AcDbVertex
100
AcDb2dVertex
 10
-2.084354578862926
 20
-12.26394175223789
 30
0.0
  0
VERTEX
  5
349
330
2E2
100
AcDbEntity
  8
Graypants_Ohio32
 62
    36
420
  8866048
370
    -3
100
AcDbVertex
100
AcDb2dVertex
 10
-2.113043762013475
 20
-12.21040637713384
 30
0.0
  0
VERTEX
  5
34A
330
2E2
100
AcDbEntity
  8
Graypants_Ohio32
 62
    36
420
  8866048
370
    -3
100
AcDbVertex
100
AcDb2dVertex
 10
-2.1403749915304
 20
-12.15612220018347
 30
0.0
  0
VERTEX
  5
34B
330
2E2
100
AcDbEntity
  8
Graypants_Ohio32
 62
    36
420
  8866048
370
    -3
100
AcDbVertex
100
AcDb2dVertex
 10
-2.166332010776245
 20
-12.10111408828782
 30
0.0
  0
VERTEX
  5
34C
330
2E2
100
AcDbEntity
  8
Graypants_Ohio32
 62
    36
420
  8866048
370
    -3
100
AcDbVertex
100
AcDb2dVertex
 10
-2.190898563113552
 20
-12.04540690834791
 30
0.0
  0
VERTEX
  5
34D
330
2E2
100
AcDbEntity
  8
Graypants_Ohio32
 62
    36
420
  8866048
370
    -3
100
AcDbVertex
100
AcDb2dVertex
 10
-2.214058391904866
 20
-11.98902552726479
 30
0.0
  0
VERTEX
  5
34E
330
2E2
100
AcDbEntity
  8
Graypants_Ohio32
 62
    36
420
  8866048
370
    -3
100
AcDbVertex
100
AcDb2dVertex
 10
-2.234655682281913
 20
-11.93509682658791
 30
0.0
  0
VERTEX
  5
34F
330
2E2
100
AcDbEntity
  8
Graypants_Ohio32
 62
    36
420
  8866048
370
    -3
100
AcDbVertex
100
AcDb2dVertex
 10
-2.253934972537372
 20
-11.88069834289203
 30
0.0
  0
VERTEX
  5
350
330
2E2
100
AcDbEntity
  8
Graypants_Ohio32
 62
    36
420
  8866048
370
    -3
100
AcDbVertex
100
AcDb2dVertex
 10
-2.271888462618121
 20
-11.8258543176299
 30
0.0
  0
VERTEX
  5
351
330
2E2
100
AcDbEntity
  8
Graypants_Ohio32
 62
    36
420
  8866048
370
    -3
100
AcDbVertex
100
AcDb2dVertex
 10
-2.288508352471037
 20
-11.77058899225431
 30
0.0
  0
VERTEX
  5
352
330
2E2
100
AcDbEntity
  8
Graypants_Ohio32
 62
    36
420
  8866048
370
    -3
100
AcDbVertex
100
AcDb2dVertex
 10
-2.303786842042999
 20
-11.71492660821801
 30
0.0
  0
VERTEX
  5
353
330
2E2
100
AcDbEntity
  8
Graypants_Ohio32
 62
    36
420
  8866048
370
    -3
100
AcDbVertex
100
AcDb2dVertex
 10
-2.317716131280883
 20
-11.65889140697377
 30
0.0
  0
VERTEX
  5
354
330
2E2
100
AcDbEntity
  8
Graypants_Ohio32
 62
    36
420
  8866048
370
    -3
100
AcDbVertex
100
AcDb2dVertex
 10
-2.330288420131569
 20
-11.60250762997436
 30
0.0
  0
VERTEX
  5
355
330
2E2
100
AcDbEntity
  8
Graypants_Ohio32
 62
    36
420
  8866048
370
    -3
100
AcDbVertex
100
AcDb2dVertex
 10
-2.341495908541932
 20
-11.54579951867254
 30
0.0
  0
VERTEX
  5
356
330
2E2
100
AcDbEntity
  8
Graypants_Ohio32
 62
    36
420
  8866048
370
    -3
100
AcDbVertex
100
AcDb2dVertex
 10
-2.353860400291774
 20
-11.4726288360036
 30
0.0
  0
VERTEX
  5
357
330
2E2
100
AcDbEntity
  8
Graypants_Ohio32
 62
    36
420
  8866048
370
    -3
100
AcDbVertex
100
AcDb2dVertex
 10
-2.363938912477725
 20
-11.39910840992392
 30
0.0
  0
VERTEX
  5
358
330
2E2
100
AcDbEntity
  8
Graypants_Ohio32
 62
    36
420
  8866048
370
    -3
100
AcDbVertex
100
AcDb2dVertex
 10
-2.371581506031515
 20
-11.32686586201581
 30
0.0
  0
VERTEX
  5
359
330
2E2
100
AcDbEntity
  8
Graypants_Ohio32
 62
    36
420
  8866048
370
    -3
100
AcDbVertex
100
AcDb2dVertex
 10
-2.377016869194165
 20
-11.25442380384669
 30
0.0
  0
VERTEX
  5
35A
330
2E2
100
AcDbEntity
  8
Graypants_Ohio32
 62
    36
420
  8866048
370
    -3
100
AcDbVertex
100
AcDb2dVertex
 10
-2.380191482031219
 20
-11.18349346013265
 30
0.0
  0
VERTEX
  5
35B
330
2E2
100
AcDbEntity
  8
Graypants_Ohio32
 62
    36
420
  8866048
370
    -3
100
AcDbVertex
100
AcDb2dVertex
 10
-2.381249999999909
 20
-11.1125000001116
 30
0.0
  0
SEQEND
  5
35C
330
2E2
100
AcDbEntity
  8
Graypants_Ohio32
 62
    36
420
  8866048
370
    -3
  0
LINE
  5
35D
330
1F
100
AcDbEntity
  8
Graypants_Ohio32
 62
    36
420
  8866048
370
    -3
100
AcDbLine
 10
4.762500000000272
 20
2.921000000000731
 30
0.0
 11
9.525000000000317
 21
2.921000000000731
 31
0.0
  0
LINE
  5
35E
330
1F
100
AcDbEntity
  8
Graypants_Ohio32
 62
    36
420
  8866048
370
    -3
100
AcDbLine
 10
9.525000872236205
 20
-2.920999999999367
 30
0.0
 11
4.762500000000045
 21
-2.920999999999367
 31
0.0
  0
LINE
  5
35F
330
1F
100
AcDbEntity
  8
Graypants_Ohio32
 62
    36
420
  8866048
370
    -3
100
AcDbLine
 10
-0.793750000000955
 20
-1.591095235037074
 30
0.0
 11
0.7937495763610514
 21
-1.591095235037074
 31
0.0
  0
ARC
  5
360
330
1F
100
AcDbEntity
  8
Graypants_Ohio32
 62
    36
420
  8866048
370
    -3
100
AcDbCircle
 10
0.7937499999997376
 20
-0.0035952350371246
 30
0.0
 40
1.587500000000005
100
AcDbArc
 50
269.9999847101047
 51
90.00000000001349
  0
LINE
  5
361
330
1F
100
AcDbEntity
  8
Graypants_Ohio32
 62
    36
420
  8866048
370
    -3
100
AcDbLine
 10
0.7937499999993634
 20
1.583904764962881
 30
0.0
 11
-0.7937495964831669
 21
1.583904764962881
 31
0.0
  0
ARC
  5
362
330
1F
100
AcDbEntity
  8
Graypants_Ohio32
 62
    36
420
  8866048
370
    -3
100
AcDbCircle
 10
-0.7937500000007506
 20
-0.0035952350370706
 30
0.0
 40
1.587500000000003
100
AcDbArc
 50
89.99998543631213
 51
269.9999999999926
  0
LINE
  5
363
330
1F
100
AcDbEntity
  8
Graypants_Ohio32
 62
    36
420
  8866048
370
    -3
100
AcDbLine
 10
-0.7937497309890205
 20
0.7901547649628355
 30
0.0
 11
0.7937499999993634
 21
0.7901547649628355
 31
0.0
  0
ARC
  5
364
330
1F
100
AcDbEntity
  8
Graypants_Ohio32
 62
    36
420
  8866048
370
    -3
100
AcDbCircle
 10
-0.7937499999775037
 20
-0.0035952369324595
 30
0.0
 40
0.7937500018952951
210
0.0
220
0.0
230
-1.0
100
AcDbArc
 50
90.00000000157792
 51
90.46784478141794
  0
LINE
  5
365
330
1F
100
AcDbEntity
  8
Graypants_Ohio32
 62
    36
420
  8866048
370
    -3
100
AcDbLine
 10
0.7937497175737462
 20
-0.797345235037028
 30
0.0
 11
-0.793750000000955
 21
-0.797345235037028
 31
0.0
  0
ARC
  5
366
330
1F
100
AcDbEntity
  8
Graypants_Ohio32
 62
    36
420
  8866048
370
    -3
100
AcDbCircle
 10
-0.7937499999998435
 20
0.0000000000059649
 30
0.0
 40
0.7937500000000342
210
0.0
220
0.0
230
-1.0
100
AcDbArc
 50
1.016929197647045
 51
359.2892893058851
  0
CIRCLE
  5
367
330
1F
100
AcDbEntity
  8
Graypants_Ohio32
 62
    36
420
  8866048
370
    -3
100
AcDbCircle
 10
0.7937500000001593
 20
0.0000000000005685
 30
0.0
 40
0.7939999999999827
210
0.0
220
0.0
230
-1.0
  0
LINE
  5
368
330
1F
100
AcDbEntity
  8
Graypants_Ohio32
 62
    36
420
  8866048
370
    -3
100
AcDbLine
 10
2.698749999999791
 20
0.79386839914946
 30
0.0
 11
3.174130253255043
 21
0.793868413830296
 31
0.0
  0
LINE
  5
369
330
1F
100
AcDbEntity
  8
Graypants_Ohio32
 62
    36
420
  8866048
370
    -3
100
AcDbLine
 10
-2.6987500000007
 20
-0.7938687408063743
 30
0.0
 11
-3.174130533245261
 21
-0.7938687261255382
 31
0.0
  0
ARC
  5
36A
330
1F
100
AcDbEntity
  8
Graypants_Ohio32
 62
    36
420
  8866048
370
    -3
100
AcDbCircle
 10
3.174927951153435
 20
-0.0000035200983455
 30
0.0
 40
0.7938722452078233
210
0.0
220
0.0
230
-1.0
100
AcDbArc
 50
269.945603059962
 51
89.99874894356672
  0
LINE
  5
36B
330
1F
100
AcDbEntity
  8
Graypants_Ohio32
 62
    36
420
  8866048
370
    -3
100
AcDbLine
 10
3.174129677091968
 20
-0.7938684138287042
 30
0.0
 11
2.69874999999979
 21
-0.7938683991483229
 31
0.0
  0
LINE
  5
36C
330
1F
100
AcDbEntity
  8
Graypants_Ohio32
 62
    36
420
  8866048
370
    -3
100
AcDbLine
 10
-3.17412995691484
 20
0.7938687261271298
 30
0.0
 11
-2.6987500000007
 21
0.7938687408077385
 31
0.0
  0
ARC
  5
36D
330
1F
100
AcDbEntity
  8
Graypants_Ohio32
 62
    36
420
  8866048
370
    -3
100
AcDbCircle
 10
-3.17471921751109
 20
-0.000224620226165
 30
0.0
 40
0.7940930676561364
210
0.0
220
0.0
230
-1.0
100
AcDbArc
 50
90.01636531951937
 51
270.120079250116
  0
ARC
  5
36E
330
1F
100
AcDbEntity
  8
Graypants_Ohio32
 62
    36
420
  8866048
370
    -3
100
AcDbCircle
 10
32.60073848769718
 20
-18.82204559924345
 30
0.0
 40
3.175000000288397
100
AcDbArc
 50
27.00000000019538
 51
29.99999939713778
  0
LINE
  5
36F
330
1F
100
AcDbEntity
  8
Graypants_Ohio32
 62
    36
420
  8866048
370
    -3
100
AcDbLine
 10
2.361350278785748
 20
11.4207078218781
 30
0.0
 11
2.363938912477736
 21
11.39910840981
 31
0.0
  0
ARC
  5
370
330
1F
100
AcDbEntity
  8
Graypants_Ohio32
 62
    36
420
  8866048
370
    -3
100
AcDbCircle
 10
0.7937499611111428
 20
-0.003595215354397
 30
0.0
 40
0.7937500435867348
210
0.0
220
0.0
230
-1.0
100
AcDbArc
 50
333.0000000085267
 51
333.2316336298894
  0
ARC
  5
371
330
1F
100
AcDbEntity
  8
Graypants_Ohio32
 62
    36
420
  8866048
370
    -3
100
AcDbCircle
 10
-0.7937500164465624
 20
-0.0035952266319908
 30
0.0
 40
0.7937499815296262
210
0.0
220
0.0
230
-1.0
100
AcDbArc
 50
152.7692442168763
 51
153.0000000015944
  0
LINE
  5
372
330
1F
100
AcDbEntity
  8
Graypants_Ohio32
 62
    36
420
  8866048
370
    -3
100
AcDbLine
 10
-0.8875499846003547
 20
-0.7882061982559205
 30
0.0
 11
-0.7937500000002726
 21
-0.7938689171653548
 31
0.0
  0
LINE
  5
373
330
1F
100
AcDbEntity
  8
Graypants_Ohio32
 62
    36
420
  8866048
370
    -3
100
AcDbLine
 10
-0.8875499846003547
 20
-0.7882061982559205
 30
0.0
 11
-0.7937500000002726
 21
-0.7938689171653548
 31
0.0
  0
LINE
  5
374
330
1F
100
AcDbEntity
  8
Graypants_Ohio32
 62
    36
420
  8866048
370
    -3
100
AcDbLine
 10
-0.8875499846003547
 20
-0.7882061982559205
 30
0.0
 11
-0.7937500000002726
 21
-0.7938689171653548
 31
0.0
  0
LINE
  5
375
330
1F
100
AcDbEntity
  8
Graypants_Ohio32
 62
    36
420
  8866048
370
    -3
100
AcDbLine
 10
-0.8875499846003547
 20
-0.7882061982559205
 30
0.0
 11
-0.7937500000002726
 21
-0.7938689171653548
 31
0.0
  0
LINE
  5
376
330
1F
100
AcDbEntity
  8
Graypants_Ohio32
 62
    36
420
  8866048
370
    -3
100
AcDbLine
 10
-0.8875499846003547
 20
-0.7882061982559205
 30
0.0
 11
-0.7937500000002726
 21
-0.7938689171653548
 31
0.0
  0
LINE
  5
377
330
1F
100
AcDbEntity
  8
Graypants_Ohio32
 62
    36
420
  8866048
370
    -3
100
AcDbLine
 10
-0.8875499846003547
 20
-0.7882061982559205
 30
0.0
 11
-0.7937500000002726
 21
-0.7938689171653548
 31
0.0
  0
LINE
  5
378
330
1F
100
AcDbEntity
  8
Graypants_Ohio32
 62
    36
420
  8866048
370
    -3
100
AcDbLine
 10
-0.8875499846003547
 20
-0.7882061982559205
 30
0.0
 11
-0.7937500000002726
 21
-0.7938689171653548
 31
0.0
  0
LINE
  5
379
330
1F
100
AcDbEntity
  8
Graypants_Ohio32
 62
    36
420
  8866048
370
    -3
100
AcDbLine
 10
-0.7913387065216284
 20
0.7938686002105442
 30
0.0
 11
-0.7937494511575096
 21
0.7938686003037674
 31
0.0
  0
LINE
  5
37A
330
1F
100
AcDbEntity
  8
Graypants_Ohio32
 62
    36
420
  8866048
370
    -3
100
AcDbLine
 10
-0.8875499846003547
 20
-0.7882061982559205
 30
0.0
 11
-0.7937500000002726
 21
-0.7938689171653548
 31
0.0
  0
LINE
  5
37B
330
1F
100
AcDbEntity
  8
Graypants_Ohio32
 62
    36
420
  8866048
370
    -3
100
AcDbLine
 10
-0.8875499846003547
 20
-0.7882061982559205
 30
0.0
 11
-0.7937500000002726
 21
-0.7938689171653548
 31
0.0
  0
ARC
  5
37C
330
1F
100
AcDbEntity
  8
Graypants_Ohio32
 62
    36
420
  8866048
370
    -3
100
AcDbCircle
 10
0.7937500000035946
 20
0.0000000000078914
 30
0.0
 40
0.7938689171740333
210
0.0
220
0.0
230
-1.0
100
AcDbArc
 50
243.0000000000562
 51
254.1060151902243
  0
LINE
  5
37D
330
1F
100
AcDbEntity
  8
Graypants_Ohio32
 62
    36
420
  8866048
370
    -3
100
AcDbLine
 10
-0.8875499846003547
 20
-0.7882061982559205
 30
0.0
 11
-0.7937500000002726
 21
-0.7938689171653548
 31
0.0
  0
LINE
  5
37E
330
1F
100
AcDbEntity
  8
Graypants_Ohio32
 62
    36
420
  8866048
370
    -3
100
AcDbLine
 10
-75.57552056807367
 20
-45.36559744473197
 30
0.0
 11
-48.72338651345397
 21
-29.86251079834323
 31
0.0
  0
LINE
  5
37F
330
1F
100
AcDbEntity
  8
Graypants_Ohio32
 62
    36
420
  8866048
370
    -3
100
AcDbLine
 10
-56.18672890131916
 20
10.44237825055711
 30
0.0
 11
-72.56909035219269
 21
19.9007391529924
 31
0.0
  0
CIRCLE
  5
381
330
1F
100
AcDbEntity
  8
Graypants_Ohio32
  6
Hidden
 62
    36
420
  8866048
370
    -3
100
AcDbCircle
 10
-0.0000000000001156
 20
0.0000000000005728
 30
0.0
 40
57.14999999999998
  0
CIRCLE
  5
382
330
1F
100
AcDbEntity
  8
Graypants_Ohio32
 62
    36
420
  8866048
370
    -3
100
AcDbCircle
 10
-0.0000000000001206
 20
-0.0000000000001206
 30
0.0
 40
297.0000000000001
210
0.0
220
0.0
230
-1.0
  0
LINE
  5
383
330
1F
100
AcDbEntity
  8
Graypants_Ohio32
 62
    36
420
  8866048
370
    -3
100
AcDbLine
 10
1.499999999992269
 20
296.9962120970569
 30
0.0
 11
1.499999999944976
 21
88.13311943108033
 31
0.0
  0
LINE
  5
384
330
1F
100
AcDbEntity
  8
Graypants_Ohio32
 62
    36
420
  8866048
370
    -3
100
AcDbLine
 10
-1.500000000007049
 20
296.9962120970569
 30
0.0
 11
-1.500000000055024
 21
88.13311943108101
 31
0.0
  0
LINE
  5
385
330
1F
100
AcDbEntity
  8
Graypants_Ohio32
 62
    36
420
  8866048
370
    -3
100
AcDbLine
 10
257.9562629551217
 20
-147.1990706568102
 30
0.0
 11
77.07551989211674
 21
-42.76752242078828
 31
0.0
  0
LINE
  5
386
330
1F
100
AcDbEntity
  8
Graypants_Ohio32
 62
    36
420
  8866048
370
    -3
100
AcDbLine
 10
256.4562629277871
 20
-149.7971468523823
 30
0.0
 11
75.57551986478234
 21
-45.36559861636033
 31
0.0
  0
LINE
  5
387
330
1F
100
AcDbEntity
  8
Graypants_Ohio32
 62
    36
420
  8866048
370
    -3
100
AcDbLine
 10
-256.456265250049
 20
-149.797142876614
 30
0.0
 11
-75.57552056807367
 21
-45.36559744473197
 31
0.0
  0
LINE
  5
388
330
1F
100
AcDbEntity
  8
Graypants_Ohio32
 62
    36
420
  8866048
370
    -3
100
AcDbLine
 10
-257.9562652371062
 20
-147.1990666577881
 30
0.0
 11
-77.07552055513065
 21
-42.76752122590597
 31
0.0
  0
ARC
  5
389
330
1F
100
AcDbEntity
  8
Graypants_Ohio32
 62
    36
420
  8866048
370
    -3
100
AcDbCircle
 10
32.60073848794924
 20
-18.82204559910253
 30
0.0
 40
3.175000000000569
100
AcDbArc
 50
269.9999993972118
 51
301.8071388347195
  0
ARC
  5
38A
330
1F
100
AcDbEntity
  8
Graypants_Ohio32
 62
    36
420
  8866048
370
    -3
100
AcDbCircle
 10
32.60073848794841
 20
-18.82204559910328
 30
0.0
 40
3.175000000000741
100
AcDbArc
 50
358.1928599581952
 51
29.99999939721395
  0
ARC
  5
38B
330
1F
100
AcDbEntity
  8
Graypants_Ohio32
 62
    36
420
  8866048
370
    -3
100
AcDbCircle
 10
-32.60073888398799
 20
-18.82204491314403
 30
0.0
 40
3.175000000000176
100
AcDbArc
 50
149.9999993972318
 51
181.8071434223777
  0
ARC
  5
38C
330
1F
100
AcDbEntity
  8
Graypants_Ohio32
 62
    36
420
  8866048
370
    -3
100
AcDbCircle
 10
-32.60073888398854
 20
-18.82204491314387
 30
0.0
 40
3.175000000000824
100
AcDbArc
 50
238.1928645458329
 51
269.9999993972134
  0
ARC
  5
38D
330
1F
100
AcDbEntity
  8
Graypants_Ohio32
 62
    36
420
  8866048
370
    -3
100
AcDbCircle
 10
0.0000003960392547
 20
37.64409051225145
 30
0.0
 40
3.174999999998127
100
AcDbArc
 50
29.99999939721173
 51
61.80714754851705
  0
ARC
  5
38E
330
1F
100
AcDbEntity
  8
Graypants_Ohio32
 62
    36
420
  8866048
370
    -3
100
AcDbCircle
 10
0.0000003960374713
 20
37.64409051225053
 30
0.0
 40
3.174999999999695
100
AcDbArc
 50
118.1928686719583
 51
149.999999397215
  0
LINE
  5
38F
330
1F
100
AcDbEntity
  8
Graypants_Ohio32
 62
    36
420
  8866048
370
    -3
100
AcDbLine
 10
2.375847880096548
 20
11.27445248485021
 30
0.0
 11
2.377016869194219
 21
11.2544238037343
 31
0.0
  0
LINE
  5
390
330
1F
100
AcDbEntity
  8
Graypants_Ohio32
 62
    36
420
  8866048
370
    -3
100
AcDbLine
 10
2.377016869194219
 20
11.2544238037343
 30
0.0
 11
2.38125
 21
11.11250000000075
 31
0.0
  0
LINE
  5
391
330
1F
100
AcDbEntity
  8
Graypants_Ohio32
 62
    36
420
  8866048
370
    -3
100
AcDbLine
 10
2.363938912478002
 20
11.39910840981
 30
0.0
 11
2.371581694128297
 21
11.32686587889826
 31
0.0
  0
LINE
  5
392
330
1F
100
AcDbEntity
  8
Graypants_Ohio32
 62
    36
420
  8866048
370
    -3
100
AcDbLine
 10
2.371581694128564
 20
11.32686587889826
 30
0.0
 11
2.373502281434351
 21
11.30594108790861
 31
0.0
  0
LINE
  5
393
330
1F
100
AcDbEntity
  8
Graypants_Ohio32
 62
    36
420
  8866048
370
    -3
100
AcDbLine
 10
2.381250000000136
 20
11.11250206415048
 30
0.0
 11
2.381250000000136
 21
10.33232504460989
 31
0.0
  0
LINE
  5
394
330
1F
100
AcDbEntity
  8
Graypants_Ohio32
 62
    36
420
  8866048
370
    -3
100
AcDbLine
 10
-2.381249999999682
 20
11.11250206415048
 30
0.0
 11
-2.381249999999682
 21
10.33232504460989
 31
0.0
  0
ARC
  5
395
330
1F
100
AcDbEntity
  8
Graypants_Ohio32
 62
    36
420
  8866048
370
    -3
100
AcDbCircle
 10
0.0000000307851238
 20
11.1125025359678
 30
0.0
 40
2.381249969215908
210
0.0
220
0.0
230
-1.0
100
AcDbArc
 50
359.9999389815413
 51
171.3054175731809
  0
LINE
  5
396
330
1F
100
AcDbEntity
  8
Graypants_Ohio32
 62
    36
420
  8866048
370
    -3
100
AcDbLine
 10
2.353885053790631
 20
11.4724697907321
 30
0.0
 11
2.35665325369781
 21
11.45449789805459
 31
0.0
  0
ARC
  5
397
330
1F
100
AcDbEntity
  8
Graypants_Ohio32
 62
    36
420
  8866048
370
    -3
100
AcDbCircle
 10
0.0000000000003408
 20
0.0000000000013619
 30
0.0
 40
7.9374999999994
100
AcDbArc
 50
26.99999999999733
 51
72.54239687627879
  0
ARC
  5
398
330
1F
100
AcDbEntity
  8
Graypants_Ohio32
 62
    36
420
  8866048
370
    -3
100
AcDbCircle
 10
-0.0000000000003089
 20
0.0000000000007141
 30
0.0
 40
7.937500000000081
210
0.0
220
0.0
230
-1.0
100
AcDbArc
 50
287.4576031237266
 51
72.54239687627928
  0
ARC
  5
399
330
1F
100
AcDbEntity
  8
Graypants_Ohio32
 62
    36
420
  8866048
370
    -3
100
AcDbCircle
 10
0.0000000000000042
 20
0.0000000000007353
 30
0.0
 40
12.50000000000013
100
AcDbArc
 50
279.4186376744763
 51
80.58135528815691
  0
ARC
  5
39A
330
1F
100
AcDbEntity
  8
Graypants_Ohio32
 62
    36
420
  8866048
370
    -3
100
AcDbCircle
 10
0.0000000000003922
 20
0.000000000000713
 30
0.0
 40
12.50000000000023
100
AcDbArc
 50
99.41864332408979
 51
260.5813623255212
  0
LINE
  5
39B
330
1F
100
AcDbEntity
  8
Graypants_Ohio32
 62
    36
420
  8866048
370
    -3
100
AcDbLine
 10
1.499999999933834
 20
38.81623020279426
 30
0.0
 11
1.499999999927695
 21
12.96192165780144
 31
0.0
  0
LINE
  5
39C
330
1F
100
AcDbEntity
  8
Graypants_Ohio32
 62
    36
420
  8866048
370
    -3
100
AcDbLine
 10
-1.500000000066166
 20
38.81623020279494
 30
0.0
 11
-1.500000000072077
 21
12.96192165768389
 31
0.0
  0
LINE
  5
39D
330
1F
100
AcDbEntity
  8
Graypants_Ohio32
 62
    36
420
  8866048
370
    -3
100
AcDbLine
 10
2.381250000000136
 20
2.921000000000731
 30
0.0
 11
4.762500000000273
 21
2.921000000000731
 31
0.0
  0
LINE
  5
39E
330
1F
100
AcDbEntity
  8
Graypants_Ohio32
 62
    36
420
  8866048
370
    -3
100
AcDbLine
 10
4.762500000000045
 20
-2.920999999999367
 30
0.0
 11
2.381249999999682
 21
-2.92099999999914
 31
0.0
  0
CIRCLE
  5
39F
330
1F
100
AcDbEntity
  8
Graypants_Ohio32
 62
    36
420
  8866048
370
    -3
100
AcDbCircle
 10
-9.525000000000091
 20
0.0000000000006803
 30
0.0
 40
2.921000000000049
210
0.0
220
0.0
230
-1.0
  0
ARC
  5
3A0
330
1F
100
AcDbEntity
  8
Graypants_Ohio32
 62
    36
420
  8866048
370
    -3
100
AcDbCircle
 10
0.000000000000336
 20
0.0000000000005154
 30
0.0
 40
7.937500000000397
210
0.0
220
0.0
230
-1.0
100
AcDbArc
 50
107.4576031237281
 51
158.4076751284293
  0
ARC
  5
3A1
330
1F
100
AcDbEntity
  8
Graypants_Ohio32
 62
    36
420
  8866048
370
    -3
100
AcDbCircle
 10
-0.0000000000000822
 20
0.000000000001048
 30
0.0
 40
7.937500000000329
210
0.0
220
0.0
230
-1.0
100
AcDbArc
 50
201.5923248715725
 51
252.5423968762769
  0
LINE
  5
3A2
330
1F
100
AcDbEntity
  8
Graypants_Ohio32
 62
    36
420
  8866048
370
    -3
100
AcDbLine
 10
2.381250000000136
 20
-0.7938684731474879
 30
0.0
 11
2.381249999999909
 21
-11.11249999999927
 31
0.0
  0
LINE
  5
3A3
330
1F
100
AcDbEntity
  8
Graypants_Ohio32
 62
    36
420
  8866048
370
    -3
100
AcDbLine
 10
2.381250000000136
 20
10.33232504460989
 30
0.0
 11
2.381250000000591
 21
0.7938684731488401
 31
0.0
  0
LINE
  5
3A4
330
1F
100
AcDbEntity
  8
Graypants_Ohio32
 62
    36
420
  8866048
370
    -3
100
AcDbLine
 10
-2.381249999999682
 20
10.33232504460989
 30
0.0
 11
-2.381249999999682
 21
0.7938687447597346
 31
0.0
  0
LINE
  5
3A5
330
1F
100
AcDbEntity
  8
Graypants_Ohio32
 62
    36
420
  8866048
370
    -3
100
AcDbLine
 10
-2.381249999999909
 20
-0.7938687447585286
 30
0.0
 11
-2.381250000000136
 21
-11.11249999999927
 31
0.0
  0
ARC
  5
3A6
330
1F
100
AcDbEntity
  8
Graypants_Ohio32
 62
    36
420
  8866048
370
    -3
100
AcDbCircle
 10
-0.000000000002867
 20
0.0000000000032927
 30
0.0
 40
2.921000000003628
210
0.0
220
0.0
230
-1.0
100
AcDbArc
 50
324.6088627204634
 51
344.2297983192848
  0
ARC
  5
3A7
330
1F
100
AcDbEntity
  8
Graypants_Ohio32
 62
    36
420
  8866048
370
    -3
100
AcDbCircle
 10
-0.0000000000007049
 20
-0.000000000000377
 30
0.0
 40
2.921000000001019
210
0.0
220
0.0
230
-1.0
100
AcDbArc
 50
15.77020168069492
 51
35.39113727954606
  0
LINE
  5
3A8
330
1F
100
AcDbEntity
  8
Graypants_Ohio32
 62
    36
420
  8866048
370
    -3
100
AcDbLine
 10
-2.6987500000007
 20
0.7938687408077385
 30
0.0
 11
-2.16641435781662
 21
0.7938687521012012
 31
0.0
  0
LINE
  5
3A9
330
1F
100
AcDbEntity
  8
Graypants_Ohio32
 62
    36
420
  8866048
370
    -3
100
AcDbLine
 10
-2.170566624868798
 20
-0.7938687519208372
 30
0.0
 11
-2.6987500000007
 21
-0.7938687408063743
 31
0.0
  0
LINE
  5
3AA
330
1F
100
AcDbEntity
  8
Graypants_Ohio32
 62
    36
420
  8866048
370
    -3
100
AcDbLine
 10
2.700568951208879
 20
-0.793868456725022
 30
0.0
 11
2.170566779220735
 21
-0.7938684830057314
 31
0.0
  0
LINE
  5
3AB
330
1F
100
AcDbEntity
  8
Graypants_Ohio32
 62
    36
420
  8866048
370
    -3
100
AcDbLine
 10
2.698749999999791
 20
-0.7938683991483231
 30
0.0
 11
2.170566833144903
 21
-0.793868389058884
 31
0.0
  0
LINE
  5
3AC
330
1F
100
AcDbEntity
  8
Graypants_Ohio32
 62
    36
420
  8866048
370
    -3
100
AcDbLine
 10
2.695911116005618
 20
0.7938684569849102
 30
0.0
 11
2.166414514039161
 21
0.7938684831960363
 31
0.0
  0
LINE
  5
3AD
330
1F
100
AcDbEntity
  8
Graypants_Ohio32
 62
    36
420
  8866048
370
    -3
100
AcDbLine
 10
0.8002312396254183
 20
0.7938685394026319
 30
0.0
 11
0.7937500001428361
 21
0.7938685396532037
 31
0.0
  0
ENDSEC
  0
SECTION
  2
OBJECTS
  0
DICTIONARY
  5
C
330
0
100
AcDbDictionary
281
     1
  3
ACAD_DETAILVIEWSTYLE
350
3E9
  3
ACAD_GROUP
350
D
  3
ACAD_LAYOUT
350
1A
  3
ACAD_MATERIAL
350
43
  3
ACAD_MLEADERSTYLE
350
6B
  3
ACAD_MLINESTYLE
350
17
  3
ACAD_PLOTSETTINGS
350
19
  3
ACAD_PLOTSTYLENAME
350
E
  3
ACAD_SCALELIST
350
47
  3
ACAD_SECTIONVIEWSTYLE
350
3EA
  3
ACAD_TABLESTYLE
350
69
  3
ACAD_VISUALSTYLE
350
2A
  3
AcDbVariableDictionary
350
3AE
  3
ACDB_RECOMPOSE_DATA
350
3E6
  0
SUN
  5
6D
330
29
100
AcDbSun
 90
        1
290
     0
 63
     7
421
 16777215
 40
1.0
291
     1
 91
  2455826
 92
 54000000
292
     0
 70
     2
 71
   256
280
     1
  0
DICTIONARY
  5
3E9
102
{ACAD_REACTORS
330
C
102
}
330
C
100
AcDbDictionary
281
     1
  0
DICTIONARY
  5
D
102
{ACAD_REACTORS
330
C
102
}
330
C
100
AcDbDictionary
281
     1
  0
DICTIONARY
  5
1A
102
{ACAD_REACTORS
330
C
102
}
330
C
100
AcDbDictionary
281
     1
  3
Layout1
350
1E
  3
Layout2
350
26
  3
Model
350
22
  0
DICTIONARY
  5
43
102
{ACAD_REACTORS
330
C
102
}
330
C
100
AcDbDictionary
281
     1
  3
ByBlock
350
45
  3
ByLayer
350
44
  3
Global
350
46
  0
DICTIONARY
  5
6B
102
{ACAD_REACTORS
330
C
102
}
330
C
100
AcDbDictionary
281
     1
  3
Standard
350
6C
  0
DICTIONARY
  5
17
102
{ACAD_REACTORS
330
C
102
}
330
C
100
AcDbDictionary
281
     1
  3
Standard
350
18
  0
DICTIONARY
  5
19
102
{ACAD_REACTORS
330
C
102
}
330
C
100
AcDbDictionary
281
     1
  0
ACDBDICTIONARYWDFLT
  5
E
102
{ACAD_REACTORS
330
C
102
}
330
C
100
AcDbDictionary
281
     1
  3
Normal
350
F
100
AcDbDictionaryWithDefault
340
F
  0
DICTIONARY
  5
47
102
{ACAD_REACTORS
330
C
102
}
330
C
100
AcDbDictionary
281
     1
  3
A0
350
48
  3
A1
350
49
  3
A2
350
4A
  3
A3
350
4B
  3
A4
350
4C
  3
A5
350
4D
  3
A6
350
4E
  3
A7
350
4F
  3
A8
350
50
  3
A9
350
51
  3
B0
350
52
  3
B1
350
53
  3
B2
350
54
  3
B3
350
55
  3
B4
350
56
  3
B5
350
57
  3
B6
350
58
  3
B7
350
59
  3
B8
350
5A
  3
B9
350
5B
  3
C0
350
5C
  3
C1
350
5D
  3
C2
350
5E
  3
C3
350
5F
  3
C4
350
60
  3
C5
350
61
  3
C6
350
62
  3
C7
350
63
  3
C8
350
64
  3
C9
350
65
  3
D0
350
66
  3
D1
350
67
  3
D2
350
68
  0
DICTIONARY
  5
3EA
102
{ACAD_REACTORS
330
C
102
}
330
C
100
AcDbDictionary
281
     1
  0
DICTIONARY
  5
69
102
{ACAD_REACTORS
330
C
102
}
330
C
100
AcDbDictionary
281
     1
  3
Standard
350
6A
  0
DICTIONARY
  5
2A
102
{ACAD_REACTORS
330
C
102
}
330
C
100
AcDbDictionary
281
     1
  3
2dWireframe
350
2F
  3
Basic
350
32
  3
Brighten
350
36
  3
ColorChange
350
3A
  3
Conceptual
350
34
  3
Dim
350
35
  3
EdgeColorOff
350
3D
  3
Facepattern
350
39
  3
Flat
350
2B
  3
FlatWithEdges
350
2C
  3
Gouraud
350
2D
  3
GouraudWithEdges
350
2E
  3
Hidden
350
31
  3
JitterOff
350
3B
  3
Linepattern
350
38
  3
OverhangOff
350
3C
  3
Realistic
350
33
  3
Shaded
350
42
  3
Shaded with edges
350
41
  3
Shades of Gray
350
3E
  3
Sketchy
350
3F
  3
Thicken
350
37
  3
Wireframe
350
30
  3
X-Ray
350
40
  0
DICTIONARY
  5
3AE
102
{ACAD_REACTORS
330
C
102
}
330
C
100
AcDbDictionary
281
     1
  3
CANNOSCALE
350
3AF
  3
CMLEADERSTYLE
350
3E8
  3
CTABLESTYLE
350
3E7
  3
XCLIPFRAME
350
3B0
  0
XRECORD
  5
3E6
102
{ACAD_REACTORS
330
C
102
}
330
C
100
AcDbXrecord
280
     1
 90
        1
330
6A
  0
LAYOUT
  5
1E
102
{ACAD_REACTORS
330
1A
102
}
330
1A
100
AcDbPlotSettings
  1

  2
none_device
  4

  6

 40
0.0
 41
0.0
 42
0.0
 43
0.0
 44
0.0
 45
0.0
 46
0.0
 47
0.0
 48
0.0
 49
0.0
140
0.0
141
0.0
142
1.0
143
1.0
 70
   688
 72
     0
 73
     0
 74
     5
  7

 75
    16
 76
     0
 77
     2
 78
   300
147
1.0
148
0.0
149
0.0
100
AcDbLayout
  1
Layout1
 70
     1
 71
     1
 10
0.0
 20
0.0
 11
12.0
 21
9.0
 12
0.0
 22
0.0
 32
0.0
 14
1.000000000000000E+20
 24
1.000000000000000E+20
 34
1.000000000000000E+20
 15
-1.000000000000000E+20
 25
-1.000000000000000E+20
 35
-1.000000000000000E+20
146
0.0
 13
0.0
 23
0.0
 33
0.0
 16
1.0
 26
0.0
 36
0.0
 17
0.0
 27
1.0
 37
0.0
 76
     0
330
1B
  0
LAYOUT
  5
26
102
{ACAD_REACTORS
330
1A
102
}
330
1A
100
AcDbPlotSettings
  1

  2
none_device
  4

  6

 40
0.0
 41
0.0
 42
0.0
 43
0.0
 44
0.0
 45
0.0
 46
0.0
 47
0.0
 48
0.0
 49
0.0
140
0.0
141
0.0
142
1.0
143
1.0
 70
   688
 72
     0
 73
     0
 74
     5
  7

 75
    16
 76
     0
 77
     2
 78
   300
147
1.0
148
0.0
149
0.0
100
AcDbLayout
  1
Layout2
 70
     1
 71
     2
 10
0.0
 20
0.0
 11
0.0
 21
0.0
 12
0.0
 22
0.0
 32
0.0
 14
0.0
 24
0.0
 34
0.0
 15
0.0
 25
0.0
 35
0.0
146
0.0
 13
0.0
 23
0.0
 33
0.0
 16
1.0
 26
0.0
 36
0.0
 17
0.0
 27
1.0
 37
0.0
 76
     0
330
23
  0
LAYOUT
  5
22
102
{ACAD_REACTORS
330
1A
102
}
330
1A
100
AcDbPlotSettings
  1

  2
none_device
  4
Letter_(8.50_x_11.00_Inches)
  6

 40
6.35
 41
6.35
 42
6.35000508
 43
6.35000508
 44
215.9
 45
279.4
 46
0.0
 47
0.0
 48
0.0
 49
0.0
140
0.0
141
0.0
142
1.0
143
1.0
 70
  1712
 72
     0
 73
     0
 74
     0
  7

 75
     0
 76
     0
 77
     2
 78
   300
147
1.0
148
0.0
149
0.0
100
AcDbLayout
  1
Model
 70
     1
 71
     0
 10
0.0
 20
0.0
 11
12.0
 21
9.0
 12
3804.693056528511
 22
1444.863951419895
 32
0.0
 14
1.000000000000000E+20
 24
1.000000000000000E+20
 34
1.000000000000000E+20
 15
-1.000000000000000E+20
 25
-1.000000000000000E+20
 35
-1.000000000000000E+20
146
0.0
 13
0.0
 23
0.0
 33
0.0
 16
1.0
 26
0.0
 36
0.0
 17
0.0
 27
1.0
 37
0.0
 76
     0
330
1F
331
29
  0
MATERIAL
  5
45
102
{ACAD_REACTORS
330
43
102
}
330
43
100
AcDbMaterial
  1
ByBlock
 72
     1
 94
      127
  0
MATERIAL
  5
44
102
{ACAD_REACTORS
330
43
102
}
330
43
100
AcDbMaterial
  1
ByLayer
 72
     1
 94
      127
  0
MATERIAL
  5
46
102
{ACAD_REACTORS
330
43
102
}
330
43
100
AcDbMaterial
  1
Global
 72
     1
 94
      127
  0
MLEADERSTYLE
  5
6C
102
{ACAD_REACTORS
330
6B
102
}
102
{ACAD_XDICTIONARY
360
3E4
102
}
330
6B
100
AcDbMLeaderStyle
170
     2
171
     1
172
     0
 90
        2
 40
0.0
 41
0.0
173
     1
 91
-1056964608
340
14
 92
       -2
290
     1
 42
0.09
291
     1
 43
0.36
  3
Standard
341
0
 44
0.18
300

342
11
174
     1
178
     6
175
     1
176
     0
 93
-1056964608
 45
0.18
292
     0
297
     0
 46
0.18
343
0
 94
-1056964608
 47
1.0
 49
1.0
140
1.0
293
     1
141
0.0
294
     1
177
     0
142
1.0
295
     0
296
     0
143
0.125
1001
ACAD_MLEADERVER
1070
     2
  0
MLINESTYLE
  5
18
102
{ACAD_REACTORS
330
17
102
}
330
17
100
AcDbMlineStyle
  2
Standard
 70
     0
  3

 62
   256
 51
90.0
 52
90.0
 71
     2
 49
0.5
 62
   256
  6
BYLAYER
 49
-0.5
 62
   256
  6
BYLAYER
  0
ACDBPLACEHOLDER
  5
F
102
{ACAD_REACTORS
330
E
102
}
330
E
  0
SCALE
  5
48
102
{ACAD_REACTORS
330
47
102
}
330
47
100
AcDbScale
 70
     0
300
1:1
140
1.0
141
1.0
290
     1
  0
SCALE
  5
49
102
{ACAD_REACTORS
330
47
102
}
330
47
100
AcDbScale
 70
     0
300
1:2
140
1.0
141
2.0
290
     0
  0
SCALE
  5
4A
102
{ACAD_REACTORS
330
47
102
}
330
47
100
AcDbScale
 70
     0
300
1:4
140
1.0
141
4.0
290
     0
  0
SCALE
  5
4B
102
{ACAD_REACTORS
330
47
102
}
330
47
100
AcDbScale
 70
     0
300
1:5
140
1.0
141
5.0
290
     0
  0
SCALE
  5
4C
102
{ACAD_REACTORS
330
47
102
}
330
47
100
AcDbScale
 70
     0
300
1:8
140
1.0
141
8.0
290
     0
  0
SCALE
  5
4D
102
{ACAD_REACTORS
330
47
102
}
330
47
100
AcDbScale
 70
     0
300
1:10
140
1.0
141
10.0
290
     0
  0
SCALE
  5
4E
102
{ACAD_REACTORS
330
47
102
}
330
47
100
AcDbScale
 70
     0
300
1:16
140
1.0
141
16.0
290
     0
  0
SCALE
  5
4F
102
{ACAD_REACTORS
330
47
102
}
330
47
100
AcDbScale
 70
     0
300
1:20
140
1.0
141
20.0
290
     0
  0
SCALE
  5
50
102
{ACAD_REACTORS
330
47
102
}
330
47
100
AcDbScale
 70
     0
300
1:30
140
1.0
141
30.0
290
     0
  0
SCALE
  5
51
102
{ACAD_REACTORS
330
47
102
}
330
47
100
AcDbScale
 70
     0
300
1:40
140
1.0
141
40.0
290
     0
  0
SCALE
  5
52
102
{ACAD_REACTORS
330
47
102
}
330
47
100
AcDbScale
 70
     0
300
1:50
140
1.0
141
50.0
290
     0
  0
SCALE
  5
53
102
{ACAD_REACTORS
330
47
102
}
330
47
100
AcDbScale
 70
     0
300
1:100
140
1.0
141
100.0
290
     0
  0
SCALE
  5
54
102
{ACAD_REACTORS
330
47
102
}
330
47
100
AcDbScale
 70
     0
300
2:1
140
2.0
141
1.0
290
     0
  0
SCALE
  5
55
102
{ACAD_REACTORS
330
47
102
}
330
47
100
AcDbScale
 70
     0
300
4:1
140
4.0
141
1.0
290
     0
  0
SCALE
  5
56
102
{ACAD_REACTORS
330
47
102
}
330
47
100
AcDbScale
 70
     0
300
8:1
140
8.0
141
1.0
290
     0
  0
SCALE
  5
57
102
{ACAD_REACTORS
330
47
102
}
330
47
100
AcDbScale
 70
     0
300
10:1
140
10.0
141
1.0
290
     0
  0
SCALE
  5
58
102
{ACAD_REACTORS
330
47
102
}
330
47
100
AcDbScale
 70
     0
300
100:1
140
100.0
141
1.0
290
     0
  0
SCALE
  5
59
102
{ACAD_REACTORS
330
47
102
}
330
47
100
AcDbScale
 70
     0
300
1/128" = 1'-0"
140
0.0078125
141
12.0
290
     0
  0
SCALE
  5
5A
102
{ACAD_REACTORS
330
47
102
}
330
47
100
AcDbScale
 70
     0
300
1/64" = 1'-0"
140
0.015625
141
12.0
290
     0
  0
SCALE
  5
5B
102
{ACAD_REACTORS
330
47
102
}
330
47
100
AcDbScale
 70
     0
300
1/32" = 1'-0"
140
0.03125
141
12.0
290
     0
  0
SCALE
  5
5C
102
{ACAD_REACTORS
330
47
102
}
330
47
100
AcDbScale
 70
     0
300
1/16" = 1'-0"
140
0.0625
141
12.0
290
     0
  0
SCALE
  5
5D
102
{ACAD_REACTORS
330
47
102
}
330
47
100
AcDbScale
 70
     0
300
3/32" = 1'-0"
140
0.09375
141
12.0
290
     0
  0
SCALE
  5
5E
102
{ACAD_REACTORS
330
47
102
}
330
47
100
AcDbScale
 70
     0
300
1/8" = 1'-0"
140
0.125
141
12.0
290
     0
  0
SCALE
  5
5F
102
{ACAD_REACTORS
330
47
102
}
330
47
100
AcDbScale
 70
     0
300
3/16" = 1'-0"
140
0.1875
141
12.0
290
     0
  0
SCALE
  5
60
102
{ACAD_REACTORS
330
47
102
}
330
47
100
AcDbScale
 70
     0
300
1/4" = 1'-0"
140
0.25
141
12.0
290
     0
  0
SCALE
  5
61
102
{ACAD_REACTORS
330
47
102
}
330
47
100
AcDbScale
 70
     0
300
3/8" = 1'-0"
140
0.375
141
12.0
290
     0
  0
SCALE
  5
62
102
{ACAD_REACTORS
330
47
102
}
330
47
100
AcDbScale
 70
     0
300
1/2" = 1'-0"
140
0.5
141
12.0
290
     0
  0
SCALE
  5
63
102
{ACAD_REACTORS
330
47
102
}
330
47
100
AcDbScale
 70
     0
300
3/4" = 1'-0"
140
0.75
141
12.0
290
     0
  0
SCALE
  5
64
102
{ACAD_REACTORS
330
47
102
}
330
47
100
AcDbScale
 70
     0
300
1" = 1'-0"
140
1.0
141
12.0
290
     0
  0
SCALE
  5
65
102
{ACAD_REACTORS
330
47
102
}
330
47
100
AcDbScale
 70
     0
300
1-1/2" = 1'-0"
140
1.5
141
12.0
290
     0
  0
SCALE
  5
66
102
{ACAD_REACTORS
330
47
102
}
330
47
100
AcDbScale
 70
     0
300
3" = 1'-0"
140
3.0
141
12.0
290
     0
  0
SCALE
  5
67
102
{ACAD_REACTORS
330
47
102
}
330
47
100
AcDbScale
 70
     0
300
6" = 1'-0"
140
6.0
141
12.0
290
     0
  0
SCALE
  5
68
102
{ACAD_REACTORS
330
47
102
}
330
47
100
AcDbScale
 70
     0
300
1'-0" = 1'-0"
140
12.0
141
12.0
290
     0
  0
TABLESTYLE
  5
6A
102
{ACAD_REACTORS
330
69
102
}
102
{ACAD_XDICTIONARY
360
3E1
102
}
330
69
100
AcDbTableStyle
  3
Standard
 70
     0
 71
     0
 40
0.06
 41
0.06
280
     0
281
     0
  7
Standard
140
0.18
170
     2
 62
     0
 63
   257
283
     0
 90
        4
 91
        0
  1

274
    -2
284
     1
 64
     0
275
    -2
285
     1
 65
     0
276
    -2
286
     1
 66
     0
277
    -2
287
     1
 67
     0
278
    -2
288
     1
 68
     0
279
    -2
289
     1
 69
     0
  7
Standard
140
0.25
170
     5
 62
     0
 63
   257
283
     0
 90
        4
 91
        0
  1

274
    -2
284
     1
 64
     0
275
    -2
285
     1
 65
     0
276
    -2
286
     1
 66
     0
277
    -2
287
     1
 67
     0
278
    -2
288
     1
 68
     0
279
    -2
289
     1
 69
     0
  7
Standard
140
0.18
170
     5
 62
     0
 63
   257
283
     0
 90
        4
 91
        0
  1

274
    -2
284
     1
 64
     0
275
    -2
285
     1
 65
     0
276
    -2
286
     1
 66
     0
277
    -2
287
     1
 67
     0
278
    -2
288
     1
 68
     0
279
    -2
289
     1
 69
     0
  0
VISUALSTYLE
  5
2F
102
{ACAD_REACTORS
330
2A
102
}
102
{ACAD_XDICTIONARY
360
3B9
102
}
330
2A
100
AcDbVisualStyle
  2
2dWireframe
 70
     4
 71
     0
 72
     2
 73
     0
 90
        0
 40
0.6
 41
30.0
 62
     5
 63
     7
421
 16777215
 74
     1
 91
        4
 64
     7
 65
   257
 75
     1
175
     1
 42
1.0
 92
        0
 66
   257
 43
1.0
 76
     1
 77
     6
 78
     2
 67
     7
 79
     5
170
     0
171
     0
290
     0
174
     0
 93
        1
 44
0.0
173
     0
291
     0
 45
0.0
  0
VISUALSTYLE
  5
32
102
{ACAD_REACTORS
330
2A
102
}
102
{ACAD_XDICTIONARY
360
3BF
102
}
330
2A
100
AcDbVisualStyle
  2
Basic
 70
     7
 71
     1
 72
     0
 73
     1
 90
        0
 40
0.6
 41
30.0
 62
     5
 63
     7
421
 16777215
 74
     0
 91
        4
 64
     7
 65
   257
 75
     1
175
     1
 42
1.0
 92
        8
 66
     7
 43
1.0
 76
     1
 77
     6
 78
     2
 67
     7
 79
     5
170
     0
171
     0
290
     0
174
     0
 93
        1
 44
0.0
173
     0
291
     1
 45
0.0
  0
VISUALSTYLE
  5
36
102
{ACAD_REACTORS
330
2A
102
}
102
{ACAD_XDICTIONARY
360
3C7
102
}
330
2A
100
AcDbVisualStyle
  2
Brighten
 70
    12
 71
     2
 72
     2
 73
     0
 90
        0
 40
0.6
 41
30.0
 62
     5
 63
     7
421
 16777215
 74
     1
 91
        4
 64
     7
 65
   257
 75
     1
175
     1
 42
1.0
 92
        8
 66
     7
 43
1.0
 76
     1
 77
     6
 78
     2
 67
     7
 79
     5
170
     0
171
     0
290
     0
174
     0
 93
        1
 44
50.0
173
     0
291
     1
 45
0.0
  0
VISUALSTYLE
  5
3A
102
{ACAD_REACTORS
330
2A
102
}
102
{ACAD_XDICTIONARY
360
3CF
102
}
330
2A
100
AcDbVisualStyle
  2
ColorChange
 70
    16
 71
     2
 72
     2
 73
     3
 90
        0
 40
0.6
 41
30.0
 62
     5
 63
     8
421
  8421504
 74
     1
 91
        4
 64
     7
 65
   257
 75
     1
175
     1
 42
1.0
 92
        8
 66
     8
424
  8421504
 43
1.0
 76
     1
 77
     6
 78
     2
 67
     7
 79
     5
170
     0
171
     0
290
     0
174
     0
 93
        1
 44
0.0
173
     0
291
     1
 45
0.0
  0
VISUALSTYLE
  5
34
102
{ACAD_REACTORS
330
2A
102
}
102
{ACAD_XDICTIONARY
360
3C3
102
}
330
2A
100
AcDbVisualStyle
  2
Conceptual
 70
     9
 71
     3
 72
     2
 73
     0
 90
        0
 40
0.6
 41
30.0
 62
     5
 63
     7
421
 16777215
 74
     2
 91
        2
 64
     7
 65
   257
 75
     1
175
     1
 42
179.0
 92
        8
 66
     7
 43
1.0
 76
     1
 77
     6
 78
     2
 67
     7
 79
     3
170
     0
171
     0
290
     0
174
     0
 93
        1
 44
0.0
173
     0
291
     0
 45
0.0
  0
VISUALSTYLE
  5
35
102
{ACAD_REACTORS
330
2A
102
}
102
{ACAD_XDICTIONARY
360
3C5
102
}
330
2A
100
AcDbVisualStyle
  2
Dim
 70
    11
 71
     2
 72
     2
 73
     0
 90
        0
 40
0.6
 41
30.0
 62
     5
 63
     7
421
 16777215
 74
     1
 91
        4
 64
     7
 65
   257
 75
     1
175
     1
 42
1.0
 92
        8
 66
     7
 43
1.0
 76
     1
 77
     6
 78
     2
 67
     7
 79
     5
170
     0
171
     0
290
     0
174
     0
 93
        1
 44
-50.0
173
     0
291
     1
 45
0.0
  0
VISUALSTYLE
  5
3D
102
{ACAD_REACTORS
330
2A
102
}
102
{ACAD_XDICTIONARY
360
3D5
102
}
330
2A
100
AcDbVisualStyle
  2
EdgeColorOff
 70
    22
 71
     2
 72
     2
 73
     0
 90
        0
 40
0.6
 41
30.0
 62
     5
 63
     7
421
 16777215
 74
     1
 91
        4
 64
     7
 65
   257
 75
     1
175
     1
 42
1.0
 92
        8
 66
     7
 43
1.0
 76
     1
 77
     6
 78
     2
 67
     7
 79
     5
170
     0
171
     0
290
     0
174
     0
 93
        1
 44
0.0
173
     0
291
     1
 45
0.0
  0
VISUALSTYLE
  5
39
102
{ACAD_REACTORS
330
2A
102
}
102
{ACAD_XDICTIONARY
360
3CD
102
}
330
2A
100
AcDbVisualStyle
  2
Facepattern
 70
    15
 71
     2
 72
     2
 73
     0
 90
        0
 40
0.6
 41
30.0
 62
     5
 63
     7
421
 16777215
 74
     1
 91
        4
 64
     7
 65
   257
 75
     1
175
     1
 42
1.0
 92
        8
 66
     7
 43
1.0
 76
     1
 77
     6
 78
     2
 67
     7
 79
     5
170
     0
171
     0
290
     0
174
     0
 93
        1
 44
0.0
173
     0
291
     1
 45
0.0
  0
VISUALSTYLE
  5
2B
102
{ACAD_REACTORS
330
2A
102
}
102
{ACAD_XDICTIONARY
360
3B1
102
}
330
2A
100
AcDbVisualStyle
  2
Flat
 70
     0
 71
     2
 72
     1
 73
     1
 90
        2
 40
0.6
 41
30.0
 62
     5
 63
     7
421
 16777215
 74
     0
 91
        0
 64
     7
 65
   257
 75
     1
175
     1
 42
1.0
 92
        8
 66
     7
 43
1.0
 76
     1
 77
     6
 78
     2
 67
     7
 79
     5
170
     0
171
     0
290
     0
174
     0
 93
       13
 44
0.0
173
     0
291
     1
 45
0.0
  0
VISUALSTYLE
  5
2C
102
{ACAD_REACTORS
330
2A
102
}
102
{ACAD_XDICTIONARY
360
3B3
102
}
330
2A
100
AcDbVisualStyle
  2
FlatWithEdges
 70
     1
 71
     2
 72
     1
 73
     1
 90
        2
 40
0.6
 41
30.0
 62
     5
 63
     7
421
 16777215
 74
     1
 91
        0
 64
     7
 65
   257
 75
     1
175
     1
 42
1.0
 92
        0
 66
   257
 43
1.0
 76
     1
 77
     6
 78
     2
 67
     7
 79
     5
170
     0
171
     0
290
     0
174
     0
 93
       13
 44
0.0
173
     0
291
     1
 45
0.0
  0
VISUALSTYLE
  5
2D
102
{ACAD_REACTORS
330
2A
102
}
102
{ACAD_XDICTIONARY
360
3B5
102
}
330
2A
100
AcDbVisualStyle
  2
Gouraud
 70
     2
 71
     2
 72
     2
 73
     1
 90
        2
 40
0.6
 41
30.0
 62
     5
 63
     7
421
 16777215
 74
     0
 91
        0
 64
     7
 65
   257
 75
     1
175
     1
 42
1.0
 92
        0
 66
     7
 43
1.0
 76
     1
 77
     6
 78
     2
 67
     7
 79
     5
170
     0
171
     0
290
     0
174
     0
 93
       13
 44
0.0
173
     0
291
     1
 45
0.0
  0
VISUALSTYLE
  5
2E
102
{ACAD_REACTORS
330
2A
102
}
102
{ACAD_XDICTIONARY
360
3B7
102
}
330
2A
100
AcDbVisualStyle
  2
GouraudWithEdges
 70
     3
 71
     2
 72
     2
 73
     1
 90
        2
 40
0.6
 41
30.0
 62
     5
 63
     7
421
 16777215
 74
     1
 91
        0
 64
     7
 65
   257
 75
     1
175
     1
 42
1.0
 92
        0
 66
   257
 43
1.0
 76
     1
 77
     6
 78
     2
 67
     7
 79
     5
170
     0
171
     0
290
     0
174
     0
 93
       13
 44
0.0
173
     0
291
     1
 45
0.0
  0
VISUALSTYLE
  5
31
102
{ACAD_REACTORS
330
2A
102
}
102
{ACAD_XDICTIONARY
360
3BD
102
}
330
2A
100
AcDbVisualStyle
  2
Hidden
 70
     6
 71
     1
 72
     2
 73
     2
 90
        0
 40
0.6
 41
30.0
 62
     5
 63
     7
421
 16777215
 74
     2
 91
        2
 64
     7
 65
   257
 75
     2
175
     1
 42
40.0
 92
        0
 66
   257
 43
1.0
 76
     1
 77
     6
 78
     2
 67
     7
 79
     3
170
     0
171
     0
290
     0
174
     0
 93
        1
 44
0.0
173
     0
291
     0
 45
0.0
  0
VISUALSTYLE
  5
3B
102
{ACAD_REACTORS
330
2A
102
}
102
{ACAD_XDICTIONARY
360
3D1
102
}
330
2A
100
AcDbVisualStyle
  2
JitterOff
 70
    20
 71
     2
 72
     2
 73
     0
 90
        0
 40
0.6
 41
30.0
 62
     5
 63
     7
421
 16777215
 74
     1
 91
        4
 64
     7
 65
   257
 75
     1
175
     1
 42
1.0
 92
       10
 66
     7
 43
1.0
 76
     1
 77
     6
 78
     2
 67
     7
 79
     5
170
     0
171
     0
290
     0
174
     0
 93
        1
 44
0.0
173
     0
291
     1
 45
0.0
  0
VISUALSTYLE
  5
38
102
{ACAD_REACTORS
330
2A
102
}
102
{ACAD_XDICTIONARY
360
3CB
102
}
330
2A
100
AcDbVisualStyle
  2
Linepattern
 70
    14
 71
     2
 72
     2
 73
     0
 90
        0
 40
0.6
 41
30.0
 62
     5
 63
     7
421
 16777215
 74
     1
 91
        4
 64
     7
 65
   257
 75
     7
175
     7
 42
1.0
 92
        8
 66
     7
 43
1.0
 76
     1
 77
     6
 78
     2
 67
     7
 79
     5
170
     0
171
     0
290
     0
174
     0
 93
        1
 44
0.0
173
     0
291
     1
 45
0.0
  0
VISUALSTYLE
  5
3C
102
{ACAD_REACTORS
330
2A
102
}
102
{ACAD_XDICTIONARY
360
3D3
102
}
330
2A
100
AcDbVisualStyle
  2
OverhangOff
 70
    21
 71
     2
 72
     2
 73
     0
 90
        0
 40
0.6
 41
30.0
 62
     5
 63
     7
421
 16777215
 74
     1
 91
        4
 64
     7
 65
   257
 75
     1
175
     1
 42
1.0
 92
        9
 66
     7
 43
1.0
 76
     1
 77
     6
 78
     2
 67
     7
 79
     5
170
     0
171
     0
290
     0
174
     0
 93
        1
 44
0.0
173
     0
291
     1
 45
0.0
  0
VISUALSTYLE
  5
33
102
{ACAD_REACTORS
330
2A
102
}
102
{ACAD_XDICTIONARY
360
3C1
102
}
330
2A
100
AcDbVisualStyle
  2
Realistic
 70
     8
 71
     2
 72
     3
 73
     0
 90
        2
 40
0.6
 41
30.0
 62
     5
 63
     7
421
 16777215
 74
     0
 91
        0
 64
     7
 65
   257
 75
     1
175
     1
 42
1.0
 92
        8
 66
   257
 43
1.0
 76
     1
 77
     6
 78
     2
 67
     7
 79
     3
170
     0
171
     0
290
     0
174
     0
 93
       13
 44
0.0
173
     0
291
     0
 45
0.0
  0
VISUALSTYLE
  5
42
102
{ACAD_REACTORS
330
2A
102
}
102
{ACAD_XDICTIONARY
360
3DF
102
}
330
2A
100
AcDbVisualStyle
  2
Shaded
 70
    27
 71
     2
 72
     2
 73
     1
 90
        2
 40
0.6
 41
30.0
 62
     5
 63
     7
421
 16777215
 74
     0
 91
        4
 64
     7
 65
   257
 75
     1
175
     1
 42
1.0
 92
        8
 66
   257
 43
1.0
 76
     1
 77
     6
 78
     2
 67
     8
425
  7895160
 79
     3
170
     0
171
     0
290
     0
174
     0
 93
        5
 44
0.0
173
     0
291
     0
 45
0.0
  0
VISUALSTYLE
  5
41
102
{ACAD_REACTORS
330
2A
102
}
102
{ACAD_XDICTIONARY
360
3DD
102
}
330
2A
100
AcDbVisualStyle
  2
Shaded with edges
 70
    26
 71
     2
 72
     2
 73
     1
 90
        2
 40
0.6
 41
30.0
 62
     5
 63
     7
421
 16777215
 74
     1
 91
       10
 64
     7
 65
   257
 75
     2
175
     1
 42
1.0
 92
        8
 66
   257
 43
1.0
 76
     1
 77
     6
 78
     2
 67
     7
 79
     3
170
     0
171
     0
290
     0
174
     0
 93
        5
 44
0.0
173
     0
291
     0
 45
0.0
  0
VISUALSTYLE
  5
3E
102
{ACAD_REACTORS
330
2A
102
}
102
{ACAD_XDICTIONARY
360
3D7
102
}
330
2A
100
AcDbVisualStyle
  2
Shades of Gray
 70
    23
 71
     2
 72
     2
 73
     3
 90
        0
 40
0.6
 41
30.0
 62
     5
 63
     7
421
 16777215
 74
     2
 91
        2
 64
     7
 65
     7
 75
     1
175
     1
 42
40.0
 92
        8
 66
     7
 43
1.0
 76
     1
 77
     6
 78
     2
 67
     7
 79
     3
170
     0
171
     0
290
     0
174
     0
 93
        1
 44
0.0
173
     0
291
     0
 45
0.0
  0
VISUALSTYLE
  5
3F
102
{ACAD_REACTORS
330
2A
102
}
102
{ACAD_XDICTIONARY
360
3D9
102
}
330
2A
100
AcDbVisualStyle
  2
Sketchy
 70
    24
 71
     1
 72
     2
 73
     2
 90
        0
 40
0.6
 41
30.0
 62
     5
 63
     7
421
 16777215
 74
     2
 91
        2
 64
     7
 65
     7
 75
     1
175
     1
 42
40.0
 92
       11
 66
     7
 43
1.0
 76
     1
 77
     6
 78
     2
 67
     7
 79
     6
170
     0
171
     0
290
     0
174
     0
 93
        1
 44
0.0
173
     0
291
     0
 45
0.0
  0
VISUALSTYLE
  5
37
102
{ACAD_REACTORS
330
2A
102
}
102
{ACAD_XDICTIONARY
360
3C9
102
}
330
2A
100
AcDbVisualStyle
  2
Thicken
 70
    13
 71
     2
 72
     2
 73
     0
 90
        0
 40
0.6
 41
30.0
 62
     5
 63
     7
421
 16777215
 74
     1
 91
        4
 64
     7
 65
   257
 75
     1
175
     1
 42
1.0
 92
       12
 66
     7
 43
1.0
 76
     1
 77
     6
 78
     2
 67
     7
 79
     5
170
     0
171
     0
290
     0
174
     0
 93
        1
 44
0.0
173
     0
291
     1
 45
0.0
  0
VISUALSTYLE
  5
30
102
{ACAD_REACTORS
330
2A
102
}
102
{ACAD_XDICTIONARY
360
3BB
102
}
330
2A
100
AcDbVisualStyle
  2
Wireframe
 70
     5
 71
     0
 72
     2
 73
     0
 90
        0
 40
0.6
 41
30.0
 62
     5
 63
     7
421
 16777215
 74
     1
 91
        4
 64
     7
 65
   257
 75
     1
175
     1
 42
1.0
 92
        0
 66
   257
 43
1.0
 76
     1
 77
     6
 78
     2
 67
     7
 79
     3
170
     0
171
     0
290
     0
174
     0
 93
        1
 44
0.0
173
     0
291
     0
 45
0.0
  0
VISUALSTYLE
  5
40
102
{ACAD_REACTORS
330
2A
102
}
102
{ACAD_XDICTIONARY
360
3DB
102
}
330
2A
100
AcDbVisualStyle
  2
X-Ray
 70
    25
 71
     2
 72
     2
 73
     1
 90
        1
 40
0.5
 41
30.0
 62
     5
 63
     7
421
 16777215
 74
     1
 91
        0
 64
     7
 65
   257
 75
     1
175
     1
 42
1.0
 92
        8
 66
     7
 43
1.0
 76
     1
 77
     6
 78
     2
 67
     7
 79
     3
170
     0
171
     0
290
     0
174
     0
 93
       13
 44
0.0
173
     0
291
     0
 45
0.0
  0
DICTIONARYVAR
  5
3AF
102
{ACAD_REACTORS
330
3AE
102
}
330
3AE
100
DictionaryVariables
280
     0
  1
1:1
  0
DICTIONARYVAR
  5
3E8
102
{ACAD_REACTORS
330
3AE
102
}
330
3AE
100
DictionaryVariables
280
     0
  1
Standard
  0
DICTIONARYVAR
  5
3E7
102
{ACAD_REACTORS
330
3AE
102
}
330
3AE
100
DictionaryVariables
280
     0
  1
Standard
  0
DICTIONARYVAR
  5
3B0
102
{ACAD_REACTORS
330
3AE
102
}
330
3AE
100
DictionaryVariables
280
     0
  1
2
  0
DICTIONARY
  5
3E4
330
6C
100
AcDbDictionary
280
     1
281
     1
  3
ACAD_XREC_ROUNDTRIP
360
3E5
  0
DICTIONARY
  5
3E1
330
6A
100
AcDbDictionary
280
     1
281
     1
  3
ACAD_ROUNDTRIP_2008_TABLESTYLE_CELLSTYLEMAP
360
3E2
  0
DICTIONARY
  5
3B9
330
2F
100
AcDbDictionary
280
     1
281
     1
  3
ACAD_XREC_ROUNDTRIP
360
3BA
  0
DICTIONARY
  5
3BF
330
32
100
AcDbDictionary
280
     1
281
     1
  3
ACAD_XREC_ROUNDTRIP
360
3C0
  0
DICTIONARY
  5
3C7
330
36
100
AcDbDictionary
280
     1
281
     1
  3
ACAD_XREC_ROUNDTRIP
360
3C8
  0
DICTIONARY
  5
3CF
330
3A
100
AcDbDictionary
280
     1
281
     1
  3
ACAD_XREC_ROUNDTRIP
360
3D0
  0
DICTIONARY
  5
3C3
330
34
100
AcDbDictionary
280
     1
281
     1
  3
ACAD_XREC_ROUNDTRIP
360
3C4
  0
DICTIONARY
  5
3C5
330
35
100
AcDbDictionary
280
     1
281
     1
  3
ACAD_XREC_ROUNDTRIP
360
3C6
  0
DICTIONARY
  5
3D5
330
3D
100
AcDbDictionary
280
     1
281
     1
  3
ACAD_XREC_ROUNDTRIP
360
3D6
  0
DICTIONARY
  5
3CD
330
39
100
AcDbDictionary
280
     1
281
     1
  3
ACAD_XREC_ROUNDTRIP
360
3CE
  0
DICTIONARY
  5
3B1
330
2B
100
AcDbDictionary
280
     1
281
     1
  3
ACAD_XREC_ROUNDTRIP
360
3B2
  0
DICTIONARY
  5
3B3
330
2C
100
AcDbDictionary
280
     1
281
     1
  3
ACAD_XREC_ROUNDTRIP
360
3B4
  0
DICTIONARY
  5
3B5
330
2D
100
AcDbDictionary
280
     1
281
     1
  3
ACAD_XREC_ROUNDTRIP
360
3B6
  0
DICTIONARY
  5
3B7
330
2E
100
AcDbDictionary
280
     1
281
     1
  3
ACAD_XREC_ROUNDTRIP
360
3B8
  0
DICTIONARY
  5
3BD
330
31
100
AcDbDictionary
280
     1
281
     1
  3
ACAD_XREC_ROUNDTRIP
360
3BE
  0
DICTIONARY
  5
3D1
330
3B
100
AcDbDictionary
280
     1
281
     1
  3
ACAD_XREC_ROUNDTRIP
360
3D2
  0
DICTIONARY
  5
3CB
330
38
100
AcDbDictionary
280
     1
281
     1
  3
ACAD_XREC_ROUNDTRIP
360
3CC
  0
DICTIONARY
  5
3D3
330
3C
100
AcDbDictionary
280
     1
281
     1
  3
ACAD_XREC_ROUNDTRIP
360
3D4
  0
DICTIONARY
  5
3C1
330
33
100
AcDbDictionary
280
     1
281
     1
  3
ACAD_XREC_ROUNDTRIP
360
3C2
  0
DICTIONARY
  5
3DF
330
42
100
AcDbDictionary
280
     1
281
     1
  3
ACAD_XREC_ROUNDTRIP
360
3E0
  0
DICTIONARY
  5
3DD
330
41
100
AcDbDictionary
280
     1
281
     1
  3
ACAD_XREC_ROUNDTRIP
360
3DE
  0
DICTIONARY
  5
3D7
330
3E
100
AcDbDictionary
280
     1
281
     1
  3
ACAD_XREC_ROUNDTRIP
360
3D8
  0
DICTIONARY
  5
3D9
330
3F
100
AcDbDictionary
280
     1
281
     1
  3
ACAD_XREC_ROUNDTRIP
360
3DA
  0
DICTIONARY
  5
3C9
330
37
100
AcDbDictionary
280
     1
281
     1
  3
ACAD_XREC_ROUNDTRIP
360
3CA
  0
DICTIONARY
  5
3BB
330
30
100
AcDbDictionary
280
     1
281
     1
  3
ACAD_XREC_ROUNDTRIP
360
3BC
  0
DICTIONARY
  5
3DB
330
40
100
AcDbDictionary
280
     1
281
     1
  3
ACAD_XREC_ROUNDTRIP
360
3DC
  0
XRECORD
  5
3E5
102
{ACAD_REACTORS
330
3E4
102
}
330
3E4
100
AcDbXrecord
280
     1
102
ACAD_ROUNDTRIP_2010_MLEADER_STYLE
  0
CELLSTYLEMAP
  5
3E2
102
{ACAD_REACTORS
330
3E1
102
}
330
3E1
100
AcDbCellStyleMap
 90
        3
300
CELLSTYLE
  1
TABLEFORMAT_BEGIN
 90
        5
170
     1
 91
        0
 92
    32768
 62
   257
 93
        1
300
CONTENTFORMAT
  1
CONTENTFORMAT_BEGIN
 90
        0
 91
        0
 92
        4
 93
        0
300

 40
0.0
140
1.0
 94
        5
 62
     0
340
11
144
0.25
309
CONTENTFORMAT_END
171
     1
301
MARGIN
  1
CELLMARGIN_BEGIN
 40
0.06
 40
0.06
 40
0.06
 40
0.06
 40
0.06
 40
0.06
309
CELLMARGIN_END
 94
        6
 95
        1
302
GRIDFORMAT
  1
GRIDFORMAT_BEGIN
 90
        0
 91
        1
 62
     0
 92
       -2
340
14
 93
        0
 40
0.045
309
GRIDFORMAT_END
 95
        2
302
GRIDFORMAT
  1
GRIDFORMAT_BEGIN
 90
        0
 91
        1
 62
     0
 92
       -2
340
14
 93
        0
 40
0.045
309
GRIDFORMAT_END
 95
        4
302
GRIDFORMAT
  1
GRIDFORMAT_BEGIN
 90
        0
 91
        1
 62
     0
 92
       -2
340
14
 93
        0
 40
0.045
309
GRIDFORMAT_END
 95
        8
302
GRIDFORMAT
  1
GRIDFORMAT_BEGIN
 90
        0
 91
        1
 62
     0
 92
       -2
340
14
 93
        0
 40
0.045
309
GRIDFORMAT_END
 95
       16
302
GRIDFORMAT
  1
GRIDFORMAT_BEGIN
 90
        0
 91
        1
 62
     0
 92
       -2
340
14
 93
        0
 40
0.045
309
GRIDFORMAT_END
 95
       32
302
GRIDFORMAT
  1
GRIDFORMAT_BEGIN
 90
        0
 91
        1
 62
     0
 92
       -2
340
14
 93
        0
 40
0.045
309
GRIDFORMAT_END
309
TABLEFORMAT_END
  1
CELLSTYLE_BEGIN
 90
        1
 91
        1
300
_TITLE
309
CELLSTYLE_END
300
CELLSTYLE
  1
TABLEFORMAT_BEGIN
 90
        5
170
     1
 91
        0
 92
        0
 62
   257
 93
        1
300
CONTENTFORMAT
  1
CONTENTFORMAT_BEGIN
 90
        0
 91
        0
 92
        4
 93
        0
300

 40
0.0
140
1.0
 94
        5
 62
     0
340
11
144
0.18
309
CONTENTFORMAT_END
171
     1
301
MARGIN
  1
CELLMARGIN_BEGIN
 40
0.06
 40
0.06
 40
0.06
 40
0.06
 40
0.06
 40
0.06
309
CELLMARGIN_END
 94
        6
 95
        1
302
GRIDFORMAT
  1
GRIDFORMAT_BEGIN
 90
        0
 91
        1
 62
     0
 92
       -2
340
14
 93
        0
 40
0.045
309
GRIDFORMAT_END
 95
        2
302
GRIDFORMAT
  1
GRIDFORMAT_BEGIN
 90
        0
 91
        1
 62
     0
 92
       -2
340
14
 93
        0
 40
0.045
309
GRIDFORMAT_END
 95
        4
302
GRIDFORMAT
  1
GRIDFORMAT_BEGIN
 90
        0
 91
        1
 62
     0
 92
       -2
340
14
 93
        0
 40
0.045
309
GRIDFORMAT_END
 95
        8
302
GRIDFORMAT
  1
GRIDFORMAT_BEGIN
 90
        0
 91
        1
 62
     0
 92
       -2
340
14
 93
        0
 40
0.045
309
GRIDFORMAT_END
 95
       16
302
GRIDFORMAT
  1
GRIDFORMAT_BEGIN
 90
        0
 91
        1
 62
     0
 92
       -2
340
14
 93
        0
 40
0.045
309
GRIDFORMAT_END
 95
       32
302
GRIDFORMAT
  1
GRIDFORMAT_BEGIN
 90
        0
 91
        1
 62
     0
 92
       -2
340
14
 93
        0
 40
0.045
309
GRIDFORMAT_END
309
TABLEFORMAT_END
  1
CELLSTYLE_BEGIN
 90
        2
 91
        1
300
_HEADER
309
CELLSTYLE_END
300
CELLSTYLE
  1
TABLEFORMAT_BEGIN
 90
        5
170
     1
 91
        0
 92
        0
 62
   257
 93
        1
300
CONTENTFORMAT
  1
CONTENTFORMAT_BEGIN
 90
        0
 91
        0
 92
        4
 93
        0
300

 40
0.0
140
1.0
 94
        2
 62
     0
340
11
144
0.18
309
CONTENTFORMAT_END
171
     1
301
MARGIN
  1
CELLMARGIN_BEGIN
 40
0.06
 40
0.06
 40
0.06
 40
0.06
 40
0.06
 40
0.06
309
CELLMARGIN_END
 94
        6
 95
        1
302
GRIDFORMAT
  1
GRIDFORMAT_BEGIN
 90
        0
 91
        1
 62
     0
 92
       -2
340
14
 93
        0
 40
0.045
309
GRIDFORMAT_END
 95
        2
302
GRIDFORMAT
  1
GRIDFORMAT_BEGIN
 90
        0
 91
        1
 62
     0
 92
       -2
340
14
 93
        0
 40
0.045
309
GRIDFORMAT_END
 95
        4
302
GRIDFORMAT
  1
GRIDFORMAT_BEGIN
 90
        0
 91
        1
 62
     0
 92
       -2
340
14
 93
        0
 40
0.045
309
GRIDFORMAT_END
 95
        8
302
GRIDFORMAT
  1
GRIDFORMAT_BEGIN
 90
        0
 91
        1
 62
     0
 92
       -2
340
14
 93
        0
 40
0.045
309
GRIDFORMAT_END
 95
       16
302
GRIDFORMAT
  1
GRIDFORMAT_BEGIN
 90
        0
 91
        1
 62
     0
 92
       -2
340
14
 93
        0
 40
0.045
309
GRIDFORMAT_END
 95
       32
302
GRIDFORMAT
  1
GRIDFORMAT_BEGIN
 90
        0
 91
        1
 62
     0
 92
       -2
340
14
 93
        0
 40
0.045
309
GRIDFORMAT_END
309
TABLEFORMAT_END
  1
CELLSTYLE_BEGIN
 90
        3
 91
        2
300
_DATA
309
CELLSTYLE_END
  0
XRECORD
  5
3BA
102
{ACAD_REACTORS
330
3B9
102
}
330
3B9
100
AcDbXrecord
280
     1
102
RTVSPropertyOp0
 70
     1
102
RTVSPropertyOp1
 70
     1
102
RTVSPropertyOp2
 70
     1
102
RTVSPropertyOp3
 70
     1
102
RTVSPropertyOp4
 70
     1
102
RTVSPropertyOp5
 70
     1
102
RTVSPropertyOp6
 70
     1
102
RTVSPropertyOp7
 70
     1
102
RTVSPropertyOp8
 70
     1
102
RTVSPropertyOp9
 70
     1
102
RTVSPropertyOp10
 70
     1
102
RTVSPropertyOp11
 70
     1
102
RTVSPropertyOp12
 70
     1
102
RTVSPropertyOp13
 70
     1
102
RTVSPropertyOp14
 70
     1
102
RTVSPropertyOp15
 70
     1
102
RTVSPropertyOp16
 70
     1
102
RTVSPropertyOp17
 70
     1
102
RTVSPropertyOp18
 70
     1
102
RTVSPropertyOp19
 70
     1
102
RTVSPropertyOp20
 70
     1
102
RTVSPropertyOp21
 70
     1
102
RTVSPropertyOp22
 70
     1
102
RTVSPropertyOp23
 70
     1
102
RTVSPropertyOp24
 70
     1
102
RTVSPropertyOp25
 70
     1
102
RTVSPropertyOp26
 70
     1
102
RTVSPropertyOp27
 70
     1
102
RTVSPropertyOp28
 70
     1
102
RTVSPropertyOp29
 70
     1
102
RTVSPropertyOp30
 70
     1
102
RTVSPropertyOp31
 70
     1
102
RTVSPropertyOp32
 70
     1
102
RTVSPropertyOp33
 70
     1
102
RTVSPropertyOp34
 70
     1
102
RTVSPropertyOp35
 70
     1
102
RTVSPropertyOp36
 70
     1
102
RTVSPropertyOp37
 70
     1
102
RTVSPropertyOp38
 70
     1
102
RTVSPropertyOp39
 70
     1
102
RTVSPropertyOp40
 70
     1
102
RTVSPropertyOp41
 70
     1
102
RTVSPropertyOp42
 70
     1
102
RTVSPropertyOp43
 70
     1
102
RTVSPropertyOp44
 70
     1
102
RTVSPropertyOp45
 70
     1
102
RTVSPropertyOp46
 70
     1
102
RTVSPropertyOp47
 70
     1
102
RTVSPropertyOp48
 70
     1
102
RTVSPropertyOp49
 70
     1
102
RTVSPropertyOp50
 70
     1
102
RTVSPropertyOp51
 70
     0
102
RTVSPropertyOp52
 70
     0
102
RTVSPropertyOp53
 70
     1
102
RTVSPropertyOp54
 70
     1
102
RTVSPropertyOp55
 70
     1
102
RTVSPropertyOp56
 70
     1
102
RTVSPropertyOp57
 70
     1
102
RTVSPost2010Prop28
280
     1
102
RTVSPost2010PropOp28
 70
     1
102
RTVSPost2010Prop29
280
     1
102
RTVSPost2010PropOp29
 70
     1
102
RTVSPost2010Prop30
280
     0
102
RTVSPost2010PropOp30
 70
     1
102
RTVSPost2010Prop31
280
     0
102
RTVSPost2010PropOp31
 70
     1
102
RTVSPost2010Prop32
280
     0
102
RTVSPost2010PropOp32
 70
     1
102
RTVSPost2010Prop33
280
     0
102
RTVSPost2010PropOp33
 70
     1
102
RTVSPost2010Prop34
280
     0
102
RTVSPost2010PropOp34
 70
     1
102
RTVSPost2010Prop35
280
     0
102
RTVSPost2010PropOp35
 70
     1
102
RTVSPost2010Prop36
280
     0
102
RTVSPost2010PropOp36
 70
     1
102
RTVSPost2010Prop37
 90
       50
102
RTVSPost2010PropOp37
 70
     1
102
RTVSPost2010Prop38
140
0.0
102
RTVSPost2010PropOp38
 70
     1
102
RTVSPost2010Prop39
140
1.0
102
RTVSPost2010PropOp39
 70
     1
102
RTVSPost2010Prop40
 90
        0
102
RTVSPost2010PropOp40
 70
     1
102
RTVSPost2010Prop41ColorIndex
 90
      178
102
RTVSPost2010Prop41ColorRGB
 90
        0
102
RTVSPost2010PropOp41
 70
     1
102
RTVSPost2010Prop42
 90
       50
102
RTVSPost2010PropOp42
 70
     1
102
RTVSPost2010Prop43
 90
        3
102
RTVSPost2010PropOp43
 70
     1
102
RTVSPost2010Prop44ColorIndex
 90
        5
102
RTVSPost2010Prop44ColorRGB
 90
      255
102
RTVSPost2010PropOp44
 70
     1
102
RTVSPost2010Prop45
280
     0
102
RTVSPost2010PropOp45
 70
     1
102
RTVSPost2010Prop46
 90
       50
102
RTVSPost2010PropOp46
 70
     1
102
RTVSPost2010Prop47
 90
       50
102
RTVSPost2010PropOp47
 70
     1
102
RTVSPost2010Prop48
 90
       50
102
RTVSPost2010PropOp48
 70
     1
102
RTVSPost2010Prop49
280
     0
102
RTVSPost2010PropOp49
 70
     1
102
RTVSPost2010Prop50
 90
       50
102
RTVSPost2010PropOp50
 70
     1
102
RTVSPost2010Prop51ColorIndex
 90
      256
102
RTVSPost2010Prop51ColorRGB
 90
-16777216
102
RTVSPost2010PropOp51
 70
     0
102
RTVSPost2010Prop52
140
1.0
102
RTVSPost2010PropOp52
 70
     0
102
RTVSPost2010Prop53
 90
        2
102
RTVSPost2010PropOp53
 70
     1
102
RTVSPost2010Prop54
  1
strokes_ogs.tif
102
RTVSPost2010PropOp54
 70
     1
102
RTVSPost2010Prop55
280
     0
102
RTVSPost2010PropOp55
 70
     1
102
RTVSPost2010Prop56
140
1.0
102
RTVSPost2010PropOp56
 70
     1
102
RTVSPost2010Prop57
140
1.0
102
RTVSPost2010PropOp57
 70
     1
  0
XRECORD
  5
3C0
102
{ACAD_REACTORS
330
3BF
102
}
330
3BF
100
AcDbXrecord
280
     1
102
RTVSPropertyOp0
 70
     1
102
RTVSPropertyOp1
 70
     1
102
RTVSPropertyOp2
 70
     1
102
RTVSPropertyOp3
 70
     1
102
RTVSPropertyOp4
 70
     1
102
RTVSPropertyOp5
 70
     1
102
RTVSPropertyOp6
 70
     1
102
RTVSPropertyOp7
 70
     1
102
RTVSPropertyOp8
 70
     1
102
RTVSPropertyOp9
 70
     1
102
RTVSPropertyOp10
 70
     1
102
RTVSPropertyOp11
 70
     1
102
RTVSPropertyOp12
 70
     1
102
RTVSPropertyOp13
 70
     1
102
RTVSPropertyOp14
 70
     1
102
RTVSPropertyOp15
 70
     1
102
RTVSPropertyOp16
 70
     1
102
RTVSPropertyOp17
 70
     1
102
RTVSPropertyOp18
 70
     1
102
RTVSPropertyOp19
 70
     1
102
RTVSPropertyOp20
 70
     1
102
RTVSPropertyOp21
 70
     1
102
RTVSPropertyOp22
 70
     1
102
RTVSPropertyOp23
 70
     1
102
RTVSPropertyOp24
 70
     1
102
RTVSPropertyOp25
 70
     1
102
RTVSPropertyOp26
 70
     1
102
RTVSPropertyOp27
 70
     1
102
RTVSPropertyOp28
 70
     1
102
RTVSPropertyOp29
 70
     1
102
RTVSPropertyOp30
 70
     1
102
RTVSPropertyOp31
 70
     1
102
RTVSPropertyOp32
 70
     1
102
RTVSPropertyOp33
 70
     1
102
RTVSPropertyOp34
 70
     1
102
RTVSPropertyOp35
 70
     1
102
RTVSPropertyOp36
 70
     1
102
RTVSPropertyOp37
 70
     1
102
RTVSPropertyOp38
 70
     1
102
RTVSPropertyOp39
 70
     1
102
RTVSPropertyOp40
 70
     1
102
RTVSPropertyOp41
 70
     1
102
RTVSPropertyOp42
 70
     1
102
RTVSPropertyOp43
 70
     1
102
RTVSPropertyOp44
 70
     1
102
RTVSPropertyOp45
 70
     1
102
RTVSPropertyOp46
 70
     1
102
RTVSPropertyOp47
 70
     1
102
RTVSPropertyOp48
 70
     1
102
RTVSPropertyOp49
 70
     1
102
RTVSPropertyOp50
 70
     1
102
RTVSPropertyOp51
 70
     0
102
RTVSPropertyOp52
 70
     0
102
RTVSPropertyOp53
 70
     1
102
RTVSPropertyOp54
 70
     1
102
RTVSPropertyOp55
 70
     1
102
RTVSPropertyOp56
 70
     1
102
RTVSPropertyOp57
 70
     1
102
RTVSPost2010Prop28
280
     0
102
RTVSPost2010PropOp28
 70
     1
102
RTVSPost2010Prop29
280
     1
102
RTVSPost2010PropOp29
 70
     1
102
RTVSPost2010Prop30
280
     1
102
RTVSPost2010PropOp30
 70
     1
102
RTVSPost2010Prop31
280
     0
102
RTVSPost2010PropOp31
 70
     1
102
RTVSPost2010Prop32
280
     0
102
RTVSPost2010PropOp32
 70
     1
102
RTVSPost2010Prop33
280
     0
102
RTVSPost2010PropOp33
 70
     1
102
RTVSPost2010Prop34
280
     0
102
RTVSPost2010PropOp34
 70
     1
102
RTVSPost2010Prop35
280
     0
102
RTVSPost2010PropOp35
 70
     1
102
RTVSPost2010Prop36
280
     0
102
RTVSPost2010PropOp36
 70
     1
102
RTVSPost2010Prop37
 90
       50
102
RTVSPost2010PropOp37
 70
     1
102
RTVSPost2010Prop38
140
0.0
102
RTVSPost2010PropOp38
 70
     1
102
RTVSPost2010Prop39
140
1.0
102
RTVSPost2010PropOp39
 70
     1
102
RTVSPost2010Prop40
 90
        0
102
RTVSPost2010PropOp40
 70
     1
102
RTVSPost2010Prop41ColorIndex
 90
      178
102
RTVSPost2010Prop41ColorRGB
 90
        0
102
RTVSPost2010PropOp41
 70
     1
102
RTVSPost2010Prop42
 90
       50
102
RTVSPost2010PropOp42
 70
     1
102
RTVSPost2010Prop43
 90
        3
102
RTVSPost2010PropOp43
 70
     1
102
RTVSPost2010Prop44ColorIndex
 90
        5
102
RTVSPost2010Prop44ColorRGB
 90
      255
102
RTVSPost2010PropOp44
 70
     1
102
RTVSPost2010Prop45
280
     0
102
RTVSPost2010PropOp45
 70
     1
102
RTVSPost2010Prop46
 90
       50
102
RTVSPost2010PropOp46
 70
     1
102
RTVSPost2010Prop47
 90
       50
102
RTVSPost2010PropOp47
 70
     1
102
RTVSPost2010Prop48
 90
       50
102
RTVSPost2010PropOp48
 70
     1
102
RTVSPost2010Prop49
280
     0
102
RTVSPost2010PropOp49
 70
     1
102
RTVSPost2010Prop50
 90
       50
102
RTVSPost2010PropOp50
 70
     1
102
RTVSPost2010Prop51ColorIndex
 90
      256
102
RTVSPost2010Prop51ColorRGB
 90
-16777216
102
RTVSPost2010PropOp51
 70
     0
102
RTVSPost2010Prop52
140
1.0
102
RTVSPost2010PropOp52
 70
     0
102
RTVSPost2010Prop53
 90
        2
102
RTVSPost2010PropOp53
 70
     1
102
RTVSPost2010Prop54
  1
strokes_ogs.tif
102
RTVSPost2010PropOp54
 70
     1
102
RTVSPost2010Prop55
280
     0
102
RTVSPost2010PropOp55
 70
     1
102
RTVSPost2010Prop56
140
1.0
102
RTVSPost2010PropOp56
 70
     1
102
RTVSPost2010Prop57
140
1.0
102
RTVSPost2010PropOp57
 70
     1
  0
XRECORD
  5
3C8
102
{ACAD_REACTORS
330
3C7
102
}
330
3C7
100
AcDbXrecord
280
     1
102
RTVSPropertyOp0
 70
     1
102
RTVSPropertyOp1
 70
     1
102
RTVSPropertyOp2
 70
     1
102
RTVSPropertyOp3
 70
     1
102
RTVSPropertyOp4
 70
     1
102
RTVSPropertyOp5
 70
     1
102
RTVSPropertyOp6
 70
     1
102
RTVSPropertyOp7
 70
     1
102
RTVSPropertyOp8
 70
     1
102
RTVSPropertyOp9
 70
     1
102
RTVSPropertyOp10
 70
     1
102
RTVSPropertyOp11
 70
     1
102
RTVSPropertyOp12
 70
     1
102
RTVSPropertyOp13
 70
     1
102
RTVSPropertyOp14
 70
     1
102
RTVSPropertyOp15
 70
     1
102
RTVSPropertyOp16
 70
     1
102
RTVSPropertyOp17
 70
     1
102
RTVSPropertyOp18
 70
     1
102
RTVSPropertyOp19
 70
     1
102
RTVSPropertyOp20
 70
     1
102
RTVSPropertyOp21
 70
     1
102
RTVSPropertyOp22
 70
     1
102
RTVSPropertyOp23
 70
     1
102
RTVSPropertyOp24
 70
     1
102
RTVSPropertyOp25
 70
     1
102
RTVSPropertyOp26
 70
     1
102
RTVSPropertyOp27
 70
     1
102
RTVSPropertyOp28
 70
     1
102
RTVSPropertyOp29
 70
     1
102
RTVSPropertyOp30
 70
     1
102
RTVSPropertyOp31
 70
     1
102
RTVSPropertyOp32
 70
     1
102
RTVSPropertyOp33
 70
     1
102
RTVSPropertyOp34
 70
     1
102
RTVSPropertyOp35
 70
     1
102
RTVSPropertyOp36
 70
     1
102
RTVSPropertyOp37
 70
     1
102
RTVSPropertyOp38
 70
     1
102
RTVSPropertyOp39
 70
     1
102
RTVSPropertyOp40
 70
     1
102
RTVSPropertyOp41
 70
     1
102
RTVSPropertyOp42
 70
     1
102
RTVSPropertyOp43
 70
     1
102
RTVSPropertyOp44
 70
     1
102
RTVSPropertyOp45
 70
     1
102
RTVSPropertyOp46
 70
     1
102
RTVSPropertyOp47
 70
     1
102
RTVSPropertyOp48
 70
     1
102
RTVSPropertyOp49
 70
     1
102
RTVSPropertyOp50
 70
     1
102
RTVSPropertyOp51
 70
     0
102
RTVSPropertyOp52
 70
     0
102
RTVSPropertyOp53
 70
     1
102
RTVSPropertyOp54
 70
     1
102
RTVSPropertyOp55
 70
     1
102
RTVSPropertyOp56
 70
     1
102
RTVSPropertyOp57
 70
     1
102
RTVSPost2010Prop28
280
     0
102
RTVSPost2010PropOp28
 70
     1
102
RTVSPost2010Prop29
280
     1
102
RTVSPost2010PropOp29
 70
     1
102
RTVSPost2010Prop30
280
     1
102
RTVSPost2010PropOp30
 70
     1
102
RTVSPost2010Prop31
280
     0
102
RTVSPost2010PropOp31
 70
     1
102
RTVSPost2010Prop32
280
     0
102
RTVSPost2010PropOp32
 70
     1
102
RTVSPost2010Prop33
280
     0
102
RTVSPost2010PropOp33
 70
     1
102
RTVSPost2010Prop34
280
     0
102
RTVSPost2010PropOp34
 70
     1
102
RTVSPost2010Prop35
280
     0
102
RTVSPost2010PropOp35
 70
     1
102
RTVSPost2010Prop36
280
     0
102
RTVSPost2010PropOp36
 70
     1
102
RTVSPost2010Prop37
 90
       50
102
RTVSPost2010PropOp37
 70
     1
102
RTVSPost2010Prop38
140
0.0
102
RTVSPost2010PropOp38
 70
     1
102
RTVSPost2010Prop39
140
1.0
102
RTVSPost2010PropOp39
 70
     1
102
RTVSPost2010Prop40
 90
        0
102
RTVSPost2010PropOp40
 70
     1
102
RTVSPost2010Prop41ColorIndex
 90
      178
102
RTVSPost2010Prop41ColorRGB
 90
        0
102
RTVSPost2010PropOp41
 70
     1
102
RTVSPost2010Prop42
 90
       50
102
RTVSPost2010PropOp42
 70
     1
102
RTVSPost2010Prop43
 90
        3
102
RTVSPost2010PropOp43
 70
     1
102
RTVSPost2010Prop44ColorIndex
 90
        5
102
RTVSPost2010Prop44ColorRGB
 90
      255
102
RTVSPost2010PropOp44
 70
     1
102
RTVSPost2010Prop45
280
     0
102
RTVSPost2010PropOp45
 70
     1
102
RTVSPost2010Prop46
 90
       50
102
RTVSPost2010PropOp46
 70
     1
102
RTVSPost2010Prop47
 90
       50
102
RTVSPost2010PropOp47
 70
     1
102
RTVSPost2010Prop48
 90
       50
102
RTVSPost2010PropOp48
 70
     1
102
RTVSPost2010Prop49
280
     0
102
RTVSPost2010PropOp49
 70
     1
102
RTVSPost2010Prop50
 90
       50
102
RTVSPost2010PropOp50
 70
     1
102
RTVSPost2010Prop51ColorIndex
 90
      256
102
RTVSPost2010Prop51ColorRGB
 90
-16777216
102
RTVSPost2010PropOp51
 70
     0
102
RTVSPost2010Prop52
140
1.0
102
RTVSPost2010PropOp52
 70
     0
102
RTVSPost2010Prop53
 90
        2
102
RTVSPost2010PropOp53
 70
     1
102
RTVSPost2010Prop54
  1
strokes_ogs.tif
102
RTVSPost2010PropOp54
 70
     1
102
RTVSPost2010Prop55
280
     0
102
RTVSPost2010PropOp55
 70
     1
102
RTVSPost2010Prop56
140
1.0
102
RTVSPost2010PropOp56
 70
     1
102
RTVSPost2010Prop57
140
1.0
102
RTVSPost2010PropOp57
 70
     1
  0
XRECORD
  5
3D0
102
{ACAD_REACTORS
330
3CF
102
}
330
3CF
100
AcDbXrecord
280
     1
102
RTVSPropertyOp0
 70
     1
102
RTVSPropertyOp1
 70
     1
102
RTVSPropertyOp2
 70
     1
102
RTVSPropertyOp3
 70
     1
102
RTVSPropertyOp4
 70
     1
102
RTVSPropertyOp5
 70
     1
102
RTVSPropertyOp6
 70
     1
102
RTVSPropertyOp7
 70
     1
102
RTVSPropertyOp8
 70
     1
102
RTVSPropertyOp9
 70
     1
102
RTVSPropertyOp10
 70
     1
102
RTVSPropertyOp11
 70
     1
102
RTVSPropertyOp12
 70
     1
102
RTVSPropertyOp13
 70
     1
102
RTVSPropertyOp14
 70
     1
102
RTVSPropertyOp15
 70
     1
102
RTVSPropertyOp16
 70
     1
102
RTVSPropertyOp17
 70
     1
102
RTVSPropertyOp18
 70
     1
102
RTVSPropertyOp19
 70
     1
102
RTVSPropertyOp20
 70
     1
102
RTVSPropertyOp21
 70
     1
102
RTVSPropertyOp22
 70
     1
102
RTVSPropertyOp23
 70
     1
102
RTVSPropertyOp24
 70
     1
102
RTVSPropertyOp25
 70
     1
102
RTVSPropertyOp26
 70
     1
102
RTVSPropertyOp27
 70
     1
102
RTVSPropertyOp28
 70
     1
102
RTVSPropertyOp29
 70
     1
102
RTVSPropertyOp30
 70
     1
102
RTVSPropertyOp31
 70
     1
102
RTVSPropertyOp32
 70
     1
102
RTVSPropertyOp33
 70
     1
102
RTVSPropertyOp34
 70
     1
102
RTVSPropertyOp35
 70
     1
102
RTVSPropertyOp36
 70
     1
102
RTVSPropertyOp37
 70
     1
102
RTVSPropertyOp38
 70
     1
102
RTVSPropertyOp39
 70
     1
102
RTVSPropertyOp40
 70
     1
102
RTVSPropertyOp41
 70
     1
102
RTVSPropertyOp42
 70
     1
102
RTVSPropertyOp43
 70
     1
102
RTVSPropertyOp44
 70
     1
102
RTVSPropertyOp45
 70
     1
102
RTVSPropertyOp46
 70
     1
102
RTVSPropertyOp47
 70
     1
102
RTVSPropertyOp48
 70
     1
102
RTVSPropertyOp49
 70
     1
102
RTVSPropertyOp50
 70
     1
102
RTVSPropertyOp51
 70
     0
102
RTVSPropertyOp52
 70
     0
102
RTVSPropertyOp53
 70
     1
102
RTVSPropertyOp54
 70
     1
102
RTVSPropertyOp55
 70
     1
102
RTVSPropertyOp56
 70
     1
102
RTVSPropertyOp57
 70
     1
102
RTVSPost2010Prop28
280
     0
102
RTVSPost2010PropOp28
 70
     1
102
RTVSPost2010Prop29
280
     1
102
RTVSPost2010PropOp29
 70
     1
102
RTVSPost2010Prop30
280
     1
102
RTVSPost2010PropOp30
 70
     1
102
RTVSPost2010Prop31
280
     0
102
RTVSPost2010PropOp31
 70
     1
102
RTVSPost2010Prop32
280
     0
102
RTVSPost2010PropOp32
 70
     1
102
RTVSPost2010Prop33
280
     0
102
RTVSPost2010PropOp33
 70
     1
102
RTVSPost2010Prop34
280
     0
102
RTVSPost2010PropOp34
 70
     1
102
RTVSPost2010Prop35
280
     0
102
RTVSPost2010PropOp35
 70
     1
102
RTVSPost2010Prop36
280
     0
102
RTVSPost2010PropOp36
 70
     1
102
RTVSPost2010Prop37
 90
       50
102
RTVSPost2010PropOp37
 70
     1
102
RTVSPost2010Prop38
140
0.0
102
RTVSPost2010PropOp38
 70
     1
102
RTVSPost2010Prop39
140
1.0
102
RTVSPost2010PropOp39
 70
     1
102
RTVSPost2010Prop40
 90
        0
102
RTVSPost2010PropOp40
 70
     1
102
RTVSPost2010Prop41ColorIndex
 90
      178
102
RTVSPost2010Prop41ColorRGB
 90
        0
102
RTVSPost2010PropOp41
 70
     1
102
RTVSPost2010Prop42
 90
       50
102
RTVSPost2010PropOp42
 70
     1
102
RTVSPost2010Prop43
 90
        3
102
RTVSPost2010PropOp43
 70
     1
102
RTVSPost2010Prop44ColorIndex
 90
        5
102
RTVSPost2010Prop44ColorRGB
 90
      255
102
RTVSPost2010PropOp44
 70
     1
102
RTVSPost2010Prop45
280
     0
102
RTVSPost2010PropOp45
 70
     1
102
RTVSPost2010Prop46
 90
       50
102
RTVSPost2010PropOp46
 70
     1
102
RTVSPost2010Prop47
 90
       50
102
RTVSPost2010PropOp47
 70
     1
102
RTVSPost2010Prop48
 90
       50
102
RTVSPost2010PropOp48
 70
     1
102
RTVSPost2010Prop49
280
     0
102
RTVSPost2010PropOp49
 70
     1
102
RTVSPost2010Prop50
 90
       50
102
RTVSPost2010PropOp50
 70
     1
102
RTVSPost2010Prop51ColorIndex
 90
      256
102
RTVSPost2010Prop51ColorRGB
 90
-16777216
102
RTVSPost2010PropOp51
 70
     0
102
RTVSPost2010Prop52
140
1.0
102
RTVSPost2010PropOp52
 70
     0
102
RTVSPost2010Prop53
 90
        2
102
RTVSPost2010PropOp53
 70
     1
102
RTVSPost2010Prop54
  1
strokes_ogs.tif
102
RTVSPost2010PropOp54
 70
     1
102
RTVSPost2010Prop55
280
     0
102
RTVSPost2010PropOp55
 70
     1
102
RTVSPost2010Prop56
140
1.0
102
RTVSPost2010PropOp56
 70
     1
102
RTVSPost2010Prop57
140
1.0
102
RTVSPost2010PropOp57
 70
     1
  0
XRECORD
  5
3C4
102
{ACAD_REACTORS
330
3C3
102
}
330
3C3
100
AcDbXrecord
280
     1
102
RTVSPropertyOp0
 70
     1
102
RTVSPropertyOp1
 70
     1
102
RTVSPropertyOp2
 70
     1
102
RTVSPropertyOp3
 70
     1
102
RTVSPropertyOp4
 70
     1
102
RTVSPropertyOp5
 70
     1
102
RTVSPropertyOp6
 70
     1
102
RTVSPropertyOp7
 70
     1
102
RTVSPropertyOp8
 70
     1
102
RTVSPropertyOp9
 70
     1
102
RTVSPropertyOp10
 70
     1
102
RTVSPropertyOp11
 70
     1
102
RTVSPropertyOp12
 70
     1
102
RTVSPropertyOp13
 70
     1
102
RTVSPropertyOp14
 70
     1
102
RTVSPropertyOp15
 70
     1
102
RTVSPropertyOp16
 70
     1
102
RTVSPropertyOp17
 70
     1
102
RTVSPropertyOp18
 70
     1
102
RTVSPropertyOp19
 70
     1
102
RTVSPropertyOp20
 70
     1
102
RTVSPropertyOp21
 70
     1
102
RTVSPropertyOp22
 70
     1
102
RTVSPropertyOp23
 70
     1
102
RTVSPropertyOp24
 70
     1
102
RTVSPropertyOp25
 70
     1
102
RTVSPropertyOp26
 70
     1
102
RTVSPropertyOp27
 70
     1
102
RTVSPropertyOp28
 70
     1
102
RTVSPropertyOp29
 70
     1
102
RTVSPropertyOp30
 70
     1
102
RTVSPropertyOp31
 70
     1
102
RTVSPropertyOp32
 70
     1
102
RTVSPropertyOp33
 70
     1
102
RTVSPropertyOp34
 70
     1
102
RTVSPropertyOp35
 70
     1
102
RTVSPropertyOp36
 70
     1
102
RTVSPropertyOp37
 70
     1
102
RTVSPropertyOp38
 70
     1
102
RTVSPropertyOp39
 70
     1
102
RTVSPropertyOp40
 70
     1
102
RTVSPropertyOp41
 70
     1
102
RTVSPropertyOp42
 70
     1
102
RTVSPropertyOp43
 70
     1
102
RTVSPropertyOp44
 70
     1
102
RTVSPropertyOp45
 70
     1
102
RTVSPropertyOp46
 70
     1
102
RTVSPropertyOp47
 70
     1
102
RTVSPropertyOp48
 70
     1
102
RTVSPropertyOp49
 70
     1
102
RTVSPropertyOp50
 70
     1
102
RTVSPropertyOp51
 70
     0
102
RTVSPropertyOp52
 70
     0
102
RTVSPropertyOp53
 70
     1
102
RTVSPropertyOp54
 70
     1
102
RTVSPropertyOp55
 70
     1
102
RTVSPropertyOp56
 70
     1
102
RTVSPropertyOp57
 70
     1
102
RTVSPost2010Prop28
280
     0
102
RTVSPost2010PropOp28
 70
     1
102
RTVSPost2010Prop29
280
     1
102
RTVSPost2010PropOp29
 70
     1
102
RTVSPost2010Prop30
280
     1
102
RTVSPost2010PropOp30
 70
     1
102
RTVSPost2010Prop31
280
     0
102
RTVSPost2010PropOp31
 70
     1
102
RTVSPost2010Prop32
280
     0
102
RTVSPost2010PropOp32
 70
     1
102
RTVSPost2010Prop33
280
     0
102
RTVSPost2010PropOp33
 70
     1
102
RTVSPost2010Prop34
280
     0
102
RTVSPost2010PropOp34
 70
     1
102
RTVSPost2010Prop35
280
     0
102
RTVSPost2010PropOp35
 70
     1
102
RTVSPost2010Prop36
280
     0
102
RTVSPost2010PropOp36
 70
     1
102
RTVSPost2010Prop37
 90
       50
102
RTVSPost2010PropOp37
 70
     1
102
RTVSPost2010Prop38
140
0.0
102
RTVSPost2010PropOp38
 70
     1
102
RTVSPost2010Prop39
140
1.0
102
RTVSPost2010PropOp39
 70
     1
102
RTVSPost2010Prop40
 90
        0
102
RTVSPost2010PropOp40
 70
     1
102
RTVSPost2010Prop41ColorIndex
 90
      178
102
RTVSPost2010Prop41ColorRGB
 90
        0
102
RTVSPost2010PropOp41
 70
     1
102
RTVSPost2010Prop42
 90
       50
102
RTVSPost2010PropOp42
 70
     1
102
RTVSPost2010Prop43
 90
        3
102
RTVSPost2010PropOp43
 70
     1
102
RTVSPost2010Prop44ColorIndex
 90
        5
102
RTVSPost2010Prop44ColorRGB
 90
      255
102
RTVSPost2010PropOp44
 70
     1
102
RTVSPost2010Prop45
280
     0
102
RTVSPost2010PropOp45
 70
     1
102
RTVSPost2010Prop46
 90
       50
102
RTVSPost2010PropOp46
 70
     1
102
RTVSPost2010Prop47
 90
       50
102
RTVSPost2010PropOp47
 70
     1
102
RTVSPost2010Prop48
 90
       50
102
RTVSPost2010PropOp48
 70
     1
102
RTVSPost2010Prop49
280
     0
102
RTVSPost2010PropOp49
 70
     1
102
RTVSPost2010Prop50
 90
       50
102
RTVSPost2010PropOp50
 70
     1
102
RTVSPost2010Prop51ColorIndex
 90
      256
102
RTVSPost2010Prop51ColorRGB
 90
-16777216
102
RTVSPost2010PropOp51
 70
     0
102
RTVSPost2010Prop52
140
1.0
102
RTVSPost2010PropOp52
 70
     0
102
RTVSPost2010Prop53
 90
        2
102
RTVSPost2010PropOp53
 70
     1
102
RTVSPost2010Prop54
  1
strokes_ogs.tif
102
RTVSPost2010PropOp54
 70
     1
102
RTVSPost2010Prop55
280
     0
102
RTVSPost2010PropOp55
 70
     1
102
RTVSPost2010Prop56
140
1.0
102
RTVSPost2010PropOp56
 70
     1
102
RTVSPost2010Prop57
140
1.0
102
RTVSPost2010PropOp57
 70
     1
  0
XRECORD
  5
3C6
102
{ACAD_REACTORS
330
3C5
102
}
330
3C5
100
AcDbXrecord
280
     1
102
RTVSPropertyOp0
 70
     1
102
RTVSPropertyOp1
 70
     1
102
RTVSPropertyOp2
 70
     1
102
RTVSPropertyOp3
 70
     1
102
RTVSPropertyOp4
 70
     1
102
RTVSPropertyOp5
 70
     1
102
RTVSPropertyOp6
 70
     1
102
RTVSPropertyOp7
 70
     1
102
RTVSPropertyOp8
 70
     1
102
RTVSPropertyOp9
 70
     1
102
RTVSPropertyOp10
 70
     1
102
RTVSPropertyOp11
 70
     1
102
RTVSPropertyOp12
 70
     1
102
RTVSPropertyOp13
 70
     1
102
RTVSPropertyOp14
 70
     1
102
RTVSPropertyOp15
 70
     1
102
RTVSPropertyOp16
 70
     1
102
RTVSPropertyOp17
 70
     1
102
RTVSPropertyOp18
 70
     1
102
RTVSPropertyOp19
 70
     1
102
RTVSPropertyOp20
 70
     1
102
RTVSPropertyOp21
 70
     1
102
RTVSPropertyOp22
 70
     1
102
RTVSPropertyOp23
 70
     1
102
RTVSPropertyOp24
 70
     1
102
RTVSPropertyOp25
 70
     1
102
RTVSPropertyOp26
 70
     1
102
RTVSPropertyOp27
 70
     1
102
RTVSPropertyOp28
 70
     1
102
RTVSPropertyOp29
 70
     1
102
RTVSPropertyOp30
 70
     1
102
RTVSPropertyOp31
 70
     1
102
RTVSPropertyOp32
 70
     1
102
RTVSPropertyOp33
 70
     1
102
RTVSPropertyOp34
 70
     1
102
RTVSPropertyOp35
 70
     1
102
RTVSPropertyOp36
 70
     1
102
RTVSPropertyOp37
 70
     1
102
RTVSPropertyOp38
 70
     1
102
RTVSPropertyOp39
 70
     1
102
RTVSPropertyOp40
 70
     1
102
RTVSPropertyOp41
 70
     1
102
RTVSPropertyOp42
 70
     1
102
RTVSPropertyOp43
 70
     1
102
RTVSPropertyOp44
 70
     1
102
RTVSPropertyOp45
 70
     1
102
RTVSPropertyOp46
 70
     1
102
RTVSPropertyOp47
 70
     1
102
RTVSPropertyOp48
 70
     1
102
RTVSPropertyOp49
 70
     1
102
RTVSPropertyOp50
 70
     1
102
RTVSPropertyOp51
 70
     0
102
RTVSPropertyOp52
 70
     0
102
RTVSPropertyOp53
 70
     1
102
RTVSPropertyOp54
 70
     1
102
RTVSPropertyOp55
 70
     1
102
RTVSPropertyOp56
 70
     1
102
RTVSPropertyOp57
 70
     1
102
RTVSPost2010Prop28
280
     0
102
RTVSPost2010PropOp28
 70
     1
102
RTVSPost2010Prop29
280
     1
102
RTVSPost2010PropOp29
 70
     1
102
RTVSPost2010Prop30
280
     1
102
RTVSPost2010PropOp30
 70
     1
102
RTVSPost2010Prop31
280
     0
102
RTVSPost2010PropOp31
 70
     1
102
RTVSPost2010Prop32
280
     0
102
RTVSPost2010PropOp32
 70
     1
102
RTVSPost2010Prop33
280
     0
102
RTVSPost2010PropOp33
 70
     1
102
RTVSPost2010Prop34
280
     0
102
RTVSPost2010PropOp34
 70
     1
102
RTVSPost2010Prop35
280
     0
102
RTVSPost2010PropOp35
 70
     1
102
RTVSPost2010Prop36
280
     0
102
RTVSPost2010PropOp36
 70
     1
102
RTVSPost2010Prop37
 90
       50
102
RTVSPost2010PropOp37
 70
     1
102
RTVSPost2010Prop38
140
0.0
102
RTVSPost2010PropOp38
 70
     1
102
RTVSPost2010Prop39
140
1.0
102
RTVSPost2010PropOp39
 70
     1
102
RTVSPost2010Prop40
 90
        0
102
RTVSPost2010PropOp40
 70
     1
102
RTVSPost2010Prop41ColorIndex
 90
      178
102
RTVSPost2010Prop41ColorRGB
 90
        0
102
RTVSPost2010PropOp41
 70
     1
102
RTVSPost2010Prop42
 90
       50
102
RTVSPost2010PropOp42
 70
     1
102
RTVSPost2010Prop43
 90
        3
102
RTVSPost2010PropOp43
 70
     1
102
RTVSPost2010Prop44ColorIndex
 90
        5
102
RTVSPost2010Prop44ColorRGB
 90
      255
102
RTVSPost2010PropOp44
 70
     1
102
RTVSPost2010Prop45
280
     0
102
RTVSPost2010PropOp45
 70
     1
102
RTVSPost2010Prop46
 90
       50
102
RTVSPost2010PropOp46
 70
     1
102
RTVSPost2010Prop47
 90
       50
102
RTVSPost2010PropOp47
 70
     1
102
RTVSPost2010Prop48
 90
       50
102
RTVSPost2010PropOp48
 70
     1
102
RTVSPost2010Prop49
280
     0
102
RTVSPost2010PropOp49
 70
     1
102
RTVSPost2010Prop50
 90
       50
102
RTVSPost2010PropOp50
 70
     1
102
RTVSPost2010Prop51ColorIndex
 90
      256
102
RTVSPost2010Prop51ColorRGB
 90
-16777216
102
RTVSPost2010PropOp51
 70
     0
102
RTVSPost2010Prop52
140
1.0
102
RTVSPost2010PropOp52
 70
     0
102
RTVSPost2010Prop53
 90
        2
102
RTVSPost2010PropOp53
 70
     1
102
RTVSPost2010Prop54
  1
strokes_ogs.tif
102
RTVSPost2010PropOp54
 70
     1
102
RTVSPost2010Prop55
280
     0
102
RTVSPost2010PropOp55
 70
     1
102
RTVSPost2010Prop56
140
1.0
102
RTVSPost2010PropOp56
 70
     1
102
RTVSPost2010Prop57
140
1.0
102
RTVSPost2010PropOp57
 70
     1
  0
XRECORD
  5
3D6
102
{ACAD_REACTORS
330
3D5
102
}
330
3D5
100
AcDbXrecord
280
     1
102
RTVSPropertyOp0
 70
     0
102
RTVSPropertyOp1
 70
     0
102
RTVSPropertyOp2
 70
     0
102
RTVSPropertyOp3
 70
     0
102
RTVSPropertyOp4
 70
     0
102
RTVSPropertyOp5
 70
     0
102
RTVSPropertyOp6
 70
     0
102
RTVSPropertyOp7
 70
     0
102
RTVSPropertyOp8
 70
     0
102
RTVSPropertyOp9
 70
     0
102
RTVSPropertyOp10
 70
     0
102
RTVSPropertyOp11
 70
     0
102
RTVSPropertyOp12
 70
     0
102
RTVSPropertyOp13
 70
     0
102
RTVSPropertyOp14
 70
     2
102
RTVSPropertyOp15
 70
     0
102
RTVSPropertyOp16
 70
     0
102
RTVSPropertyOp17
 70
     0
102
RTVSPropertyOp18
 70
     0
102
RTVSPropertyOp19
 70
     0
102
RTVSPropertyOp20
 70
     0
102
RTVSPropertyOp21
 70
     0
102
RTVSPropertyOp22
 70
     0
102
RTVSPropertyOp23
 70
     0
102
RTVSPropertyOp24
 70
     0
102
RTVSPropertyOp25
 70
     0
102
RTVSPropertyOp26
 70
     0
102
RTVSPropertyOp27
 70
     0
102
RTVSPropertyOp28
 70
     0
102
RTVSPropertyOp29
 70
     0
102
RTVSPropertyOp30
 70
     0
102
RTVSPropertyOp31
 70
     0
102
RTVSPropertyOp32
 70
     0
102
RTVSPropertyOp33
 70
     0
102
RTVSPropertyOp34
 70
     0
102
RTVSPropertyOp35
 70
     0
102
RTVSPropertyOp36
 70
     0
102
RTVSPropertyOp37
 70
     0
102
RTVSPropertyOp38
 70
     0
102
RTVSPropertyOp39
 70
     0
102
RTVSPropertyOp40
 70
     0
102
RTVSPropertyOp41
 70
     0
102
RTVSPropertyOp42
 70
     0
102
RTVSPropertyOp43
 70
     0
102
RTVSPropertyOp44
 70
     0
102
RTVSPropertyOp45
 70
     0
102
RTVSPropertyOp46
 70
     0
102
RTVSPropertyOp47
 70
     0
102
RTVSPropertyOp48
 70
     0
102
RTVSPropertyOp49
 70
     0
102
RTVSPropertyOp50
 70
     0
102
RTVSPropertyOp51
 70
     0
102
RTVSPropertyOp52
 70
     0
102
RTVSPropertyOp53
 70
     0
102
RTVSPropertyOp54
 70
     0
102
RTVSPropertyOp55
 70
     0
102
RTVSPropertyOp56
 70
     0
102
RTVSPropertyOp57
 70
     0
102
RTVSPost2010Prop28
280
     0
102
RTVSPost2010PropOp28
 70
     0
102
RTVSPost2010Prop29
280
     1
102
RTVSPost2010PropOp29
 70
     0
102
RTVSPost2010Prop30
280
     1
102
RTVSPost2010PropOp30
 70
     0
102
RTVSPost2010Prop31
280
     0
102
RTVSPost2010PropOp31
 70
     0
102
RTVSPost2010Prop32
280
     0
102
RTVSPost2010PropOp32
 70
     0
102
RTVSPost2010Prop33
280
     0
102
RTVSPost2010PropOp33
 70
     0
102
RTVSPost2010Prop34
280
     0
102
RTVSPost2010PropOp34
 70
     0
102
RTVSPost2010Prop35
280
     0
102
RTVSPost2010PropOp35
 70
     0
102
RTVSPost2010Prop36
280
     0
102
RTVSPost2010PropOp36
 70
     0
102
RTVSPost2010Prop37
 90
       50
102
RTVSPost2010PropOp37
 70
     0
102
RTVSPost2010Prop38
140
0.0
102
RTVSPost2010PropOp38
 70
     0
102
RTVSPost2010Prop39
140
1.0
102
RTVSPost2010PropOp39
 70
     0
102
RTVSPost2010Prop40
 90
        0
102
RTVSPost2010PropOp40
 70
     0
102
RTVSPost2010Prop41ColorIndex
 90
      178
102
RTVSPost2010Prop41ColorRGB
 90
        0
102
RTVSPost2010PropOp41
 70
     0
102
RTVSPost2010Prop42
 90
       50
102
RTVSPost2010PropOp42
 70
     0
102
RTVSPost2010Prop43
 90
        3
102
RTVSPost2010PropOp43
 70
     0
102
RTVSPost2010Prop44ColorIndex
 90
        5
102
RTVSPost2010Prop44ColorRGB
 90
      255
102
RTVSPost2010PropOp44
 70
     0
102
RTVSPost2010Prop45
280
     0
102
RTVSPost2010PropOp45
 70
     0
102
RTVSPost2010Prop46
 90
       50
102
RTVSPost2010PropOp46
 70
     0
102
RTVSPost2010Prop47
 90
       50
102
RTVSPost2010PropOp47
 70
     0
102
RTVSPost2010Prop48
 90
       50
102
RTVSPost2010PropOp48
 70
     0
102
RTVSPost2010Prop49
280
     0
102
RTVSPost2010PropOp49
 70
     0
102
RTVSPost2010Prop50
 90
       50
102
RTVSPost2010PropOp50
 70
     0
102
RTVSPost2010Prop51ColorIndex
 90
      256
102
RTVSPost2010Prop51ColorRGB
 90
-16777216
102
RTVSPost2010PropOp51
 70
     0
102
RTVSPost2010Prop52
140
1.0
102
RTVSPost2010PropOp52
 70
     0
102
RTVSPost2010Prop53
 90
        2
102
RTVSPost2010PropOp53
 70
     0
102
RTVSPost2010Prop54
  1
strokes_ogs.tif
102
RTVSPost2010PropOp54
 70
     0
102
RTVSPost2010Prop55
280
     0
102
RTVSPost2010PropOp55
 70
     0
102
RTVSPost2010Prop56
140
1.0
102
RTVSPost2010PropOp56
 70
     0
102
RTVSPost2010Prop57
140
1.0
102
RTVSPost2010PropOp57
 70
     0
  0
XRECORD
  5
3CE
102
{ACAD_REACTORS
330
3CD
102
}
330
3CD
100
AcDbXrecord
280
     1
102
RTVSPropertyOp0
 70
     1
102
RTVSPropertyOp1
 70
     1
102
RTVSPropertyOp2
 70
     1
102
RTVSPropertyOp3
 70
     1
102
RTVSPropertyOp4
 70
     1
102
RTVSPropertyOp5
 70
     1
102
RTVSPropertyOp6
 70
     1
102
RTVSPropertyOp7
 70
     1
102
RTVSPropertyOp8
 70
     1
102
RTVSPropertyOp9
 70
     1
102
RTVSPropertyOp10
 70
     1
102
RTVSPropertyOp11
 70
     1
102
RTVSPropertyOp12
 70
     1
102
RTVSPropertyOp13
 70
     1
102
RTVSPropertyOp14
 70
     1
102
RTVSPropertyOp15
 70
     1
102
RTVSPropertyOp16
 70
     1
102
RTVSPropertyOp17
 70
     1
102
RTVSPropertyOp18
 70
     1
102
RTVSPropertyOp19
 70
     1
102
RTVSPropertyOp20
 70
     1
102
RTVSPropertyOp21
 70
     1
102
RTVSPropertyOp22
 70
     1
102
RTVSPropertyOp23
 70
     1
102
RTVSPropertyOp24
 70
     1
102
RTVSPropertyOp25
 70
     1
102
RTVSPropertyOp26
 70
     1
102
RTVSPropertyOp27
 70
     1
102
RTVSPropertyOp28
 70
     1
102
RTVSPropertyOp29
 70
     1
102
RTVSPropertyOp30
 70
     1
102
RTVSPropertyOp31
 70
     1
102
RTVSPropertyOp32
 70
     1
102
RTVSPropertyOp33
 70
     1
102
RTVSPropertyOp34
 70
     1
102
RTVSPropertyOp35
 70
     1
102
RTVSPropertyOp36
 70
     1
102
RTVSPropertyOp37
 70
     1
102
RTVSPropertyOp38
 70
     1
102
RTVSPropertyOp39
 70
     1
102
RTVSPropertyOp40
 70
     1
102
RTVSPropertyOp41
 70
     1
102
RTVSPropertyOp42
 70
     1
102
RTVSPropertyOp43
 70
     1
102
RTVSPropertyOp44
 70
     1
102
RTVSPropertyOp45
 70
     1
102
RTVSPropertyOp46
 70
     1
102
RTVSPropertyOp47
 70
     1
102
RTVSPropertyOp48
 70
     1
102
RTVSPropertyOp49
 70
     1
102
RTVSPropertyOp50
 70
     1
102
RTVSPropertyOp51
 70
     0
102
RTVSPropertyOp52
 70
     0
102
RTVSPropertyOp53
 70
     1
102
RTVSPropertyOp54
 70
     1
102
RTVSPropertyOp55
 70
     1
102
RTVSPropertyOp56
 70
     1
102
RTVSPropertyOp57
 70
     1
102
RTVSPost2010Prop28
280
     0
102
RTVSPost2010PropOp28
 70
     1
102
RTVSPost2010Prop29
280
     1
102
RTVSPost2010PropOp29
 70
     1
102
RTVSPost2010Prop30
280
     1
102
RTVSPost2010PropOp30
 70
     1
102
RTVSPost2010Prop31
280
     0
102
RTVSPost2010PropOp31
 70
     1
102
RTVSPost2010Prop32
280
     0
102
RTVSPost2010PropOp32
 70
     1
102
RTVSPost2010Prop33
280
     0
102
RTVSPost2010PropOp33
 70
     1
102
RTVSPost2010Prop34
280
     0
102
RTVSPost2010PropOp34
 70
     1
102
RTVSPost2010Prop35
280
     0
102
RTVSPost2010PropOp35
 70
     1
102
RTVSPost2010Prop36
280
     0
102
RTVSPost2010PropOp36
 70
     1
102
RTVSPost2010Prop37
 90
       50
102
RTVSPost2010PropOp37
 70
     1
102
RTVSPost2010Prop38
140
0.0
102
RTVSPost2010PropOp38
 70
     1
102
RTVSPost2010Prop39
140
1.0
102
RTVSPost2010PropOp39
 70
     1
102
RTVSPost2010Prop40
 90
        0
102
RTVSPost2010PropOp40
 70
     1
102
RTVSPost2010Prop41ColorIndex
 90
      178
102
RTVSPost2010Prop41ColorRGB
 90
        0
102
RTVSPost2010PropOp41
 70
     1
102
RTVSPost2010Prop42
 90
       50
102
RTVSPost2010PropOp42
 70
     1
102
RTVSPost2010Prop43
 90
        3
102
RTVSPost2010PropOp43
 70
     1
102
RTVSPost2010Prop44ColorIndex
 90
        5
102
RTVSPost2010Prop44ColorRGB
 90
      255
102
RTVSPost2010PropOp44
 70
     1
102
RTVSPost2010Prop45
280
     0
102
RTVSPost2010PropOp45
 70
     1
102
RTVSPost2010Prop46
 90
       50
102
RTVSPost2010PropOp46
 70
     1
102
RTVSPost2010Prop47
 90
       50
102
RTVSPost2010PropOp47
 70
     1
102
RTVSPost2010Prop48
 90
       50
102
RTVSPost2010PropOp48
 70
     1
102
RTVSPost2010Prop49
280
     0
102
RTVSPost2010PropOp49
 70
     1
102
RTVSPost2010Prop50
 90
       50
102
RTVSPost2010PropOp50
 70
     1
102
RTVSPost2010Prop51ColorIndex
 90
      256
102
RTVSPost2010Prop51ColorRGB
 90
-16777216
102
RTVSPost2010PropOp51
 70
     0
102
RTVSPost2010Prop52
140
1.0
102
RTVSPost2010PropOp52
 70
     0
102
RTVSPost2010Prop53
 90
        2
102
RTVSPost2010PropOp53
 70
     1
102
RTVSPost2010Prop54
  1
strokes_ogs.tif
102
RTVSPost2010PropOp54
 70
     1
102
RTVSPost2010Prop55
280
     0
102
RTVSPost2010PropOp55
 70
     1
102
RTVSPost2010Prop56
140
1.0
102
RTVSPost2010PropOp56
 70
     1
102
RTVSPost2010Prop57
140
1.0
102
RTVSPost2010PropOp57
 70
     1
  0
XRECORD
  5
3B2
102
{ACAD_REACTORS
330
3B1
102
}
330
3B1
100
AcDbXrecord
280
     1
102
RTVSPropertyOp0
 70
     1
102
RTVSPropertyOp1
 70
     1
102
RTVSPropertyOp2
 70
     1
102
RTVSPropertyOp3
 70
     1
102
RTVSPropertyOp4
 70
     1
102
RTVSPropertyOp5
 70
     1
102
RTVSPropertyOp6
 70
     1
102
RTVSPropertyOp7
 70
     1
102
RTVSPropertyOp8
 70
     1
102
RTVSPropertyOp9
 70
     1
102
RTVSPropertyOp10
 70
     1
102
RTVSPropertyOp11
 70
     1
102
RTVSPropertyOp12
 70
     1
102
RTVSPropertyOp13
 70
     1
102
RTVSPropertyOp14
 70
     1
102
RTVSPropertyOp15
 70
     1
102
RTVSPropertyOp16
 70
     1
102
RTVSPropertyOp17
 70
     1
102
RTVSPropertyOp18
 70
     1
102
RTVSPropertyOp19
 70
     1
102
RTVSPropertyOp20
 70
     1
102
RTVSPropertyOp21
 70
     1
102
RTVSPropertyOp22
 70
     1
102
RTVSPropertyOp23
 70
     1
102
RTVSPropertyOp24
 70
     1
102
RTVSPropertyOp25
 70
     1
102
RTVSPropertyOp26
 70
     1
102
RTVSPropertyOp27
 70
     1
102
RTVSPropertyOp28
 70
     1
102
RTVSPropertyOp29
 70
     1
102
RTVSPropertyOp30
 70
     1
102
RTVSPropertyOp31
 70
     1
102
RTVSPropertyOp32
 70
     1
102
RTVSPropertyOp33
 70
     1
102
RTVSPropertyOp34
 70
     1
102
RTVSPropertyOp35
 70
     1
102
RTVSPropertyOp36
 70
     1
102
RTVSPropertyOp37
 70
     1
102
RTVSPropertyOp38
 70
     1
102
RTVSPropertyOp39
 70
     1
102
RTVSPropertyOp40
 70
     1
102
RTVSPropertyOp41
 70
     1
102
RTVSPropertyOp42
 70
     1
102
RTVSPropertyOp43
 70
     1
102
RTVSPropertyOp44
 70
     1
102
RTVSPropertyOp45
 70
     1
102
RTVSPropertyOp46
 70
     1
102
RTVSPropertyOp47
 70
     1
102
RTVSPropertyOp48
 70
     1
102
RTVSPropertyOp49
 70
     1
102
RTVSPropertyOp50
 70
     1
102
RTVSPropertyOp51
 70
     0
102
RTVSPropertyOp52
 70
     0
102
RTVSPropertyOp53
 70
     1
102
RTVSPropertyOp54
 70
     1
102
RTVSPropertyOp55
 70
     1
102
RTVSPropertyOp56
 70
     1
102
RTVSPropertyOp57
 70
     1
102
RTVSPost2010Prop28
280
     0
102
RTVSPost2010PropOp28
 70
     1
102
RTVSPost2010Prop29
280
     1
102
RTVSPost2010PropOp29
 70
     1
102
RTVSPost2010Prop30
280
     1
102
RTVSPost2010PropOp30
 70
     1
102
RTVSPost2010Prop31
280
     0
102
RTVSPost2010PropOp31
 70
     1
102
RTVSPost2010Prop32
280
     0
102
RTVSPost2010PropOp32
 70
     1
102
RTVSPost2010Prop33
280
     0
102
RTVSPost2010PropOp33
 70
     1
102
RTVSPost2010Prop34
280
     0
102
RTVSPost2010PropOp34
 70
     1
102
RTVSPost2010Prop35
280
     0
102
RTVSPost2010PropOp35
 70
     1
102
RTVSPost2010Prop36
280
     0
102
RTVSPost2010PropOp36
 70
     1
102
RTVSPost2010Prop37
 90
       50
102
RTVSPost2010PropOp37
 70
     1
102
RTVSPost2010Prop38
140
0.0
102
RTVSPost2010PropOp38
 70
     1
102
RTVSPost2010Prop39
140
1.0
102
RTVSPost2010PropOp39
 70
     1
102
RTVSPost2010Prop40
 90
        0
102
RTVSPost2010PropOp40
 70
     1
102
RTVSPost2010Prop41ColorIndex
 90
      178
102
RTVSPost2010Prop41ColorRGB
 90
        0
102
RTVSPost2010PropOp41
 70
     1
102
RTVSPost2010Prop42
 90
       50
102
RTVSPost2010PropOp42
 70
     1
102
RTVSPost2010Prop43
 90
        3
102
RTVSPost2010PropOp43
 70
     1
102
RTVSPost2010Prop44ColorIndex
 90
        5
102
RTVSPost2010Prop44ColorRGB
 90
      255
102
RTVSPost2010PropOp44
 70
     1
102
RTVSPost2010Prop45
280
     0
102
RTVSPost2010PropOp45
 70
     1
102
RTVSPost2010Prop46
 90
       50
102
RTVSPost2010PropOp46
 70
     1
102
RTVSPost2010Prop47
 90
       50
102
RTVSPost2010PropOp47
 70
     1
102
RTVSPost2010Prop48
 90
       50
102
RTVSPost2010PropOp48
 70
     1
102
RTVSPost2010Prop49
280
     0
102
RTVSPost2010PropOp49
 70
     1
102
RTVSPost2010Prop50
 90
       50
102
RTVSPost2010PropOp50
 70
     1
102
RTVSPost2010Prop51ColorIndex
 90
      256
102
RTVSPost2010Prop51ColorRGB
 90
-16777216
102
RTVSPost2010PropOp51
 70
     0
102
RTVSPost2010Prop52
140
1.0
102
RTVSPost2010PropOp52
 70
     0
102
RTVSPost2010Prop53
 90
        2
102
RTVSPost2010PropOp53
 70
     1
102
RTVSPost2010Prop54
  1
strokes_ogs.tif
102
RTVSPost2010PropOp54
 70
     1
102
RTVSPost2010Prop55
280
     0
102
RTVSPost2010PropOp55
 70
     1
102
RTVSPost2010Prop56
140
1.0
102
RTVSPost2010PropOp56
 70
     1
102
RTVSPost2010Prop57
140
1.0
102
RTVSPost2010PropOp57
 70
     1
  0
XRECORD
  5
3B4
102
{ACAD_REACTORS
330
3B3
102
}
330
3B3
100
AcDbXrecord
280
     1
102
RTVSPropertyOp0
 70
     1
102
RTVSPropertyOp1
 70
     1
102
RTVSPropertyOp2
 70
     1
102
RTVSPropertyOp3
 70
     1
102
RTVSPropertyOp4
 70
     1
102
RTVSPropertyOp5
 70
     1
102
RTVSPropertyOp6
 70
     1
102
RTVSPropertyOp7
 70
     1
102
RTVSPropertyOp8
 70
     1
102
RTVSPropertyOp9
 70
     1
102
RTVSPropertyOp10
 70
     1
102
RTVSPropertyOp11
 70
     1
102
RTVSPropertyOp12
 70
     1
102
RTVSPropertyOp13
 70
     1
102
RTVSPropertyOp14
 70
     1
102
RTVSPropertyOp15
 70
     1
102
RTVSPropertyOp16
 70
     1
102
RTVSPropertyOp17
 70
     1
102
RTVSPropertyOp18
 70
     1
102
RTVSPropertyOp19
 70
     1
102
RTVSPropertyOp20
 70
     1
102
RTVSPropertyOp21
 70
     1
102
RTVSPropertyOp22
 70
     1
102
RTVSPropertyOp23
 70
     1
102
RTVSPropertyOp24
 70
     1
102
RTVSPropertyOp25
 70
     1
102
RTVSPropertyOp26
 70
     1
102
RTVSPropertyOp27
 70
     1
102
RTVSPropertyOp28
 70
     1
102
RTVSPropertyOp29
 70
     1
102
RTVSPropertyOp30
 70
     1
102
RTVSPropertyOp31
 70
     1
102
RTVSPropertyOp32
 70
     1
102
RTVSPropertyOp33
 70
     1
102
RTVSPropertyOp34
 70
     1
102
RTVSPropertyOp35
 70
     1
102
RTVSPropertyOp36
 70
     1
102
RTVSPropertyOp37
 70
     1
102
RTVSPropertyOp38
 70
     1
102
RTVSPropertyOp39
 70
     1
102
RTVSPropertyOp40
 70
     1
102
RTVSPropertyOp41
 70
     1
102
RTVSPropertyOp42
 70
     1
102
RTVSPropertyOp43
 70
     1
102
RTVSPropertyOp44
 70
     1
102
RTVSPropertyOp45
 70
     1
102
RTVSPropertyOp46
 70
     1
102
RTVSPropertyOp47
 70
     1
102
RTVSPropertyOp48
 70
     1
102
RTVSPropertyOp49
 70
     1
102
RTVSPropertyOp50
 70
     1
102
RTVSPropertyOp51
 70
     0
102
RTVSPropertyOp52
 70
     0
102
RTVSPropertyOp53
 70
     1
102
RTVSPropertyOp54
 70
     1
102
RTVSPropertyOp55
 70
     1
102
RTVSPropertyOp56
 70
     1
102
RTVSPropertyOp57
 70
     1
102
RTVSPost2010Prop28
280
     0
102
RTVSPost2010PropOp28
 70
     1
102
RTVSPost2010Prop29
280
     1
102
RTVSPost2010PropOp29
 70
     1
102
RTVSPost2010Prop30
280
     1
102
RTVSPost2010PropOp30
 70
     1
102
RTVSPost2010Prop31
280
     0
102
RTVSPost2010PropOp31
 70
     1
102
RTVSPost2010Prop32
280
     0
102
RTVSPost2010PropOp32
 70
     1
102
RTVSPost2010Prop33
280
     0
102
RTVSPost2010PropOp33
 70
     1
102
RTVSPost2010Prop34
280
     0
102
RTVSPost2010PropOp34
 70
     1
102
RTVSPost2010Prop35
280
     0
102
RTVSPost2010PropOp35
 70
     1
102
RTVSPost2010Prop36
280
     0
102
RTVSPost2010PropOp36
 70
     1
102
RTVSPost2010Prop37
 90
       50
102
RTVSPost2010PropOp37
 70
     1
102
RTVSPost2010Prop38
140
0.0
102
RTVSPost2010PropOp38
 70
     1
102
RTVSPost2010Prop39
140
1.0
102
RTVSPost2010PropOp39
 70
     1
102
RTVSPost2010Prop40
 90
        0
102
RTVSPost2010PropOp40
 70
     1
102
RTVSPost2010Prop41ColorIndex
 90
      178
102
RTVSPost2010Prop41ColorRGB
 90
        0
102
RTVSPost2010PropOp41
 70
     1
102
RTVSPost2010Prop42
 90
       50
102
RTVSPost2010PropOp42
 70
     1
102
RTVSPost2010Prop43
 90
        3
102
RTVSPost2010PropOp43
 70
     1
102
RTVSPost2010Prop44ColorIndex
 90
        5
102
RTVSPost2010Prop44ColorRGB
 90
      255
102
RTVSPost2010PropOp44
 70
     1
102
RTVSPost2010Prop45
280
     0
102
RTVSPost2010PropOp45
 70
     1
102
RTVSPost2010Prop46
 90
       50
102
RTVSPost2010PropOp46
 70
     1
102
RTVSPost2010Prop47
 90
       50
102
RTVSPost2010PropOp47
 70
     1
102
RTVSPost2010Prop48
 90
       50
102
RTVSPost2010PropOp48
 70
     1
102
RTVSPost2010Prop49
280
     0
102
RTVSPost2010PropOp49
 70
     1
102
RTVSPost2010Prop50
 90
       50
102
RTVSPost2010PropOp50
 70
     1
102
RTVSPost2010Prop51ColorIndex
 90
      256
102
RTVSPost2010Prop51ColorRGB
 90
-16777216
102
RTVSPost2010PropOp51
 70
     0
102
RTVSPost2010Prop52
140
1.0
102
RTVSPost2010PropOp52
 70
     0
102
RTVSPost2010Prop53
 90
        2
102
RTVSPost2010PropOp53
 70
     1
102
RTVSPost2010Prop54
  1
strokes_ogs.tif
102
RTVSPost2010PropOp54
 70
     1
102
RTVSPost2010Prop55
280
     0
102
RTVSPost2010PropOp55
 70
     1
102
RTVSPost2010Prop56
140
1.0
102
RTVSPost2010PropOp56
 70
     1
102
RTVSPost2010Prop57
140
1.0
102
RTVSPost2010PropOp57
 70
     1
  0
XRECORD
  5
3B6
102
{ACAD_REACTORS
330
3B5
102
}
330
3B5
100
AcDbXrecord
280
     1
102
RTVSPropertyOp0
 70
     1
102
RTVSPropertyOp1
 70
     1
102
RTVSPropertyOp2
 70
     1
102
RTVSPropertyOp3
 70
     1
102
RTVSPropertyOp4
 70
     1
102
RTVSPropertyOp5
 70
     1
102
RTVSPropertyOp6
 70
     1
102
RTVSPropertyOp7
 70
     1
102
RTVSPropertyOp8
 70
     1
102
RTVSPropertyOp9
 70
     1
102
RTVSPropertyOp10
 70
     1
102
RTVSPropertyOp11
 70
     1
102
RTVSPropertyOp12
 70
     1
102
RTVSPropertyOp13
 70
     1
102
RTVSPropertyOp14
 70
     1
102
RTVSPropertyOp15
 70
     1
102
RTVSPropertyOp16
 70
     1
102
RTVSPropertyOp17
 70
     1
102
RTVSPropertyOp18
 70
     1
102
RTVSPropertyOp19
 70
     1
102
RTVSPropertyOp20
 70
     1
102
RTVSPropertyOp21
 70
     1
102
RTVSPropertyOp22
 70
     1
102
RTVSPropertyOp23
 70
     1
102
RTVSPropertyOp24
 70
     1
102
RTVSPropertyOp25
 70
     1
102
RTVSPropertyOp26
 70
     1
102
RTVSPropertyOp27
 70
     1
102
RTVSPropertyOp28
 70
     1
102
RTVSPropertyOp29
 70
     1
102
RTVSPropertyOp30
 70
     1
102
RTVSPropertyOp31
 70
     1
102
RTVSPropertyOp32
 70
     1
102
RTVSPropertyOp33
 70
     1
102
RTVSPropertyOp34
 70
     1
102
RTVSPropertyOp35
 70
     1
102
RTVSPropertyOp36
 70
     1
102
RTVSPropertyOp37
 70
     1
102
RTVSPropertyOp38
 70
     1
102
RTVSPropertyOp39
 70
     1
102
RTVSPropertyOp40
 70
     1
102
RTVSPropertyOp41
 70
     1
102
RTVSPropertyOp42
 70
     1
102
RTVSPropertyOp43
 70
     1
102
RTVSPropertyOp44
 70
     1
102
RTVSPropertyOp45
 70
     1
102
RTVSPropertyOp46
 70
     1
102
RTVSPropertyOp47
 70
     1
102
RTVSPropertyOp48
 70
     1
102
RTVSPropertyOp49
 70
     1
102
RTVSPropertyOp50
 70
     1
102
RTVSPropertyOp51
 70
     0
102
RTVSPropertyOp52
 70
     0
102
RTVSPropertyOp53
 70
     1
102
RTVSPropertyOp54
 70
     1
102
RTVSPropertyOp55
 70
     1
102
RTVSPropertyOp56
 70
     1
102
RTVSPropertyOp57
 70
     1
102
RTVSPost2010Prop28
280
     0
102
RTVSPost2010PropOp28
 70
     1
102
RTVSPost2010Prop29
280
     1
102
RTVSPost2010PropOp29
 70
     1
102
RTVSPost2010Prop30
280
     1
102
RTVSPost2010PropOp30
 70
     1
102
RTVSPost2010Prop31
280
     0
102
RTVSPost2010PropOp31
 70
     1
102
RTVSPost2010Prop32
280
     0
102
RTVSPost2010PropOp32
 70
     1
102
RTVSPost2010Prop33
280
     0
102
RTVSPost2010PropOp33
 70
     1
102
RTVSPost2010Prop34
280
     0
102
RTVSPost2010PropOp34
 70
     1
102
RTVSPost2010Prop35
280
     0
102
RTVSPost2010PropOp35
 70
     1
102
RTVSPost2010Prop36
280
     0
102
RTVSPost2010PropOp36
 70
     1
102
RTVSPost2010Prop37
 90
       50
102
RTVSPost2010PropOp37
 70
     1
102
RTVSPost2010Prop38
140
0.0
102
RTVSPost2010PropOp38
 70
     1
102
RTVSPost2010Prop39
140
1.0
102
RTVSPost2010PropOp39
 70
     1
102
RTVSPost2010Prop40
 90
        0
102
RTVSPost2010PropOp40
 70
     1
102
RTVSPost2010Prop41ColorIndex
 90
      178
102
RTVSPost2010Prop41ColorRGB
 90
        0
102
RTVSPost2010PropOp41
 70
     1
102
RTVSPost2010Prop42
 90
       50
102
RTVSPost2010PropOp42
 70
     1
102
RTVSPost2010Prop43
 90
        3
102
RTVSPost2010PropOp43
 70
     1
102
RTVSPost2010Prop44ColorIndex
 90
        5
102
RTVSPost2010Prop44ColorRGB
 90
      255
102
RTVSPost2010PropOp44
 70
     1
102
RTVSPost2010Prop45
280
     0
102
RTVSPost2010PropOp45
 70
     1
102
RTVSPost2010Prop46
 90
       50
102
RTVSPost2010PropOp46
 70
     1
102
RTVSPost2010Prop47
 90
       50
102
RTVSPost2010PropOp47
 70
     1
102
RTVSPost2010Prop48
 90
       50
102
RTVSPost2010PropOp48
 70
     1
102
RTVSPost2010Prop49
280
     0
102
RTVSPost2010PropOp49
 70
     1
102
RTVSPost2010Prop50
 90
       50
102
RTVSPost2010PropOp50
 70
     1
102
RTVSPost2010Prop51ColorIndex
 90
      256
102
RTVSPost2010Prop51ColorRGB
 90
-16777216
102
RTVSPost2010PropOp51
 70
     0
102
RTVSPost2010Prop52
140
1.0
102
RTVSPost2010PropOp52
 70
     0
102
RTVSPost2010Prop53
 90
        2
102
RTVSPost2010PropOp53
 70
     1
102
RTVSPost2010Prop54
  1
strokes_ogs.tif
102
RTVSPost2010PropOp54
 70
     1
102
RTVSPost2010Prop55
280
     0
102
RTVSPost2010PropOp55
 70
     1
102
RTVSPost2010Prop56
140
1.0
102
RTVSPost2010PropOp56
 70
     1
102
RTVSPost2010Prop57
140
1.0
102
RTVSPost2010PropOp57
 70
     1
  0
XRECORD
  5
3B8
102
{ACAD_REACTORS
330
3B7
102
}
330
3B7
100
AcDbXrecord
280
     1
102
RTVSPropertyOp0
 70
     1
102
RTVSPropertyOp1
 70
     1
102
RTVSPropertyOp2
 70
     1
102
RTVSPropertyOp3
 70
     1
102
RTVSPropertyOp4
 70
     1
102
RTVSPropertyOp5
 70
     1
102
RTVSPropertyOp6
 70
     1
102
RTVSPropertyOp7
 70
     1
102
RTVSPropertyOp8
 70
     1
102
RTVSPropertyOp9
 70
     1
102
RTVSPropertyOp10
 70
     1
102
RTVSPropertyOp11
 70
     1
102
RTVSPropertyOp12
 70
     1
102
RTVSPropertyOp13
 70
     1
102
RTVSPropertyOp14
 70
     1
102
RTVSPropertyOp15
 70
     1
102
RTVSPropertyOp16
 70
     1
102
RTVSPropertyOp17
 70
     1
102
RTVSPropertyOp18
 70
     1
102
RTVSPropertyOp19
 70
     1
102
RTVSPropertyOp20
 70
     1
102
RTVSPropertyOp21
 70
     1
102
RTVSPropertyOp22
 70
     1
102
RTVSPropertyOp23
 70
     1
102
RTVSPropertyOp24
 70
     1
102
RTVSPropertyOp25
 70
     1
102
RTVSPropertyOp26
 70
     1
102
RTVSPropertyOp27
 70
     1
102
RTVSPropertyOp28
 70
     1
102
RTVSPropertyOp29
 70
     1
102
RTVSPropertyOp30
 70
     1
102
RTVSPropertyOp31
 70
     1
102
RTVSPropertyOp32
 70
     1
102
RTVSPropertyOp33
 70
     1
102
RTVSPropertyOp34
 70
     1
102
RTVSPropertyOp35
 70
     1
102
RTVSPropertyOp36
 70
     1
102
RTVSPropertyOp37
 70
     1
102
RTVSPropertyOp38
 70
     1
102
RTVSPropertyOp39
 70
     1
102
RTVSPropertyOp40
 70
     1
102
RTVSPropertyOp41
 70
     1
102
RTVSPropertyOp42
 70
     1
102
RTVSPropertyOp43
 70
     1
102
RTVSPropertyOp44
 70
     1
102
RTVSPropertyOp45
 70
     1
102
RTVSPropertyOp46
 70
     1
102
RTVSPropertyOp47
 70
     1
102
RTVSPropertyOp48
 70
     1
102
RTVSPropertyOp49
 70
     1
102
RTVSPropertyOp50
 70
     1
102
RTVSPropertyOp51
 70
     0
102
RTVSPropertyOp52
 70
     0
102
RTVSPropertyOp53
 70
     1
102
RTVSPropertyOp54
 70
     1
102
RTVSPropertyOp55
 70
     1
102
RTVSPropertyOp56
 70
     1
102
RTVSPropertyOp57
 70
     1
102
RTVSPost2010Prop28
280
     0
102
RTVSPost2010PropOp28
 70
     1
102
RTVSPost2010Prop29
280
     1
102
RTVSPost2010PropOp29
 70
     1
102
RTVSPost2010Prop30
280
     1
102
RTVSPost2010PropOp30
 70
     1
102
RTVSPost2010Prop31
280
     0
102
RTVSPost2010PropOp31
 70
     1
102
RTVSPost2010Prop32
280
     0
102
RTVSPost2010PropOp32
 70
     1
102
RTVSPost2010Prop33
280
     0
102
RTVSPost2010PropOp33
 70
     1
102
RTVSPost2010Prop34
280
     0
102
RTVSPost2010PropOp34
 70
     1
102
RTVSPost2010Prop35
280
     0
102
RTVSPost2010PropOp35
 70
     1
102
RTVSPost2010Prop36
280
     0
102
RTVSPost2010PropOp36
 70
     1
102
RTVSPost2010Prop37
 90
       50
102
RTVSPost2010PropOp37
 70
     1
102
RTVSPost2010Prop38
140
0.0
102
RTVSPost2010PropOp38
 70
     1
102
RTVSPost2010Prop39
140
1.0
102
RTVSPost2010PropOp39
 70
     1
102
RTVSPost2010Prop40
 90
        0
102
RTVSPost2010PropOp40
 70
     1
102
RTVSPost2010Prop41ColorIndex
 90
      178
102
RTVSPost2010Prop41ColorRGB
 90
        0
102
RTVSPost2010PropOp41
 70
     1
102
RTVSPost2010Prop42
 90
       50
102
RTVSPost2010PropOp42
 70
     1
102
RTVSPost2010Prop43
 90
        3
102
RTVSPost2010PropOp43
 70
     1
102
RTVSPost2010Prop44ColorIndex
 90
        5
102
RTVSPost2010Prop44ColorRGB
 90
      255
102
RTVSPost2010PropOp44
 70
     1
102
RTVSPost2010Prop45
280
     0
102
RTVSPost2010PropOp45
 70
     1
102
RTVSPost2010Prop46
 90
       50
102
RTVSPost2010PropOp46
 70
     1
102
RTVSPost2010Prop47
 90
       50
102
RTVSPost2010PropOp47
 70
     1
102
RTVSPost2010Prop48
 90
       50
102
RTVSPost2010PropOp48
 70
     1
102
RTVSPost2010Prop49
280
     0
102
RTVSPost2010PropOp49
 70
     1
102
RTVSPost2010Prop50
 90
       50
102
RTVSPost2010PropOp50
 70
     1
102
RTVSPost2010Prop51ColorIndex
 90
      256
102
RTVSPost2010Prop51ColorRGB
 90
-16777216
102
RTVSPost2010PropOp51
 70
     0
102
RTVSPost2010Prop52
140
1.0
102
RTVSPost2010PropOp52
 70
     0
102
RTVSPost2010Prop53
 90
        2
102
RTVSPost2010PropOp53
 70
     1
102
RTVSPost2010Prop54
  1
strokes_ogs.tif
102
RTVSPost2010PropOp54
 70
     1
102
RTVSPost2010Prop55
280
     0
102
RTVSPost2010PropOp55
 70
     1
102
RTVSPost2010Prop56
140
1.0
102
RTVSPost2010PropOp56
 70
     1
102
RTVSPost2010Prop57
140
1.0
102
RTVSPost2010PropOp57
 70
     1
  0
XRECORD
  5
3BE
102
{ACAD_REACTORS
330
3BD
102
}
330
3BD
100
AcDbXrecord
280
     1
102
RTVSPropertyOp0
 70
     1
102
RTVSPropertyOp1
 70
     1
102
RTVSPropertyOp2
 70
     1
102
RTVSPropertyOp3
 70
     1
102
RTVSPropertyOp4
 70
     1
102
RTVSPropertyOp5
 70
     1
102
RTVSPropertyOp6
 70
     1
102
RTVSPropertyOp7
 70
     1
102
RTVSPropertyOp8
 70
     1
102
RTVSPropertyOp9
 70
     1
102
RTVSPropertyOp10
 70
     1
102
RTVSPropertyOp11
 70
     1
102
RTVSPropertyOp12
 70
     1
102
RTVSPropertyOp13
 70
     1
102
RTVSPropertyOp14
 70
     1
102
RTVSPropertyOp15
 70
     1
102
RTVSPropertyOp16
 70
     1
102
RTVSPropertyOp17
 70
     1
102
RTVSPropertyOp18
 70
     1
102
RTVSPropertyOp19
 70
     1
102
RTVSPropertyOp20
 70
     1
102
RTVSPropertyOp21
 70
     1
102
RTVSPropertyOp22
 70
     1
102
RTVSPropertyOp23
 70
     1
102
RTVSPropertyOp24
 70
     1
102
RTVSPropertyOp25
 70
     1
102
RTVSPropertyOp26
 70
     1
102
RTVSPropertyOp27
 70
     1
102
RTVSPropertyOp28
 70
     1
102
RTVSPropertyOp29
 70
     1
102
RTVSPropertyOp30
 70
     1
102
RTVSPropertyOp31
 70
     1
102
RTVSPropertyOp32
 70
     1
102
RTVSPropertyOp33
 70
     1
102
RTVSPropertyOp34
 70
     1
102
RTVSPropertyOp35
 70
     1
102
RTVSPropertyOp36
 70
     1
102
RTVSPropertyOp37
 70
     1
102
RTVSPropertyOp38
 70
     1
102
RTVSPropertyOp39
 70
     1
102
RTVSPropertyOp40
 70
     1
102
RTVSPropertyOp41
 70
     1
102
RTVSPropertyOp42
 70
     1
102
RTVSPropertyOp43
 70
     1
102
RTVSPropertyOp44
 70
     1
102
RTVSPropertyOp45
 70
     1
102
RTVSPropertyOp46
 70
     1
102
RTVSPropertyOp47
 70
     1
102
RTVSPropertyOp48
 70
     1
102
RTVSPropertyOp49
 70
     1
102
RTVSPropertyOp50
 70
     1
102
RTVSPropertyOp51
 70
     0
102
RTVSPropertyOp52
 70
     0
102
RTVSPropertyOp53
 70
     1
102
RTVSPropertyOp54
 70
     1
102
RTVSPropertyOp55
 70
     1
102
RTVSPropertyOp56
 70
     1
102
RTVSPropertyOp57
 70
     1
102
RTVSPost2010Prop28
280
     0
102
RTVSPost2010PropOp28
 70
     1
102
RTVSPost2010Prop29
280
     1
102
RTVSPost2010PropOp29
 70
     1
102
RTVSPost2010Prop30
280
     1
102
RTVSPost2010PropOp30
 70
     1
102
RTVSPost2010Prop31
280
     0
102
RTVSPost2010PropOp31
 70
     1
102
RTVSPost2010Prop32
280
     0
102
RTVSPost2010PropOp32
 70
     1
102
RTVSPost2010Prop33
280
     0
102
RTVSPost2010PropOp33
 70
     1
102
RTVSPost2010Prop34
280
     0
102
RTVSPost2010PropOp34
 70
     1
102
RTVSPost2010Prop35
280
     0
102
RTVSPost2010PropOp35
 70
     1
102
RTVSPost2010Prop36
280
     0
102
RTVSPost2010PropOp36
 70
     1
102
RTVSPost2010Prop37
 90
       50
102
RTVSPost2010PropOp37
 70
     1
102
RTVSPost2010Prop38
140
0.0
102
RTVSPost2010PropOp38
 70
     1
102
RTVSPost2010Prop39
140
1.0
102
RTVSPost2010PropOp39
 70
     1
102
RTVSPost2010Prop40
 90
        0
102
RTVSPost2010PropOp40
 70
     1
102
RTVSPost2010Prop41ColorIndex
 90
      178
102
RTVSPost2010Prop41ColorRGB
 90
        0
102
RTVSPost2010PropOp41
 70
     1
102
RTVSPost2010Prop42
 90
       50
102
RTVSPost2010PropOp42
 70
     1
102
RTVSPost2010Prop43
 90
        3
102
RTVSPost2010PropOp43
 70
     1
102
RTVSPost2010Prop44ColorIndex
 90
        5
102
RTVSPost2010Prop44ColorRGB
 90
      255
102
RTVSPost2010PropOp44
 70
     1
102
RTVSPost2010Prop45
280
     0
102
RTVSPost2010PropOp45
 70
     1
102
RTVSPost2010Prop46
 90
       50
102
RTVSPost2010PropOp46
 70
     1
102
RTVSPost2010Prop47
 90
       50
102
RTVSPost2010PropOp47
 70
     1
102
RTVSPost2010Prop48
 90
       50
102
RTVSPost2010PropOp48
 70
     1
102
RTVSPost2010Prop49
280
     0
102
RTVSPost2010PropOp49
 70
     1
102
RTVSPost2010Prop50
 90
       50
102
RTVSPost2010PropOp50
 70
     1
102
RTVSPost2010Prop51ColorIndex
 90
      256
102
RTVSPost2010Prop51ColorRGB
 90
-16777216
102
RTVSPost2010PropOp51
 70
     0
102
RTVSPost2010Prop52
140
1.0
102
RTVSPost2010PropOp52
 70
     0
102
RTVSPost2010Prop53
 90
        2
102
RTVSPost2010PropOp53
 70
     1
102
RTVSPost2010Prop54
  1
strokes_ogs.tif
102
RTVSPost2010PropOp54
 70
     1
102
RTVSPost2010Prop55
280
     0
102
RTVSPost2010PropOp55
 70
     1
102
RTVSPost2010Prop56
140
1.0
102
RTVSPost2010PropOp56
 70
     1
102
RTVSPost2010Prop57
140
1.0
102
RTVSPost2010PropOp57
 70
     1
  0
XRECORD
  5
3D2
102
{ACAD_REACTORS
330
3D1
102
}
330
3D1
100
AcDbXrecord
280
     1
102
RTVSPropertyOp0
 70
     0
102
RTVSPropertyOp1
 70
     0
102
RTVSPropertyOp2
 70
     0
102
RTVSPropertyOp3
 70
     0
102
RTVSPropertyOp4
 70
     0
102
RTVSPropertyOp5
 70
     0
102
RTVSPropertyOp6
 70
     0
102
RTVSPropertyOp7
 70
     0
102
RTVSPropertyOp8
 70
     0
102
RTVSPropertyOp9
 70
     0
102
RTVSPropertyOp10
 70
     0
102
RTVSPropertyOp11
 70
     0
102
RTVSPropertyOp12
 70
     0
102
RTVSPropertyOp13
 70
     0
102
RTVSPropertyOp14
 70
     2
102
RTVSPropertyOp15
 70
     0
102
RTVSPropertyOp16
 70
     0
102
RTVSPropertyOp17
 70
     0
102
RTVSPropertyOp18
 70
     0
102
RTVSPropertyOp19
 70
     0
102
RTVSPropertyOp20
 70
     0
102
RTVSPropertyOp21
 70
     0
102
RTVSPropertyOp22
 70
     0
102
RTVSPropertyOp23
 70
     0
102
RTVSPropertyOp24
 70
     0
102
RTVSPropertyOp25
 70
     0
102
RTVSPropertyOp26
 70
     0
102
RTVSPropertyOp27
 70
     0
102
RTVSPropertyOp28
 70
     0
102
RTVSPropertyOp29
 70
     0
102
RTVSPropertyOp30
 70
     0
102
RTVSPropertyOp31
 70
     0
102
RTVSPropertyOp32
 70
     0
102
RTVSPropertyOp33
 70
     0
102
RTVSPropertyOp34
 70
     0
102
RTVSPropertyOp35
 70
     0
102
RTVSPropertyOp36
 70
     0
102
RTVSPropertyOp37
 70
     0
102
RTVSPropertyOp38
 70
     0
102
RTVSPropertyOp39
 70
     0
102
RTVSPropertyOp40
 70
     0
102
RTVSPropertyOp41
 70
     0
102
RTVSPropertyOp42
 70
     0
102
RTVSPropertyOp43
 70
     0
102
RTVSPropertyOp44
 70
     0
102
RTVSPropertyOp45
 70
     0
102
RTVSPropertyOp46
 70
     0
102
RTVSPropertyOp47
 70
     0
102
RTVSPropertyOp48
 70
     0
102
RTVSPropertyOp49
 70
     0
102
RTVSPropertyOp50
 70
     0
102
RTVSPropertyOp51
 70
     0
102
RTVSPropertyOp52
 70
     0
102
RTVSPropertyOp53
 70
     0
102
RTVSPropertyOp54
 70
     0
102
RTVSPropertyOp55
 70
     0
102
RTVSPropertyOp56
 70
     0
102
RTVSPropertyOp57
 70
     0
102
RTVSPost2010Prop28
280
     0
102
RTVSPost2010PropOp28
 70
     0
102
RTVSPost2010Prop29
280
     1
102
RTVSPost2010PropOp29
 70
     0
102
RTVSPost2010Prop30
280
     1
102
RTVSPost2010PropOp30
 70
     0
102
RTVSPost2010Prop31
280
     0
102
RTVSPost2010PropOp31
 70
     0
102
RTVSPost2010Prop32
280
     0
102
RTVSPost2010PropOp32
 70
     0
102
RTVSPost2010Prop33
280
     0
102
RTVSPost2010PropOp33
 70
     0
102
RTVSPost2010Prop34
280
     0
102
RTVSPost2010PropOp34
 70
     0
102
RTVSPost2010Prop35
280
     0
102
RTVSPost2010PropOp35
 70
     0
102
RTVSPost2010Prop36
280
     0
102
RTVSPost2010PropOp36
 70
     0
102
RTVSPost2010Prop37
 90
       50
102
RTVSPost2010PropOp37
 70
     0
102
RTVSPost2010Prop38
140
0.0
102
RTVSPost2010PropOp38
 70
     0
102
RTVSPost2010Prop39
140
1.0
102
RTVSPost2010PropOp39
 70
     0
102
RTVSPost2010Prop40
 90
        0
102
RTVSPost2010PropOp40
 70
     0
102
RTVSPost2010Prop41ColorIndex
 90
      178
102
RTVSPost2010Prop41ColorRGB
 90
        0
102
RTVSPost2010PropOp41
 70
     0
102
RTVSPost2010Prop42
 90
       50
102
RTVSPost2010PropOp42
 70
     0
102
RTVSPost2010Prop43
 90
        3
102
RTVSPost2010PropOp43
 70
     0
102
RTVSPost2010Prop44ColorIndex
 90
        5
102
RTVSPost2010Prop44ColorRGB
 90
      255
102
RTVSPost2010PropOp44
 70
     0
102
RTVSPost2010Prop45
280
     0
102
RTVSPost2010PropOp45
 70
     0
102
RTVSPost2010Prop46
 90
       50
102
RTVSPost2010PropOp46
 70
     0
102
RTVSPost2010Prop47
 90
       50
102
RTVSPost2010PropOp47
 70
     0
102
RTVSPost2010Prop48
 90
       50
102
RTVSPost2010PropOp48
 70
     0
102
RTVSPost2010Prop49
280
     0
102
RTVSPost2010PropOp49
 70
     0
102
RTVSPost2010Prop50
 90
       50
102
RTVSPost2010PropOp50
 70
     0
102
RTVSPost2010Prop51ColorIndex
 90
      256
102
RTVSPost2010Prop51ColorRGB
 90
-16777216
102
RTVSPost2010PropOp51
 70
     0
102
RTVSPost2010Prop52
140
1.0
102
RTVSPost2010PropOp52
 70
     0
102
RTVSPost2010Prop53
 90
        2
102
RTVSPost2010PropOp53
 70
     0
102
RTVSPost2010Prop54
  1
strokes_ogs.tif
102
RTVSPost2010PropOp54
 70
     0
102
RTVSPost2010Prop55
280
     0
102
RTVSPost2010PropOp55
 70
     0
102
RTVSPost2010Prop56
140
1.0
102
RTVSPost2010PropOp56
 70
     0
102
RTVSPost2010Prop57
140
1.0
102
RTVSPost2010PropOp57
 70
     0
  0
XRECORD
  5
3CC
102
{ACAD_REACTORS
330
3CB
102
}
330
3CB
100
AcDbXrecord
280
     1
102
RTVSPropertyOp0
 70
     1
102
RTVSPropertyOp1
 70
     1
102
RTVSPropertyOp2
 70
     1
102
RTVSPropertyOp3
 70
     1
102
RTVSPropertyOp4
 70
     1
102
RTVSPropertyOp5
 70
     1
102
RTVSPropertyOp6
 70
     1
102
RTVSPropertyOp7
 70
     1
102
RTVSPropertyOp8
 70
     1
102
RTVSPropertyOp9
 70
     1
102
RTVSPropertyOp10
 70
     1
102
RTVSPropertyOp11
 70
     1
102
RTVSPropertyOp12
 70
     1
102
RTVSPropertyOp13
 70
     1
102
RTVSPropertyOp14
 70
     1
102
RTVSPropertyOp15
 70
     1
102
RTVSPropertyOp16
 70
     1
102
RTVSPropertyOp17
 70
     1
102
RTVSPropertyOp18
 70
     1
102
RTVSPropertyOp19
 70
     1
102
RTVSPropertyOp20
 70
     1
102
RTVSPropertyOp21
 70
     1
102
RTVSPropertyOp22
 70
     1
102
RTVSPropertyOp23
 70
     1
102
RTVSPropertyOp24
 70
     1
102
RTVSPropertyOp25
 70
     1
102
RTVSPropertyOp26
 70
     1
102
RTVSPropertyOp27
 70
     1
102
RTVSPropertyOp28
 70
     1
102
RTVSPropertyOp29
 70
     1
102
RTVSPropertyOp30
 70
     1
102
RTVSPropertyOp31
 70
     1
102
RTVSPropertyOp32
 70
     1
102
RTVSPropertyOp33
 70
     1
102
RTVSPropertyOp34
 70
     1
102
RTVSPropertyOp35
 70
     1
102
RTVSPropertyOp36
 70
     1
102
RTVSPropertyOp37
 70
     1
102
RTVSPropertyOp38
 70
     1
102
RTVSPropertyOp39
 70
     1
102
RTVSPropertyOp40
 70
     1
102
RTVSPropertyOp41
 70
     1
102
RTVSPropertyOp42
 70
     1
102
RTVSPropertyOp43
 70
     1
102
RTVSPropertyOp44
 70
     1
102
RTVSPropertyOp45
 70
     1
102
RTVSPropertyOp46
 70
     1
102
RTVSPropertyOp47
 70
     1
102
RTVSPropertyOp48
 70
     1
102
RTVSPropertyOp49
 70
     1
102
RTVSPropertyOp50
 70
     1
102
RTVSPropertyOp51
 70
     0
102
RTVSPropertyOp52
 70
     0
102
RTVSPropertyOp53
 70
     1
102
RTVSPropertyOp54
 70
     1
102
RTVSPropertyOp55
 70
     1
102
RTVSPropertyOp56
 70
     1
102
RTVSPropertyOp57
 70
     1
102
RTVSPost2010Prop28
280
     0
102
RTVSPost2010PropOp28
 70
     1
102
RTVSPost2010Prop29
280
     1
102
RTVSPost2010PropOp29
 70
     1
102
RTVSPost2010Prop30
280
     1
102
RTVSPost2010PropOp30
 70
     1
102
RTVSPost2010Prop31
280
     0
102
RTVSPost2010PropOp31
 70
     1
102
RTVSPost2010Prop32
280
     0
102
RTVSPost2010PropOp32
 70
     1
102
RTVSPost2010Prop33
280
     0
102
RTVSPost2010PropOp33
 70
     1
102
RTVSPost2010Prop34
280
     0
102
RTVSPost2010PropOp34
 70
     1
102
RTVSPost2010Prop35
280
     0
102
RTVSPost2010PropOp35
 70
     1
102
RTVSPost2010Prop36
280
     0
102
RTVSPost2010PropOp36
 70
     1
102
RTVSPost2010Prop37
 90
       50
102
RTVSPost2010PropOp37
 70
     1
102
RTVSPost2010Prop38
140
0.0
102
RTVSPost2010PropOp38
 70
     1
102
RTVSPost2010Prop39
140
1.0
102
RTVSPost2010PropOp39
 70
     1
102
RTVSPost2010Prop40
 90
        0
102
RTVSPost2010PropOp40
 70
     1
102
RTVSPost2010Prop41ColorIndex
 90
      178
102
RTVSPost2010Prop41ColorRGB
 90
        0
102
RTVSPost2010PropOp41
 70
     1
102
RTVSPost2010Prop42
 90
       50
102
RTVSPost2010PropOp42
 70
     1
102
RTVSPost2010Prop43
 90
        3
102
RTVSPost2010PropOp43
 70
     1
102
RTVSPost2010Prop44ColorIndex
 90
        5
102
RTVSPost2010Prop44ColorRGB
 90
      255
102
RTVSPost2010PropOp44
 70
     1
102
RTVSPost2010Prop45
280
     0
102
RTVSPost2010PropOp45
 70
     1
102
RTVSPost2010Prop46
 90
       50
102
RTVSPost2010PropOp46
 70
     1
102
RTVSPost2010Prop47
 90
       50
102
RTVSPost2010PropOp47
 70
     1
102
RTVSPost2010Prop48
 90
       50
102
RTVSPost2010PropOp48
 70
     1
102
RTVSPost2010Prop49
280
     0
102
RTVSPost2010PropOp49
 70
     1
102
RTVSPost2010Prop50
 90
       50
102
RTVSPost2010PropOp50
 70
     1
102
RTVSPost2010Prop51ColorIndex
 90
      256
102
RTVSPost2010Prop51ColorRGB
 90
-16777216
102
RTVSPost2010PropOp51
 70
     0
102
RTVSPost2010Prop52
140
1.0
102
RTVSPost2010PropOp52
 70
     0
102
RTVSPost2010Prop53
 90
        2
102
RTVSPost2010PropOp53
 70
     1
102
RTVSPost2010Prop54
  1
strokes_ogs.tif
102
RTVSPost2010PropOp54
 70
     1
102
RTVSPost2010Prop55
280
     0
102
RTVSPost2010PropOp55
 70
     1
102
RTVSPost2010Prop56
140
1.0
102
RTVSPost2010PropOp56
 70
     1
102
RTVSPost2010Prop57
140
1.0
102
RTVSPost2010PropOp57
 70
     1
  0
XRECORD
  5
3D4
102
{ACAD_REACTORS
330
3D3
102
}
330
3D3
100
AcDbXrecord
280
     1
102
RTVSPropertyOp0
 70
     0
102
RTVSPropertyOp1
 70
     0
102
RTVSPropertyOp2
 70
     0
102
RTVSPropertyOp3
 70
     0
102
RTVSPropertyOp4
 70
     0
102
RTVSPropertyOp5
 70
     0
102
RTVSPropertyOp6
 70
     0
102
RTVSPropertyOp7
 70
     0
102
RTVSPropertyOp8
 70
     0
102
RTVSPropertyOp9
 70
     0
102
RTVSPropertyOp10
 70
     0
102
RTVSPropertyOp11
 70
     0
102
RTVSPropertyOp12
 70
     0
102
RTVSPropertyOp13
 70
     0
102
RTVSPropertyOp14
 70
     2
102
RTVSPropertyOp15
 70
     0
102
RTVSPropertyOp16
 70
     0
102
RTVSPropertyOp17
 70
     0
102
RTVSPropertyOp18
 70
     0
102
RTVSPropertyOp19
 70
     0
102
RTVSPropertyOp20
 70
     0
102
RTVSPropertyOp21
 70
     0
102
RTVSPropertyOp22
 70
     0
102
RTVSPropertyOp23
 70
     0
102
RTVSPropertyOp24
 70
     0
102
RTVSPropertyOp25
 70
     0
102
RTVSPropertyOp26
 70
     0
102
RTVSPropertyOp27
 70
     0
102
RTVSPropertyOp28
 70
     0
102
RTVSPropertyOp29
 70
     0
102
RTVSPropertyOp30
 70
     0
102
RTVSPropertyOp31
 70
     0
102
RTVSPropertyOp32
 70
     0
102
RTVSPropertyOp33
 70
     0
102
RTVSPropertyOp34
 70
     0
102
RTVSPropertyOp35
 70
     0
102
RTVSPropertyOp36
 70
     0
102
RTVSPropertyOp37
 70
     0
102
RTVSPropertyOp38
 70
     0
102
RTVSPropertyOp39
 70
     0
102
RTVSPropertyOp40
 70
     0
102
RTVSPropertyOp41
 70
     0
102
RTVSPropertyOp42
 70
     0
102
RTVSPropertyOp43
 70
     0
102
RTVSPropertyOp44
 70
     0
102
RTVSPropertyOp45
 70
     0
102
RTVSPropertyOp46
 70
     0
102
RTVSPropertyOp47
 70
     0
102
RTVSPropertyOp48
 70
     0
102
RTVSPropertyOp49
 70
     0
102
RTVSPropertyOp50
 70
     0
102
RTVSPropertyOp51
 70
     0
102
RTVSPropertyOp52
 70
     0
102
RTVSPropertyOp53
 70
     0
102
RTVSPropertyOp54
 70
     0
102
RTVSPropertyOp55
 70
     0
102
RTVSPropertyOp56
 70
     0
102
RTVSPropertyOp57
 70
     0
102
RTVSPost2010Prop28
280
     0
102
RTVSPost2010PropOp28
 70
     0
102
RTVSPost2010Prop29
280
     1
102
RTVSPost2010PropOp29
 70
     0
102
RTVSPost2010Prop30
280
     1
102
RTVSPost2010PropOp30
 70
     0
102
RTVSPost2010Prop31
280
     0
102
RTVSPost2010PropOp31
 70
     0
102
RTVSPost2010Prop32
280
     0
102
RTVSPost2010PropOp32
 70
     0
102
RTVSPost2010Prop33
280
     0
102
RTVSPost2010PropOp33
 70
     0
102
RTVSPost2010Prop34
280
     0
102
RTVSPost2010PropOp34
 70
     0
102
RTVSPost2010Prop35
280
     0
102
RTVSPost2010PropOp35
 70
     0
102
RTVSPost2010Prop36
280
     0
102
RTVSPost2010PropOp36
 70
     0
102
RTVSPost2010Prop37
 90
       50
102
RTVSPost2010PropOp37
 70
     0
102
RTVSPost2010Prop38
140
0.0
102
RTVSPost2010PropOp38
 70
     0
102
RTVSPost2010Prop39
140
1.0
102
RTVSPost2010PropOp39
 70
     0
102
RTVSPost2010Prop40
 90
        0
102
RTVSPost2010PropOp40
 70
     0
102
RTVSPost2010Prop41ColorIndex
 90
      178
102
RTVSPost2010Prop41ColorRGB
 90
        0
102
RTVSPost2010PropOp41
 70
     0
102
RTVSPost2010Prop42
 90
       50
102
RTVSPost2010PropOp42
 70
     0
102
RTVSPost2010Prop43
 90
        3
102
RTVSPost2010PropOp43
 70
     0
102
RTVSPost2010Prop44ColorIndex
 90
        5
102
RTVSPost2010Prop44ColorRGB
 90
      255
102
RTVSPost2010PropOp44
 70
     0
102
RTVSPost2010Prop45
280
     0
102
RTVSPost2010PropOp45
 70
     0
102
RTVSPost2010Prop46
 90
       50
102
RTVSPost2010PropOp46
 70
     0
102
RTVSPost2010Prop47
 90
       50
102
RTVSPost2010PropOp47
 70
     0
102
RTVSPost2010Prop48
 90
       50
102
RTVSPost2010PropOp48
 70
     0
102
RTVSPost2010Prop49
280
     0
102
RTVSPost2010PropOp49
 70
     0
102
RTVSPost2010Prop50
 90
       50
102
RTVSPost2010PropOp50
 70
     0
102
RTVSPost2010Prop51ColorIndex
 90
      256
102
RTVSPost2010Prop51ColorRGB
 90
-16777216
102
RTVSPost2010PropOp51
 70
     0
102
RTVSPost2010Prop52
140
1.0
102
RTVSPost2010PropOp52
 70
     0
102
RTVSPost2010Prop53
 90
        2
102
RTVSPost2010PropOp53
 70
     0
102
RTVSPost2010Prop54
  1
strokes_ogs.tif
102
RTVSPost2010PropOp54
 70
     0
102
RTVSPost2010Prop55
280
     0
102
RTVSPost2010PropOp55
 70
     0
102
RTVSPost2010Prop56
140
1.0
102
RTVSPost2010PropOp56
 70
     0
102
RTVSPost2010Prop57
140
1.0
102
RTVSPost2010PropOp57
 70
     0
  0
XRECORD
  5
3C2
102
{ACAD_REACTORS
330
3C1
102
}
330
3C1
100
AcDbXrecord
280
     1
102
RTVSPropertyOp0
 70
     1
102
RTVSPropertyOp1
 70
     1
102
RTVSPropertyOp2
 70
     1
102
RTVSPropertyOp3
 70
     1
102
RTVSPropertyOp4
 70
     1
102
RTVSPropertyOp5
 70
     1
102
RTVSPropertyOp6
 70
     1
102
RTVSPropertyOp7
 70
     1
102
RTVSPropertyOp8
 70
     1
102
RTVSPropertyOp9
 70
     1
102
RTVSPropertyOp10
 70
     1
102
RTVSPropertyOp11
 70
     1
102
RTVSPropertyOp12
 70
     1
102
RTVSPropertyOp13
 70
     1
102
RTVSPropertyOp14
 70
     1
102
RTVSPropertyOp15
 70
     1
102
RTVSPropertyOp16
 70
     1
102
RTVSPropertyOp17
 70
     1
102
RTVSPropertyOp18
 70
     1
102
RTVSPropertyOp19
 70
     1
102
RTVSPropertyOp20
 70
     1
102
RTVSPropertyOp21
 70
     1
102
RTVSPropertyOp22
 70
     1
102
RTVSPropertyOp23
 70
     1
102
RTVSPropertyOp24
 70
     1
102
RTVSPropertyOp25
 70
     1
102
RTVSPropertyOp26
 70
     1
102
RTVSPropertyOp27
 70
     1
102
RTVSPropertyOp28
 70
     1
102
RTVSPropertyOp29
 70
     1
102
RTVSPropertyOp30
 70
     1
102
RTVSPropertyOp31
 70
     1
102
RTVSPropertyOp32
 70
     1
102
RTVSPropertyOp33
 70
     1
102
RTVSPropertyOp34
 70
     1
102
RTVSPropertyOp35
 70
     1
102
RTVSPropertyOp36
 70
     1
102
RTVSPropertyOp37
 70
     1
102
RTVSPropertyOp38
 70
     1
102
RTVSPropertyOp39
 70
     1
102
RTVSPropertyOp40
 70
     1
102
RTVSPropertyOp41
 70
     1
102
RTVSPropertyOp42
 70
     1
102
RTVSPropertyOp43
 70
     1
102
RTVSPropertyOp44
 70
     1
102
RTVSPropertyOp45
 70
     1
102
RTVSPropertyOp46
 70
     1
102
RTVSPropertyOp47
 70
     1
102
RTVSPropertyOp48
 70
     1
102
RTVSPropertyOp49
 70
     1
102
RTVSPropertyOp50
 70
     1
102
RTVSPropertyOp51
 70
     0
102
RTVSPropertyOp52
 70
     0
102
RTVSPropertyOp53
 70
     1
102
RTVSPropertyOp54
 70
     1
102
RTVSPropertyOp55
 70
     1
102
RTVSPropertyOp56
 70
     1
102
RTVSPropertyOp57
 70
     1
102
RTVSPost2010Prop28
280
     0
102
RTVSPost2010PropOp28
 70
     1
102
RTVSPost2010Prop29
280
     1
102
RTVSPost2010PropOp29
 70
     1
102
RTVSPost2010Prop30
280
     1
102
RTVSPost2010PropOp30
 70
     1
102
RTVSPost2010Prop31
280
     0
102
RTVSPost2010PropOp31
 70
     1
102
RTVSPost2010Prop32
280
     0
102
RTVSPost2010PropOp32
 70
     1
102
RTVSPost2010Prop33
280
     0
102
RTVSPost2010PropOp33
 70
     1
102
RTVSPost2010Prop34
280
     0
102
RTVSPost2010PropOp34
 70
     1
102
RTVSPost2010Prop35
280
     0
102
RTVSPost2010PropOp35
 70
     1
102
RTVSPost2010Prop36
280
     0
102
RTVSPost2010PropOp36
 70
     1
102
RTVSPost2010Prop37
 90
       50
102
RTVSPost2010PropOp37
 70
     1
102
RTVSPost2010Prop38
140
0.0
102
RTVSPost2010PropOp38
 70
     1
102
RTVSPost2010Prop39
140
1.0
102
RTVSPost2010PropOp39
 70
     1
102
RTVSPost2010Prop40
 90
        0
102
RTVSPost2010PropOp40
 70
     1
102
RTVSPost2010Prop41ColorIndex
 90
      178
102
RTVSPost2010Prop41ColorRGB
 90
        0
102
RTVSPost2010PropOp41
 70
     1
102
RTVSPost2010Prop42
 90
       50
102
RTVSPost2010PropOp42
 70
     1
102
RTVSPost2010Prop43
 90
        3
102
RTVSPost2010PropOp43
 70
     1
102
RTVSPost2010Prop44ColorIndex
 90
        5
102
RTVSPost2010Prop44ColorRGB
 90
      255
102
RTVSPost2010PropOp44
 70
     1
102
RTVSPost2010Prop45
280
     0
102
RTVSPost2010PropOp45
 70
     1
102
RTVSPost2010Prop46
 90
       50
102
RTVSPost2010PropOp46
 70
     1
102
RTVSPost2010Prop47
 90
       50
102
RTVSPost2010PropOp47
 70
     1
102
RTVSPost2010Prop48
 90
       50
102
RTVSPost2010PropOp48
 70
     1
102
RTVSPost2010Prop49
280
     0
102
RTVSPost2010PropOp49
 70
     1
102
RTVSPost2010Prop50
 90
       50
102
RTVSPost2010PropOp50
 70
     1
102
RTVSPost2010Prop51ColorIndex
 90
      256
102
RTVSPost2010Prop51ColorRGB
 90
-16777216
102
RTVSPost2010PropOp51
 70
     0
102
RTVSPost2010Prop52
140
1.0
102
RTVSPost2010PropOp52
 70
     0
102
RTVSPost2010Prop53
 90
        2
102
RTVSPost2010PropOp53
 70
     1
102
RTVSPost2010Prop54
  1
strokes_ogs.tif
102
RTVSPost2010PropOp54
 70
     1
102
RTVSPost2010Prop55
280
     0
102
RTVSPost2010PropOp55
 70
     1
102
RTVSPost2010Prop56
140
1.0
102
RTVSPost2010PropOp56
 70
     1
102
RTVSPost2010Prop57
140
1.0
102
RTVSPost2010PropOp57
 70
     1
  0
XRECORD
  5
3E0
102
{ACAD_REACTORS
330
3DF
102
}
330
3DF
100
AcDbXrecord
280
     1
102
RTVSPropertyOp0
 70
     1
102
RTVSPropertyOp1
 70
     1
102
RTVSPropertyOp2
 70
     1
102
RTVSPropertyOp3
 70
     1
102
RTVSPropertyOp4
 70
     1
102
RTVSPropertyOp5
 70
     1
102
RTVSPropertyOp6
 70
     1
102
RTVSPropertyOp7
 70
     1
102
RTVSPropertyOp8
 70
     1
102
RTVSPropertyOp9
 70
     1
102
RTVSPropertyOp10
 70
     1
102
RTVSPropertyOp11
 70
     1
102
RTVSPropertyOp12
 70
     1
102
RTVSPropertyOp13
 70
     1
102
RTVSPropertyOp14
 70
     1
102
RTVSPropertyOp15
 70
     1
102
RTVSPropertyOp16
 70
     1
102
RTVSPropertyOp17
 70
     1
102
RTVSPropertyOp18
 70
     1
102
RTVSPropertyOp19
 70
     1
102
RTVSPropertyOp20
 70
     1
102
RTVSPropertyOp21
 70
     1
102
RTVSPropertyOp22
 70
     1
102
RTVSPropertyOp23
 70
     1
102
RTVSPropertyOp24
 70
     1
102
RTVSPropertyOp25
 70
     1
102
RTVSPropertyOp26
 70
     1
102
RTVSPropertyOp27
 70
     1
102
RTVSPropertyOp28
 70
     1
102
RTVSPropertyOp29
 70
     1
102
RTVSPropertyOp30
 70
     1
102
RTVSPropertyOp31
 70
     1
102
RTVSPropertyOp32
 70
     1
102
RTVSPropertyOp33
 70
     1
102
RTVSPropertyOp34
 70
     1
102
RTVSPropertyOp35
 70
     1
102
RTVSPropertyOp36
 70
     1
102
RTVSPropertyOp37
 70
     1
102
RTVSPropertyOp38
 70
     1
102
RTVSPropertyOp39
 70
     1
102
RTVSPropertyOp40
 70
     1
102
RTVSPropertyOp41
 70
     1
102
RTVSPropertyOp42
 70
     1
102
RTVSPropertyOp43
 70
     1
102
RTVSPropertyOp44
 70
     1
102
RTVSPropertyOp45
 70
     1
102
RTVSPropertyOp46
 70
     1
102
RTVSPropertyOp47
 70
     1
102
RTVSPropertyOp48
 70
     1
102
RTVSPropertyOp49
 70
     1
102
RTVSPropertyOp50
 70
     1
102
RTVSPropertyOp51
 70
     0
102
RTVSPropertyOp52
 70
     0
102
RTVSPropertyOp53
 70
     1
102
RTVSPropertyOp54
 70
     1
102
RTVSPropertyOp55
 70
     1
102
RTVSPropertyOp56
 70
     1
102
RTVSPropertyOp57
 70
     1
102
RTVSPost2010Prop28
280
     0
102
RTVSPost2010PropOp28
 70
     1
102
RTVSPost2010Prop29
280
     1
102
RTVSPost2010PropOp29
 70
     1
102
RTVSPost2010Prop30
280
     1
102
RTVSPost2010PropOp30
 70
     1
102
RTVSPost2010Prop31
280
     0
102
RTVSPost2010PropOp31
 70
     1
102
RTVSPost2010Prop32
280
     0
102
RTVSPost2010PropOp32
 70
     1
102
RTVSPost2010Prop33
280
     0
102
RTVSPost2010PropOp33
 70
     1
102
RTVSPost2010Prop34
280
     0
102
RTVSPost2010PropOp34
 70
     1
102
RTVSPost2010Prop35
280
     0
102
RTVSPost2010PropOp35
 70
     1
102
RTVSPost2010Prop36
280
     0
102
RTVSPost2010PropOp36
 70
     1
102
RTVSPost2010Prop37
 90
       50
102
RTVSPost2010PropOp37
 70
     1
102
RTVSPost2010Prop38
140
0.0
102
RTVSPost2010PropOp38
 70
     1
102
RTVSPost2010Prop39
140
1.0
102
RTVSPost2010PropOp39
 70
     1
102
RTVSPost2010Prop40
 90
        0
102
RTVSPost2010PropOp40
 70
     1
102
RTVSPost2010Prop41ColorIndex
 90
      178
102
RTVSPost2010Prop41ColorRGB
 90
        0
102
RTVSPost2010PropOp41
 70
     1
102
RTVSPost2010Prop42
 90
       50
102
RTVSPost2010PropOp42
 70
     1
102
RTVSPost2010Prop43
 90
        3
102
RTVSPost2010PropOp43
 70
     1
102
RTVSPost2010Prop44ColorIndex
 90
        5
102
RTVSPost2010Prop44ColorRGB
 90
      255
102
RTVSPost2010PropOp44
 70
     1
102
RTVSPost2010Prop45
280
     0
102
RTVSPost2010PropOp45
 70
     1
102
RTVSPost2010Prop46
 90
       50
102
RTVSPost2010PropOp46
 70
     1
102
RTVSPost2010Prop47
 90
       50
102
RTVSPost2010PropOp47
 70
     1
102
RTVSPost2010Prop48
 90
       50
102
RTVSPost2010PropOp48
 70
     1
102
RTVSPost2010Prop49
280
     0
102
RTVSPost2010PropOp49
 70
     1
102
RTVSPost2010Prop50
 90
       50
102
RTVSPost2010PropOp50
 70
     1
102
RTVSPost2010Prop51ColorIndex
 90
      256
102
RTVSPost2010Prop51ColorRGB
 90
-16777216
102
RTVSPost2010PropOp51
 70
     0
102
RTVSPost2010Prop52
140
1.0
102
RTVSPost2010PropOp52
 70
     0
102
RTVSPost2010Prop53
 90
        2
102
RTVSPost2010PropOp53
 70
     1
102
RTVSPost2010Prop54
  1
strokes_ogs.tif
102
RTVSPost2010PropOp54
 70
     1
102
RTVSPost2010Prop55
280
     0
102
RTVSPost2010PropOp55
 70
     1
102
RTVSPost2010Prop56
140
1.0
102
RTVSPost2010PropOp56
 70
     1
102
RTVSPost2010Prop57
140
1.0
102
RTVSPost2010PropOp57
 70
     1
  0
XRECORD
  5
3DE
102
{ACAD_REACTORS
330
3DD
102
}
330
3DD
100
AcDbXrecord
280
     1
102
RTVSPropertyOp0
 70
     1
102
RTVSPropertyOp1
 70
     1
102
RTVSPropertyOp2
 70
     1
102
RTVSPropertyOp3
 70
     1
102
RTVSPropertyOp4
 70
     1
102
RTVSPropertyOp5
 70
     1
102
RTVSPropertyOp6
 70
     1
102
RTVSPropertyOp7
 70
     1
102
RTVSPropertyOp8
 70
     1
102
RTVSPropertyOp9
 70
     1
102
RTVSPropertyOp10
 70
     1
102
RTVSPropertyOp11
 70
     1
102
RTVSPropertyOp12
 70
     1
102
RTVSPropertyOp13
 70
     1
102
RTVSPropertyOp14
 70
     1
102
RTVSPropertyOp15
 70
     1
102
RTVSPropertyOp16
 70
     1
102
RTVSPropertyOp17
 70
     1
102
RTVSPropertyOp18
 70
     1
102
RTVSPropertyOp19
 70
     1
102
RTVSPropertyOp20
 70
     1
102
RTVSPropertyOp21
 70
     1
102
RTVSPropertyOp22
 70
     1
102
RTVSPropertyOp23
 70
     1
102
RTVSPropertyOp24
 70
     1
102
RTVSPropertyOp25
 70
     1
102
RTVSPropertyOp26
 70
     1
102
RTVSPropertyOp27
 70
     1
102
RTVSPropertyOp28
 70
     1
102
RTVSPropertyOp29
 70
     1
102
RTVSPropertyOp30
 70
     1
102
RTVSPropertyOp31
 70
     1
102
RTVSPropertyOp32
 70
     1
102
RTVSPropertyOp33
 70
     1
102
RTVSPropertyOp34
 70
     1
102
RTVSPropertyOp35
 70
     1
102
RTVSPropertyOp36
 70
     1
102
RTVSPropertyOp37
 70
     1
102
RTVSPropertyOp38
 70
     1
102
RTVSPropertyOp39
 70
     1
102
RTVSPropertyOp40
 70
     1
102
RTVSPropertyOp41
 70
     1
102
RTVSPropertyOp42
 70
     1
102
RTVSPropertyOp43
 70
     1
102
RTVSPropertyOp44
 70
     1
102
RTVSPropertyOp45
 70
     1
102
RTVSPropertyOp46
 70
     1
102
RTVSPropertyOp47
 70
     1
102
RTVSPropertyOp48
 70
     1
102
RTVSPropertyOp49
 70
     1
102
RTVSPropertyOp50
 70
     1
102
RTVSPropertyOp51
 70
     0
102
RTVSPropertyOp52
 70
     0
102
RTVSPropertyOp53
 70
     1
102
RTVSPropertyOp54
 70
     1
102
RTVSPropertyOp55
 70
     1
102
RTVSPropertyOp56
 70
     1
102
RTVSPropertyOp57
 70
     1
102
RTVSPost2010Prop28
280
     0
102
RTVSPost2010PropOp28
 70
     1
102
RTVSPost2010Prop29
280
     1
102
RTVSPost2010PropOp29
 70
     1
102
RTVSPost2010Prop30
280
     1
102
RTVSPost2010PropOp30
 70
     1
102
RTVSPost2010Prop31
280
     0
102
RTVSPost2010PropOp31
 70
     1
102
RTVSPost2010Prop32
280
     0
102
RTVSPost2010PropOp32
 70
     1
102
RTVSPost2010Prop33
280
     0
102
RTVSPost2010PropOp33
 70
     1
102
RTVSPost2010Prop34
280
     0
102
RTVSPost2010PropOp34
 70
     1
102
RTVSPost2010Prop35
280
     0
102
RTVSPost2010PropOp35
 70
     1
102
RTVSPost2010Prop36
280
     0
102
RTVSPost2010PropOp36
 70
     1
102
RTVSPost2010Prop37
 90
       50
102
RTVSPost2010PropOp37
 70
     1
102
RTVSPost2010Prop38
140
0.0
102
RTVSPost2010PropOp38
 70
     1
102
RTVSPost2010Prop39
140
1.0
102
RTVSPost2010PropOp39
 70
     1
102
RTVSPost2010Prop40
 90
        0
102
RTVSPost2010PropOp40
 70
     1
102
RTVSPost2010Prop41ColorIndex
 90
      178
102
RTVSPost2010Prop41ColorRGB
 90
        0
102
RTVSPost2010PropOp41
 70
     1
102
RTVSPost2010Prop42
 90
       50
102
RTVSPost2010PropOp42
 70
     1
102
RTVSPost2010Prop43
 90
        3
102
RTVSPost2010PropOp43
 70
     1
102
RTVSPost2010Prop44ColorIndex
 90
        5
102
RTVSPost2010Prop44ColorRGB
 90
      255
102
RTVSPost2010PropOp44
 70
     1
102
RTVSPost2010Prop45
280
     0
102
RTVSPost2010PropOp45
 70
     1
102
RTVSPost2010Prop46
 90
       50
102
RTVSPost2010PropOp46
 70
     1
102
RTVSPost2010Prop47
 90
       50
102
RTVSPost2010PropOp47
 70
     1
102
RTVSPost2010Prop48
 90
       50
102
RTVSPost2010PropOp48
 70
     1
102
RTVSPost2010Prop49
280
     0
102
RTVSPost2010PropOp49
 70
     1
102
RTVSPost2010Prop50
 90
       50
102
RTVSPost2010PropOp50
 70
     1
102
RTVSPost2010Prop51ColorIndex
 90
      256
102
RTVSPost2010Prop51ColorRGB
 90
-16777216
102
RTVSPost2010PropOp51
 70
     0
102
RTVSPost2010Prop52
140
1.0
102
RTVSPost2010PropOp52
 70
     0
102
RTVSPost2010Prop53
 90
        2
102
RTVSPost2010PropOp53
 70
     1
102
RTVSPost2010Prop54
  1
strokes_ogs.tif
102
RTVSPost2010PropOp54
 70
     1
102
RTVSPost2010Prop55
280
     0
102
RTVSPost2010PropOp55
 70
     1
102
RTVSPost2010Prop56
140
1.0
102
RTVSPost2010PropOp56
 70
     1
102
RTVSPost2010Prop57
140
1.0
102
RTVSPost2010PropOp57
 70
     1
  0
XRECORD
  5
3D8
102
{ACAD_REACTORS
330
3D7
102
}
330
3D7
100
AcDbXrecord
280
     1
102
RTVSPropertyOp0
 70
     1
102
RTVSPropertyOp1
 70
     1
102
RTVSPropertyOp2
 70
     1
102
RTVSPropertyOp3
 70
     1
102
RTVSPropertyOp4
 70
     1
102
RTVSPropertyOp5
 70
     1
102
RTVSPropertyOp6
 70
     1
102
RTVSPropertyOp7
 70
     1
102
RTVSPropertyOp8
 70
     1
102
RTVSPropertyOp9
 70
     1
102
RTVSPropertyOp10
 70
     1
102
RTVSPropertyOp11
 70
     1
102
RTVSPropertyOp12
 70
     1
102
RTVSPropertyOp13
 70
     1
102
RTVSPropertyOp14
 70
     1
102
RTVSPropertyOp15
 70
     1
102
RTVSPropertyOp16
 70
     1
102
RTVSPropertyOp17
 70
     1
102
RTVSPropertyOp18
 70
     1
102
RTVSPropertyOp19
 70
     1
102
RTVSPropertyOp20
 70
     1
102
RTVSPropertyOp21
 70
     1
102
RTVSPropertyOp22
 70
     1
102
RTVSPropertyOp23
 70
     1
102
RTVSPropertyOp24
 70
     1
102
RTVSPropertyOp25
 70
     1
102
RTVSPropertyOp26
 70
     1
102
RTVSPropertyOp27
 70
     1
102
RTVSPropertyOp28
 70
     1
102
RTVSPropertyOp29
 70
     1
102
RTVSPropertyOp30
 70
     1
102
RTVSPropertyOp31
 70
     1
102
RTVSPropertyOp32
 70
     1
102
RTVSPropertyOp33
 70
     1
102
RTVSPropertyOp34
 70
     1
102
RTVSPropertyOp35
 70
     1
102
RTVSPropertyOp36
 70
     1
102
RTVSPropertyOp37
 70
     1
102
RTVSPropertyOp38
 70
     1
102
RTVSPropertyOp39
 70
     1
102
RTVSPropertyOp40
 70
     1
102
RTVSPropertyOp41
 70
     1
102
RTVSPropertyOp42
 70
     1
102
RTVSPropertyOp43
 70
     1
102
RTVSPropertyOp44
 70
     1
102
RTVSPropertyOp45
 70
     1
102
RTVSPropertyOp46
 70
     1
102
RTVSPropertyOp47
 70
     1
102
RTVSPropertyOp48
 70
     1
102
RTVSPropertyOp49
 70
     1
102
RTVSPropertyOp50
 70
     1
102
RTVSPropertyOp51
 70
     0
102
RTVSPropertyOp52
 70
     0
102
RTVSPropertyOp53
 70
     1
102
RTVSPropertyOp54
 70
     1
102
RTVSPropertyOp55
 70
     1
102
RTVSPropertyOp56
 70
     1
102
RTVSPropertyOp57
 70
     1
102
RTVSPost2010Prop28
280
     0
102
RTVSPost2010PropOp28
 70
     1
102
RTVSPost2010Prop29
280
     1
102
RTVSPost2010PropOp29
 70
     1
102
RTVSPost2010Prop30
280
     1
102
RTVSPost2010PropOp30
 70
     1
102
RTVSPost2010Prop31
280
     0
102
RTVSPost2010PropOp31
 70
     1
102
RTVSPost2010Prop32
280
     0
102
RTVSPost2010PropOp32
 70
     1
102
RTVSPost2010Prop33
280
     0
102
RTVSPost2010PropOp33
 70
     1
102
RTVSPost2010Prop34
280
     0
102
RTVSPost2010PropOp34
 70
     1
102
RTVSPost2010Prop35
280
     0
102
RTVSPost2010PropOp35
 70
     1
102
RTVSPost2010Prop36
280
     0
102
RTVSPost2010PropOp36
 70
     1
102
RTVSPost2010Prop37
 90
       50
102
RTVSPost2010PropOp37
 70
     1
102
RTVSPost2010Prop38
140
0.0
102
RTVSPost2010PropOp38
 70
     1
102
RTVSPost2010Prop39
140
1.0
102
RTVSPost2010PropOp39
 70
     1
102
RTVSPost2010Prop40
 90
        0
102
RTVSPost2010PropOp40
 70
     1
102
RTVSPost2010Prop41ColorIndex
 90
      178
102
RTVSPost2010Prop41ColorRGB
 90
        0
102
RTVSPost2010PropOp41
 70
     1
102
RTVSPost2010Prop42
 90
       50
102
RTVSPost2010PropOp42
 70
     1
102
RTVSPost2010Prop43
 90
        3
102
RTVSPost2010PropOp43
 70
     1
102
RTVSPost2010Prop44ColorIndex
 90
        5
102
RTVSPost2010Prop44ColorRGB
 90
      255
102
RTVSPost2010PropOp44
 70
     1
102
RTVSPost2010Prop45
280
     0
102
RTVSPost2010PropOp45
 70
     1
102
RTVSPost2010Prop46
 90
       50
102
RTVSPost2010PropOp46
 70
     1
102
RTVSPost2010Prop47
 90
       50
102
RTVSPost2010PropOp47
 70
     1
102
RTVSPost2010Prop48
 90
       50
102
RTVSPost2010PropOp48
 70
     1
102
RTVSPost2010Prop49
280
     0
102
RTVSPost2010PropOp49
 70
     1
102
RTVSPost2010Prop50
 90
       50
102
RTVSPost2010PropOp50
 70
     1
102
RTVSPost2010Prop51ColorIndex
 90
      256
102
RTVSPost2010Prop51ColorRGB
 90
-16777216
102
RTVSPost2010PropOp51
 70
     0
102
RTVSPost2010Prop52
140
1.0
102
RTVSPost2010PropOp52
 70
     0
102
RTVSPost2010Prop53
 90
        2
102
RTVSPost2010PropOp53
 70
     1
102
RTVSPost2010Prop54
  1
strokes_ogs.tif
102
RTVSPost2010PropOp54
 70
     1
102
RTVSPost2010Prop55
280
     0
102
RTVSPost2010PropOp55
 70
     1
102
RTVSPost2010Prop56
140
1.0
102
RTVSPost2010PropOp56
 70
     1
102
RTVSPost2010Prop57
140
1.0
102
RTVSPost2010PropOp57
 70
     1
  0
XRECORD
  5
3DA
102
{ACAD_REACTORS
330
3D9
102
}
330
3D9
100
AcDbXrecord
280
     1
102
RTVSPropertyOp0
 70
     1
102
RTVSPropertyOp1
 70
     1
102
RTVSPropertyOp2
 70
     1
102
RTVSPropertyOp3
 70
     1
102
RTVSPropertyOp4
 70
     1
102
RTVSPropertyOp5
 70
     1
102
RTVSPropertyOp6
 70
     1
102
RTVSPropertyOp7
 70
     1
102
RTVSPropertyOp8
 70
     1
102
RTVSPropertyOp9
 70
     1
102
RTVSPropertyOp10
 70
     1
102
RTVSPropertyOp11
 70
     1
102
RTVSPropertyOp12
 70
     1
102
RTVSPropertyOp13
 70
     1
102
RTVSPropertyOp14
 70
     1
102
RTVSPropertyOp15
 70
     1
102
RTVSPropertyOp16
 70
     1
102
RTVSPropertyOp17
 70
     1
102
RTVSPropertyOp18
 70
     1
102
RTVSPropertyOp19
 70
     1
102
RTVSPropertyOp20
 70
     1
102
RTVSPropertyOp21
 70
     1
102
RTVSPropertyOp22
 70
     1
102
RTVSPropertyOp23
 70
     1
102
RTVSPropertyOp24
 70
     1
102
RTVSPropertyOp25
 70
     1
102
RTVSPropertyOp26
 70
     1
102
RTVSPropertyOp27
 70
     1
102
RTVSPropertyOp28
 70
     1
102
RTVSPropertyOp29
 70
     1
102
RTVSPropertyOp30
 70
     1
102
RTVSPropertyOp31
 70
     1
102
RTVSPropertyOp32
 70
     1
102
RTVSPropertyOp33
 70
     1
102
RTVSPropertyOp34
 70
     1
102
RTVSPropertyOp35
 70
     1
102
RTVSPropertyOp36
 70
     1
102
RTVSPropertyOp37
 70
     1
102
RTVSPropertyOp38
 70
     1
102
RTVSPropertyOp39
 70
     1
102
RTVSPropertyOp40
 70
     1
102
RTVSPropertyOp41
 70
     1
102
RTVSPropertyOp42
 70
     1
102
RTVSPropertyOp43
 70
     1
102
RTVSPropertyOp44
 70
     1
102
RTVSPropertyOp45
 70
     1
102
RTVSPropertyOp46
 70
     1
102
RTVSPropertyOp47
 70
     1
102
RTVSPropertyOp48
 70
     1
102
RTVSPropertyOp49
 70
     1
102
RTVSPropertyOp50
 70
     1
102
RTVSPropertyOp51
 70
     0
102
RTVSPropertyOp52
 70
     0
102
RTVSPropertyOp53
 70
     1
102
RTVSPropertyOp54
 70
     1
102
RTVSPropertyOp55
 70
     1
102
RTVSPropertyOp56
 70
     1
102
RTVSPropertyOp57
 70
     1
102
RTVSPost2010Prop28
280
     0
102
RTVSPost2010PropOp28
 70
     1
102
RTVSPost2010Prop29
280
     1
102
RTVSPost2010PropOp29
 70
     1
102
RTVSPost2010Prop30
280
     1
102
RTVSPost2010PropOp30
 70
     1
102
RTVSPost2010Prop31
280
     0
102
RTVSPost2010PropOp31
 70
     1
102
RTVSPost2010Prop32
280
     0
102
RTVSPost2010PropOp32
 70
     1
102
RTVSPost2010Prop33
280
     0
102
RTVSPost2010PropOp33
 70
     1
102
RTVSPost2010Prop34
280
     0
102
RTVSPost2010PropOp34
 70
     1
102
RTVSPost2010Prop35
280
     0
102
RTVSPost2010PropOp35
 70
     1
102
RTVSPost2010Prop36
280
     0
102
RTVSPost2010PropOp36
 70
     1
102
RTVSPost2010Prop37
 90
       50
102
RTVSPost2010PropOp37
 70
     1
102
RTVSPost2010Prop38
140
0.0
102
RTVSPost2010PropOp38
 70
     1
102
RTVSPost2010Prop39
140
1.0
102
RTVSPost2010PropOp39
 70
     1
102
RTVSPost2010Prop40
 90
        0
102
RTVSPost2010PropOp40
 70
     1
102
RTVSPost2010Prop41ColorIndex
 90
      178
102
RTVSPost2010Prop41ColorRGB
 90
        0
102
RTVSPost2010PropOp41
 70
     1
102
RTVSPost2010Prop42
 90
       50
102
RTVSPost2010PropOp42
 70
     1
102
RTVSPost2010Prop43
 90
        3
102
RTVSPost2010PropOp43
 70
     1
102
RTVSPost2010Prop44ColorIndex
 90
        5
102
RTVSPost2010Prop44ColorRGB
 90
      255
102
RTVSPost2010PropOp44
 70
     1
102
RTVSPost2010Prop45
280
     0
102
RTVSPost2010PropOp45
 70
     1
102
RTVSPost2010Prop46
 90
       50
102
RTVSPost2010PropOp46
 70
     1
102
RTVSPost2010Prop47
 90
       50
102
RTVSPost2010PropOp47
 70
     1
102
RTVSPost2010Prop48
 90
       50
102
RTVSPost2010PropOp48
 70
     1
102
RTVSPost2010Prop49
280
     0
102
RTVSPost2010PropOp49
 70
     1
102
RTVSPost2010Prop50
 90
       50
102
RTVSPost2010PropOp50
 70
     1
102
RTVSPost2010Prop51ColorIndex
 90
      256
102
RTVSPost2010Prop51ColorRGB
 90
-16777216
102
RTVSPost2010PropOp51
 70
     0
102
RTVSPost2010Prop52
140
1.0
102
RTVSPost2010PropOp52
 70
     0
102
RTVSPost2010Prop53
 90
        2
102
RTVSPost2010PropOp53
 70
     1
102
RTVSPost2010Prop54
  1
strokes_ogs.tif
102
RTVSPost2010PropOp54
 70
     1
102
RTVSPost2010Prop55
280
     0
102
RTVSPost2010PropOp55
 70
     1
102
RTVSPost2010Prop56
140
1.0
102
RTVSPost2010PropOp56
 70
     1
102
RTVSPost2010Prop57
140
1.0
102
RTVSPost2010PropOp57
 70
     1
  0
XRECORD
  5
3CA
102
{ACAD_REACTORS
330
3C9
102
}
330
3C9
100
AcDbXrecord
280
     1
102
RTVSPropertyOp0
 70
     1
102
RTVSPropertyOp1
 70
     1
102
RTVSPropertyOp2
 70
     1
102
RTVSPropertyOp3
 70
     1
102
RTVSPropertyOp4
 70
     1
102
RTVSPropertyOp5
 70
     1
102
RTVSPropertyOp6
 70
     1
102
RTVSPropertyOp7
 70
     1
102
RTVSPropertyOp8
 70
     1
102
RTVSPropertyOp9
 70
     1
102
RTVSPropertyOp10
 70
     1
102
RTVSPropertyOp11
 70
     1
102
RTVSPropertyOp12
 70
     1
102
RTVSPropertyOp13
 70
     1
102
RTVSPropertyOp14
 70
     1
102
RTVSPropertyOp15
 70
     1
102
RTVSPropertyOp16
 70
     1
102
RTVSPropertyOp17
 70
     1
102
RTVSPropertyOp18
 70
     1
102
RTVSPropertyOp19
 70
     1
102
RTVSPropertyOp20
 70
     1
102
RTVSPropertyOp21
 70
     1
102
RTVSPropertyOp22
 70
     1
102
RTVSPropertyOp23
 70
     1
102
RTVSPropertyOp24
 70
     1
102
RTVSPropertyOp25
 70
     1
102
RTVSPropertyOp26
 70
     1
102
RTVSPropertyOp27
 70
     1
102
RTVSPropertyOp28
 70
     1
102
RTVSPropertyOp29
 70
     1
102
RTVSPropertyOp30
 70
     1
102
RTVSPropertyOp31
 70
     1
102
RTVSPropertyOp32
 70
     1
102
RTVSPropertyOp33
 70
     1
102
RTVSPropertyOp34
 70
     1
102
RTVSPropertyOp35
 70
     1
102
RTVSPropertyOp36
 70
     1
102
RTVSPropertyOp37
 70
     1
102
RTVSPropertyOp38
 70
     1
102
RTVSPropertyOp39
 70
     1
102
RTVSPropertyOp40
 70
     1
102
RTVSPropertyOp41
 70
     1
102
RTVSPropertyOp42
 70
     1
102
RTVSPropertyOp43
 70
     1
102
RTVSPropertyOp44
 70
     1
102
RTVSPropertyOp45
 70
     1
102
RTVSPropertyOp46
 70
     1
102
RTVSPropertyOp47
 70
     1
102
RTVSPropertyOp48
 70
     1
102
RTVSPropertyOp49
 70
     1
102
RTVSPropertyOp50
 70
     1
102
RTVSPropertyOp51
 70
     0
102
RTVSPropertyOp52
 70
     0
102
RTVSPropertyOp53
 70
     1
102
RTVSPropertyOp54
 70
     1
102
RTVSPropertyOp55
 70
     1
102
RTVSPropertyOp56
 70
     1
102
RTVSPropertyOp57
 70
     1
102
RTVSPost2010Prop28
280
     0
102
RTVSPost2010PropOp28
 70
     1
102
RTVSPost2010Prop29
280
     1
102
RTVSPost2010PropOp29
 70
     1
102
RTVSPost2010Prop30
280
     1
102
RTVSPost2010PropOp30
 70
     1
102
RTVSPost2010Prop31
280
     0
102
RTVSPost2010PropOp31
 70
     1
102
RTVSPost2010Prop32
280
     0
102
RTVSPost2010PropOp32
 70
     1
102
RTVSPost2010Prop33
280
     0
102
RTVSPost2010PropOp33
 70
     1
102
RTVSPost2010Prop34
280
     0
102
RTVSPost2010PropOp34
 70
     1
102
RTVSPost2010Prop35
280
     0
102
RTVSPost2010PropOp35
 70
     1
102
RTVSPost2010Prop36
280
     0
102
RTVSPost2010PropOp36
 70
     1
102
RTVSPost2010Prop37
 90
       50
102
RTVSPost2010PropOp37
 70
     1
102
RTVSPost2010Prop38
140
0.0
102
RTVSPost2010PropOp38
 70
     1
102
RTVSPost2010Prop39
140
1.0
102
RTVSPost2010PropOp39
 70
     1
102
RTVSPost2010Prop40
 90
        0
102
RTVSPost2010PropOp40
 70
     1
102
RTVSPost2010Prop41ColorIndex
 90
      178
102
RTVSPost2010Prop41ColorRGB
 90
        0
102
RTVSPost2010PropOp41
 70
     1
102
RTVSPost2010Prop42
 90
       50
102
RTVSPost2010PropOp42
 70
     1
102
RTVSPost2010Prop43
 90
        3
102
RTVSPost2010PropOp43
 70
     1
102
RTVSPost2010Prop44ColorIndex
 90
        5
102
RTVSPost2010Prop44ColorRGB
 90
      255
102
RTVSPost2010PropOp44
 70
     1
102
RTVSPost2010Prop45
280
     0
102
RTVSPost2010PropOp45
 70
     1
102
RTVSPost2010Prop46
 90
       50
102
RTVSPost2010PropOp46
 70
     1
102
RTVSPost2010Prop47
 90
       50
102
RTVSPost2010PropOp47
 70
     1
102
RTVSPost2010Prop48
 90
       50
102
RTVSPost2010PropOp48
 70
     1
102
RTVSPost2010Prop49
280
     0
102
RTVSPost2010PropOp49
 70
     1
102
RTVSPost2010Prop50
 90
       50
102
RTVSPost2010PropOp50
 70
     1
102
RTVSPost2010Prop51ColorIndex
 90
      256
102
RTVSPost2010Prop51ColorRGB
 90
-16777216
102
RTVSPost2010PropOp51
 70
     0
102
RTVSPost2010Prop52
140
1.0
102
RTVSPost2010PropOp52
 70
     0
102
RTVSPost2010Prop53
 90
        2
102
RTVSPost2010PropOp53
 70
     1
102
RTVSPost2010Prop54
  1
strokes_ogs.tif
102
RTVSPost2010PropOp54
 70
     1
102
RTVSPost2010Prop55
280
     0
102
RTVSPost2010PropOp55
 70
     1
102
RTVSPost2010Prop56
140
1.0
102
RTVSPost2010PropOp56
 70
     1
102
RTVSPost2010Prop57
140
1.0
102
RTVSPost2010PropOp57
 70
     1
  0
XRECORD
  5
3BC
102
{ACAD_REACTORS
330
3BB
102
}
330
3BB
100
AcDbXrecord
280
     1
102
RTVSPropertyOp0
 70
     1
102
RTVSPropertyOp1
 70
     1
102
RTVSPropertyOp2
 70
     1
102
RTVSPropertyOp3
 70
     1
102
RTVSPropertyOp4
 70
     1
102
RTVSPropertyOp5
 70
     1
102
RTVSPropertyOp6
 70
     1
102
RTVSPropertyOp7
 70
     1
102
RTVSPropertyOp8
 70
     1
102
RTVSPropertyOp9
 70
     1
102
RTVSPropertyOp10
 70
     1
102
RTVSPropertyOp11
 70
     1
102
RTVSPropertyOp12
 70
     1
102
RTVSPropertyOp13
 70
     1
102
RTVSPropertyOp14
 70
     1
102
RTVSPropertyOp15
 70
     1
102
RTVSPropertyOp16
 70
     1
102
RTVSPropertyOp17
 70
     1
102
RTVSPropertyOp18
 70
     1
102
RTVSPropertyOp19
 70
     1
102
RTVSPropertyOp20
 70
     1
102
RTVSPropertyOp21
 70
     1
102
RTVSPropertyOp22
 70
     1
102
RTVSPropertyOp23
 70
     1
102
RTVSPropertyOp24
 70
     1
102
RTVSPropertyOp25
 70
     1
102
RTVSPropertyOp26
 70
     1
102
RTVSPropertyOp27
 70
     1
102
RTVSPropertyOp28
 70
     1
102
RTVSPropertyOp29
 70
     1
102
RTVSPropertyOp30
 70
     1
102
RTVSPropertyOp31
 70
     1
102
RTVSPropertyOp32
 70
     1
102
RTVSPropertyOp33
 70
     1
102
RTVSPropertyOp34
 70
     1
102
RTVSPropertyOp35
 70
     1
102
RTVSPropertyOp36
 70
     1
102
RTVSPropertyOp37
 70
     1
102
RTVSPropertyOp38
 70
     1
102
RTVSPropertyOp39
 70
     1
102
RTVSPropertyOp40
 70
     1
102
RTVSPropertyOp41
 70
     1
102
RTVSPropertyOp42
 70
     1
102
RTVSPropertyOp43
 70
     1
102
RTVSPropertyOp44
 70
     1
102
RTVSPropertyOp45
 70
     1
102
RTVSPropertyOp46
 70
     1
102
RTVSPropertyOp47
 70
     1
102
RTVSPropertyOp48
 70
     1
102
RTVSPropertyOp49
 70
     1
102
RTVSPropertyOp50
 70
     1
102
RTVSPropertyOp51
 70
     0
102
RTVSPropertyOp52
 70
     0
102
RTVSPropertyOp53
 70
     1
102
RTVSPropertyOp54
 70
     1
102
RTVSPropertyOp55
 70
     1
102
RTVSPropertyOp56
 70
     1
102
RTVSPropertyOp57
 70
     1
102
RTVSPost2010Prop28
280
     0
102
RTVSPost2010PropOp28
 70
     1
102
RTVSPost2010Prop29
280
     1
102
RTVSPost2010PropOp29
 70
     1
102
RTVSPost2010Prop30
280
     1
102
RTVSPost2010PropOp30
 70
     1
102
RTVSPost2010Prop31
280
     0
102
RTVSPost2010PropOp31
 70
     1
102
RTVSPost2010Prop32
280
     0
102
RTVSPost2010PropOp32
 70
     1
102
RTVSPost2010Prop33
280
     0
102
RTVSPost2010PropOp33
 70
     1
102
RTVSPost2010Prop34
280
     0
102
RTVSPost2010PropOp34
 70
     1
102
RTVSPost2010Prop35
280
     0
102
RTVSPost2010PropOp35
 70
     1
102
RTVSPost2010Prop36
280
     0
102
RTVSPost2010PropOp36
 70
     1
102
RTVSPost2010Prop37
 90
       50
102
RTVSPost2010PropOp37
 70
     1
102
RTVSPost2010Prop38
140
0.0
102
RTVSPost2010PropOp38
 70
     1
102
RTVSPost2010Prop39
140
1.0
102
RTVSPost2010PropOp39
 70
     1
102
RTVSPost2010Prop40
 90
        0
102
RTVSPost2010PropOp40
 70
     1
102
RTVSPost2010Prop41ColorIndex
 90
      178
102
RTVSPost2010Prop41ColorRGB
 90
        0
102
RTVSPost2010PropOp41
 70
     1
102
RTVSPost2010Prop42
 90
       50
102
RTVSPost2010PropOp42
 70
     1
102
RTVSPost2010Prop43
 90
        3
102
RTVSPost2010PropOp43
 70
     1
102
RTVSPost2010Prop44ColorIndex
 90
        5
102
RTVSPost2010Prop44ColorRGB
 90
      255
102
RTVSPost2010PropOp44
 70
     1
102
RTVSPost2010Prop45
280
     0
102
RTVSPost2010PropOp45
 70
     1
102
RTVSPost2010Prop46
 90
       50
102
RTVSPost2010PropOp46
 70
     1
102
RTVSPost2010Prop47
 90
       50
102
RTVSPost2010PropOp47
 70
     1
102
RTVSPost2010Prop48
 90
       50
102
RTVSPost2010PropOp48
 70
     1
102
RTVSPost2010Prop49
280
     0
102
RTVSPost2010PropOp49
 70
     1
102
RTVSPost2010Prop50
 90
       50
102
RTVSPost2010PropOp50
 70
     1
102
RTVSPost2010Prop51ColorIndex
 90
      256
102
RTVSPost2010Prop51ColorRGB
 90
-16777216
102
RTVSPost2010PropOp51
 70
     0
102
RTVSPost2010Prop52
140
1.0
102
RTVSPost2010PropOp52
 70
     0
102
RTVSPost2010Prop53
 90
        2
102
RTVSPost2010PropOp53
 70
     1
102
RTVSPost2010Prop54
  1
strokes_ogs.tif
102
RTVSPost2010PropOp54
 70
     1
102
RTVSPost2010Prop55
280
     0
102
RTVSPost2010PropOp55
 70
     1
102
RTVSPost2010Prop56
140
1.0
102
RTVSPost2010PropOp56
 70
     1
102
RTVSPost2010Prop57
140
1.0
102
RTVSPost2010PropOp57
 70
     1
  0
XRECORD
  5
3DC
102
{ACAD_REACTORS
330
3DB
102
}
330
3DB
100
AcDbXrecord
280
     1
102
RTVSPropertyOp0
 70
     1
102
RTVSPropertyOp1
 70
     1
102
RTVSPropertyOp2
 70
     1
102
RTVSPropertyOp3
 70
     1
102
RTVSPropertyOp4
 70
     1
102
RTVSPropertyOp5
 70
     1
102
RTVSPropertyOp6
 70
     1
102
RTVSPropertyOp7
 70
     1
102
RTVSPropertyOp8
 70
     1
102
RTVSPropertyOp9
 70
     1
102
RTVSPropertyOp10
 70
     1
102
RTVSPropertyOp11
 70
     1
102
RTVSPropertyOp12
 70
     1
102
RTVSPropertyOp13
 70
     1
102
RTVSPropertyOp14
 70
     1
102
RTVSPropertyOp15
 70
     1
102
RTVSPropertyOp16
 70
     1
102
RTVSPropertyOp17
 70
     1
102
RTVSPropertyOp18
 70
     1
102
RTVSPropertyOp19
 70
     1
102
RTVSPropertyOp20
 70
     1
102
RTVSPropertyOp21
 70
     1
102
RTVSPropertyOp22
 70
     1
102
RTVSPropertyOp23
 70
     1
102
RTVSPropertyOp24
 70
     1
102
RTVSPropertyOp25
 70
     1
102
RTVSPropertyOp26
 70
     1
102
RTVSPropertyOp27
 70
     1
102
RTVSPropertyOp28
 70
     1
102
RTVSPropertyOp29
 70
     1
102
RTVSPropertyOp30
 70
     1
102
RTVSPropertyOp31
 70
     1
102
RTVSPropertyOp32
 70
     1
102
RTVSPropertyOp33
 70
     1
102
RTVSPropertyOp34
 70
     1
102
RTVSPropertyOp35
 70
     1
102
RTVSPropertyOp36
 70
     1
102
RTVSPropertyOp37
 70
     1
102
RTVSPropertyOp38
 70
     1
102
RTVSPropertyOp39
 70
     1
102
RTVSPropertyOp40
 70
     1
102
RTVSPropertyOp41
 70
     1
102
RTVSPropertyOp42
 70
     1
102
RTVSPropertyOp43
 70
     1
102
RTVSPropertyOp44
 70
     1
102
RTVSPropertyOp45
 70
     1
102
RTVSPropertyOp46
 70
     1
102
RTVSPropertyOp47
 70
     1
102
RTVSPropertyOp48
 70
     1
102
RTVSPropertyOp49
 70
     1
102
RTVSPropertyOp50
 70
     1
102
RTVSPropertyOp51
 70
     0
102
RTVSPropertyOp52
 70
     0
102
RTVSPropertyOp53
 70
     1
102
RTVSPropertyOp54
 70
     1
102
RTVSPropertyOp55
 70
     1
102
RTVSPropertyOp56
 70
     1
102
RTVSPropertyOp57
 70
     1
102
RTVSPost2010Prop28
280
     0
102
RTVSPost2010PropOp28
 70
     1
102
RTVSPost2010Prop29
280
     1
102
RTVSPost2010PropOp29
 70
     1
102
RTVSPost2010Prop30
280
     1
102
RTVSPost2010PropOp30
 70
     1
102
RTVSPost2010Prop31
280
     0
102
RTVSPost2010PropOp31
 70
     1
102
RTVSPost2010Prop32
280
     0
102
RTVSPost2010PropOp32
 70
     1
102
RTVSPost2010Prop33
280
     0
102
RTVSPost2010PropOp33
 70
     1
102
RTVSPost2010Prop34
280
     0
102
RTVSPost2010PropOp34
 70
     1
102
RTVSPost2010Prop35
280
     0
102
RTVSPost2010PropOp35
 70
     1
102
RTVSPost2010Prop36
280
     0
102
RTVSPost2010PropOp36
 70
     1
102
RTVSPost2010Prop37
 90
       50
102
RTVSPost2010PropOp37
 70
     1
102
RTVSPost2010Prop38
140
0.0
102
RTVSPost2010PropOp38
 70
     1
102
RTVSPost2010Prop39
140
1.0
102
RTVSPost2010PropOp39
 70
     1
102
RTVSPost2010Prop40
 90
        0
102
RTVSPost2010PropOp40
 70
     1
102
RTVSPost2010Prop41ColorIndex
 90
      178
102
RTVSPost2010Prop41ColorRGB
 90
        0
102
RTVSPost2010PropOp41
 70
     1
102
RTVSPost2010Prop42
 90
       50
102
RTVSPost2010PropOp42
 70
     1
102
RTVSPost2010Prop43
 90
        3
102
RTVSPost2010PropOp43
 70
     1
102
RTVSPost2010Prop44ColorIndex
 90
        5
102
RTVSPost2010Prop44ColorRGB
 90
      255
102
RTVSPost2010PropOp44
 70
     1
102
RTVSPost2010Prop45
280
     0
102
RTVSPost2010PropOp45
 70
     1
102
RTVSPost2010Prop46
 90
       50
102
RTVSPost2010PropOp46
 70
     1
102
RTVSPost2010Prop47
 90
       50
102
RTVSPost2010PropOp47
 70
     1
102
RTVSPost2010Prop48
 90
       50
102
RTVSPost2010PropOp48
 70
     1
102
RTVSPost2010Prop49
280
     0
102
RTVSPost2010PropOp49
 70
     1
102
RTVSPost2010Prop50
 90
       50
102
RTVSPost2010PropOp50
 70
     1
102
RTVSPost2010Prop51ColorIndex
 90
      256
102
RTVSPost2010Prop51ColorRGB
 90
-16777216
102
RTVSPost2010PropOp51
 70
     0
102
RTVSPost2010Prop52
140
1.0
102
RTVSPost2010PropOp52
 70
     0
102
RTVSPost2010Prop53
 90
        2
102
RTVSPost2010PropOp53
 70
     1
102
RTVSPost2010Prop54
  1
strokes_ogs.tif
102
RTVSPost2010PropOp54
 70
     1
102
RTVSPost2010Prop55
280
     0
102
RTVSPost2010PropOp55
 70
     1
102
RTVSPost2010Prop56
140
1.0
102
RTVSPost2010PropOp56
 70
     1
102
RTVSPost2010Prop57
140
1.0
102
RTVSPost2010PropOp57
 70
     1
  0
ENDSEC
  0
EOF
