  0
SECTION
  2
HEADER
  9
$ACADVER
  1
AC1021
  9
$ACADMAINTVER
 70
    25
  9
$DWGCODEPAGE
  3
ANSI_1252
  9
$INSBASE
 10
3804.693056528511
 20
1444.863951419895
 30
0.0
  9
$EXTMIN
 10
1.000000000000000E+20
 20
1.000000000000000E+20
 30
1.000000000000000E+20
  9
$EXTMAX
 10
-1.000000000000000E+20
 20
-1.000000000000000E+20
 30
-1.000000000000000E+20
  9
$LIMMIN
 10
0.0
 20
0.0
  9
$LIMMAX
 10
12.0
 20
9.0
  9
$ORTHOMODE
 70
     0
  9
$REGENMODE
 70
     1
  9
$FILLMODE
 70
     1
  9
$QTEXTMODE
 70
     0
  9
$MIRRTEXT
 70
     1
  9
$LTSCALE
 40
1.0
  9
$ATTMODE
 70
     1
  9
$TEXTSIZE
 40
0.2
  9
$TRACEWID
 40
0.05
  9
$TEXTSTYLE
  7
Standard
  9
$CLAYER
  8
Graypants_Ohio24
  9
$CELTYPE
  6
ByLayer
  9
$CECOLOR
 62
   256
  9
$CELTSCALE
 40
1.0
  9
$DISPSILH
 70
     0
  9
$DIMSCALE
 40
1.0
  9
$DIMASZ
 40
0.18
  9
$DIMEXO
 40
0.0625
  9
$DIMDLI
 40
0.38
  9
$DIMRND
 40
0.0
  9
$DIMDLE
 40
0.0
  9
$DIMEXE
 40
0.18
  9
$DIMTP
 40
0.0
  9
$DIMTM
 40
0.0
  9
$DIMTXT
 40
0.18
  9
$DIMCEN
 40
0.09
  9
$DIMTSZ
 40
0.0
  9
$DIMTOL
 70
     0
  9
$DIMLIM
 70
     0
  9
$DIMTIH
 70
     1
  9
$DIMTOH
 70
     1
  9
$DIMSE1
 70
     0
  9
$DIMSE2
 70
     0
  9
$DIMTAD
 70
     0
  9
$DIMZIN
 70
     0
  9
$DIMBLK
  1

  9
$DIMASO
 70
     1
  9
$DIMSHO
 70
     1
  9
$DIMPOST
  1

  9
$DIMAPOST
  1

  9
$DIMALT
 70
     0
  9
$DIMALTD
 70
     2
  9
$DIMALTF
 40
25.4
  9
$DIMLFAC
 40
1.0
  9
$DIMTOFL
 70
     0
  9
$DIMTVP
 40
0.0
  9
$DIMTIX
 70
     0
  9
$DIMSOXD
 70
     0
  9
$DIMSAH
 70
     0
  9
$DIMBLK1
  1

  9
$DIMBLK2
  1

  9
$DIMSTYLE
  2
STANDARD_ACAD
  9
$DIMCLRD
 70
     0
  9
$DIMCLRE
 70
     0
  9
$DIMCLRT
 70
     0
  9
$DIMTFAC
 40
1.0
  9
$DIMGAP
 40
0.09
  9
$DIMJUST
 70
     0
  9
$DIMSD1
 70
     0
  9
$DIMSD2
 70
     0
  9
$DIMTOLJ
 70
     1
  9
$DIMTZIN
 70
     0
  9
$DIMALTZ
 70
     0
  9
$DIMALTTZ
 70
     0
  9
$DIMUPT
 70
     0
  9
$DIMDEC
 70
     4
  9
$DIMTDEC
 70
     4
  9
$DIMALTU
 70
     2
  9
$DIMALTTD
 70
     2
  9
$DIMTXSTY
  7
Standard
  9
$DIMAUNIT
 70
     0
  9
$DIMADEC
 70
     0
  9
$DIMALTRND
 40
0.0
  9
$DIMAZIN
 70
     0
  9
$DIMDSEP
 70
    46
  9
$DIMATFIT
 70
     3
  9
$DIMFRAC
 70
     0
  9
$DIMLDRBLK
  1

  9
$DIMLUNIT
 70
     2
  9
$DIMLWD
 70
    -2
  9
$DIMLWE
 70
    -2
  9
$DIMTMOVE
 70
     2
  9
$DIMFXL
 40
1.0
  9
$DIMFXLON
 70
     0
  9
$DIMJOGANG
 40
0.7853981633974483
  9
$DIMTFILL
 70
     0
  9
$DIMTFILLCLR
 70
     0
  9
$DIMARCSYM
 70
     0
  9
$DIMLTYPE
  6

  9
$DIMLTEX1
  6

  9
$DIMLTEX2
  6

  9
$LUNITS
 70
     2
  9
$LUPREC
 70
     3
  9
$SKETCHINC
 40
0.1
  9
$FILLETRAD
 40
0.5
  9
$AUNITS
 70
     0
  9
$AUPREC
 70
     0
  9
$MENU
  1
.
  9
$ELEVATION
 40
0.0
  9
$PELEVATION
 40
0.0
  9
$THICKNESS
 40
0.0
  9
$LIMCHECK
 70
     0
  9
$CHAMFERA
 40
0.0
  9
$CHAMFERB
 40
0.0
  9
$CHAMFERC
 40
0.0
  9
$CHAMFERD
 40
0.0
  9
$SKPOLY
 70
     0
  9
$TDCREATE
 40
2460864.511092569
  9
$TDUCREATE
 40
2460864.844425903
  9
$TDUPDATE
 40
2460864.511132951
  9
$TDUUPDATE
 40
2460864.844466285
  9
$TDINDWG
 40
0.0000000116
  9
$TDUSRTIMER
 40
0.0000000116
  9
$USRTIMER
 70
     1
  9
$ANGBASE
 50
0.0
  9
$ANGDIR
 70
     0
  9
$PDMODE
 70
     0
  9
$PDSIZE
 40
0.0
  9
$PLINEWID
 40
0.0
  9
$SPLFRAME
 70
     0
  9
$SPLINETYPE
 70
     6
  9
$SPLINESEGS
 70
     8
  9
$HANDSEED
  5
4A6
  9
$SURFTAB1
 70
     6
  9
$SURFTAB2
 70
     6
  9
$SURFTYPE
 70
     6
  9
$SURFU
 70
     6
  9
$SURFV
 70
     6
  9
$UCSBASE
  2

  9
$UCSNAME
  2

  9
$UCSORG
 10
0.0
 20
0.0
 30
0.0
  9
$UCSXDIR
 10
1.0
 20
0.0
 30
0.0
  9
$UCSYDIR
 10
0.0
 20
1.0
 30
0.0
  9
$UCSORTHOREF
  2

  9
$UCSORTHOVIEW
 70
     0
  9
$UCSORGTOP
 10
0.0
 20
0.0
 30
0.0
  9
$UCSORGBOTTOM
 10
0.0
 20
0.0
 30
0.0
  9
$UCSORGLEFT
 10
0.0
 20
0.0
 30
0.0
  9
$UCSORGRIGHT
 10
0.0
 20
0.0
 30
0.0
  9
$UCSORGFRONT
 10
0.0
 20
0.0
 30
0.0
  9
$UCSORGBACK
 10
0.0
 20
0.0
 30
0.0
  9
$PUCSBASE
  2

  9
$PUCSNAME
  2

  9
$PUCSORG
 10
0.0
 20
0.0
 30
0.0
  9
$PUCSXDIR
 10
1.0
 20
0.0
 30
0.0
  9
$PUCSYDIR
 10
0.0
 20
1.0
 30
0.0
  9
$PUCSORTHOREF
  2

  9
$PUCSORTHOVIEW
 70
     0
  9
$PUCSORGTOP
 10
0.0
 20
0.0
 30
0.0
  9
$PUCSORGBOTTOM
 10
0.0
 20
0.0
 30
0.0
  9
$PUCSORGLEFT
 10
0.0
 20
0.0
 30
0.0
  9
$PUCSORGRIGHT
 10
0.0
 20
0.0
 30
0.0
  9
$PUCSORGFRONT
 10
0.0
 20
0.0
 30
0.0
  9
$PUCSORGBACK
 10
0.0
 20
0.0
 30
0.0
  9
$USERI1
 70
     0
  9
$USERI2
 70
     0
  9
$USERI3
 70
     0
  9
$USERI4
 70
     0
  9
$USERI5
 70
     0
  9
$USERR1
 40
0.0
  9
$USERR2
 40
0.0
  9
$USERR3
 40
0.0
  9
$USERR4
 40
0.0
  9
$USERR5
 40
0.0
  9
$WORLDVIEW
 70
     1
  9
$SHADEDGE
 70
     3
  9
$SHADEDIF
 70
    70
  9
$TILEMODE
 70
     1
  9
$MAXACTVP
 70
    64
  9
$PINSBASE
 10
0.0
 20
0.0
 30
0.0
  9
$PLIMCHECK
 70
     0
  9
$PEXTMIN
 10
1.000000000000000E+20
 20
1.000000000000000E+20
 30
1.000000000000000E+20
  9
$PEXTMAX
 10
-1.000000000000000E+20
 20
-1.000000000000000E+20
 30
-1.000000000000000E+20
  9
$PLIMMIN
 10
0.0
 20
0.0
  9
$PLIMMAX
 10
12.0
 20
9.0
  9
$UNITMODE
 70
     0
  9
$VISRETAIN
 70
     1
  9
$PLINEGEN
 70
     0
  9
$PSLTSCALE
 70
     1
  9
$TREEDEPTH
 70
  3020
  9
$CMLSTYLE
  2
Standard
  9
$CMLJUST
 70
     0
  9
$CMLSCALE
 40
1.0
  9
$PROXYGRAPHICS
 70
     1
  9
$MEASUREMENT
 70
     1
  9
$CELWEIGHT
370
    -1
  9
$ENDCAPS
280
     0
  9
$JOINSTYLE
280
     0
  9
$LWDISPLAY
290
     0
  9
$INSUNITS
 70
     4
  9
$HYPERLINKBASE
  1

  9
$STYLESHEET
  1

  9
$XEDIT
290
     1
  9
$CEPSNTYPE
380
     0
  9
$PSTYLEMODE
290
     1
  9
$FINGERPRINTGUID
  2
{64752155-6940-9049-8bfc-b734c60bf437}
  9
$VERSIONGUID
  2
{FAEB1C32-E019-11D5-929B-00C0DF256EC4}
  9
$EXTNAMES
290
     1
  9
$PSVPSCALE
 40
0.0
  9
$OLESTARTUP
290
     0
  9
$SORTENTS
280
   127
  9
$INDEXCTL
280
     0
  9
$HIDETEXT
280
     1
  9
$XCLIPFRAME
290
     0
  9
$HALOGAP
280
     0
  9
$OBSCOLOR
 70
   257
  9
$OBSLTYPE
280
     0
  9
$INTERSECTIONDISPLAY
280
     0
  9
$INTERSECTIONCOLOR
 70
   257
  9
$DIMASSOC
280
     2
  9
$PROJECTNAME
  1

  9
$CAMERADISPLAY
290
     0
  9
$LENSLENGTH
 40
50.0
  9
$CAMERAHEIGHT
 40
0.0
  9
$STEPSPERSEC
 40
2.0
  9
$STEPSIZE
 40
6.0
  9
$3DDWFPREC
 40
2.0
  9
$PSOLWIDTH
 40
0.25
  9
$PSOLHEIGHT
 40
4.0
  9
$LOFTANG1
 40
1.570796326794897
  9
$LOFTANG2
 40
1.570796326794897
  9
$LOFTMAG1
 40
0.0
  9
$LOFTMAG2
 40
0.0
  9
$LOFTPARAM
 70
     7
  9
$LOFTNORMALS
280
     1
  9
$LATITUDE
 40
37.795
  9
$LONGITUDE
 40
-122.394
  9
$NORTHDIRECTION
 40
0.0
  9
$TIMEZONE
 70
 -8000
  9
$LIGHTGLYPHDISPLAY
280
     1
  9
$TILEMODELIGHTSYNCH
280
     1
  9
$CMATERIAL
347
44
  9
$SOLIDHIST
280
     0
  9
$SHOWHIST
280
     1
  9
$DWFFRAME
280
     2
  9
$DGNFRAME
280
     2
  9
$REALWORLDSCALE
290
     1
  9
$INTERFERECOLOR
 62
   256
  9
$CSHADOW
280
     0
  9
$SHADOWPLANELOCATION
 40
0.0
  0
ENDSEC
  0
SECTION
  2
CLASSES
  0
CLASS
  1
ACDBDICTIONARYWDFLT
  2
AcDbDictionaryWithDefault
  3
ObjectDBX Classes
 90
        0
 91
        3
280
     0
281
     0
  0
CLASS
  1
VISUALSTYLE
  2
AcDbVisualStyle
  3
ObjectDBX Classes
 90
     4095
 91
        3
280
     0
281
     0
  0
CLASS
  1
MATERIAL
  2
AcDbMaterial
  3
ObjectDBX Classes
 90
     1153
 91
        3
280
     0
281
     0
  0
CLASS
  1
SCALE
  2
AcDbScale
  3
ObjectDBX Classes
 90
     1153
 91
        3
280
     0
281
     0
  0
CLASS
  1
TABLESTYLE
  2
AcDbTableStyle
  3
ObjectDBX Classes
 90
     4095
 91
        3
280
     0
281
     0
  0
CLASS
  1
MLEADERSTYLE
  2
AcDbMLeaderStyle
  3
ACDB_MLEADERSTYLE_CLASS
 90
     4095
 91
        3
280
     0
281
     0
  0
CLASS
  1
SUN
  2
AcDbSun
  3
SCENEOE
 90
     1153
 91
        3
280
     0
281
     0
  0
CLASS
  1
DICTIONARYVAR
  2
AcDbDictionaryVar
  3
ObjectDBX Classes
 90
        0
 91
        3
280
     0
281
     0
  0
CLASS
  1
CELLSTYLEMAP
  2
AcDbCellStyleMap
  3
ObjectDBX Classes
 90
     1152
 91
        3
280
     0
281
     0
  0
ENDSEC
  0
SECTION
  2
TABLES
  0
TABLE
  2
VPORT
  5
8
330
0
100
AcDbSymbolTable
 70
     1
  0
VPORT
  5
29
330
8
100
AcDbSymbolTableRecord
100
AcDbViewportTableRecord
  2
*Active
 70
     0
 10
0.0
 20
0.0
 11
1.0
 21
1.0
 12
10.42990654205607
 22
4.5
 13
0.0
 23
0.0
 14
0.5
 24
0.5
 15
0.5
 25
0.5
 16
0.0
 26
0.0
 36
1.0
 17
0.0
 27
0.0
 37
0.0
 40
9.0
 41
1.972972972850329
 42
50.0
 43
0.0
 44
0.0
 50
0.0
 51
0.0
 71
     0
 72
   100
 73
     1
 74
     3
 75
     0
 76
     0
 77
     0
 78
     0
281
     0
 65
     1
110
0.0
120
0.0
130
0.0
111
1.0
121
0.0
131
0.0
112
0.0
122
1.0
132
0.0
 79
     0
146
0.0
348
2F
 60
     3
 61
     5
292
     1
282
     1
141
0.0
142
0.0
 63
   250
361
6D
  0
ENDTAB
  0
TABLE
  2
LTYPE
  5
5
330
0
100
AcDbSymbolTable
 70
     2
  0
LTYPE
  5
14
330
5
100
AcDbSymbolTableRecord
100
AcDbLinetypeTableRecord
  2
ByBlock
 70
     0
  3

 72
    65
 73
     0
 40
0.0
  0
LTYPE
  5
15
330
5
100
AcDbSymbolTableRecord
100
AcDbLinetypeTableRecord
  2
ByLayer
 70
     0
  3

 72
    65
 73
     0
 40
0.0
  0
LTYPE
  5
16
330
5
100
AcDbSymbolTableRecord
100
AcDbLinetypeTableRecord
  2
Continuous
 70
     0
  3
Solid line
 72
    65
 73
     0
 40
0.0
  0
LTYPE
  5
450
330
5
100
AcDbSymbolTableRecord
100
AcDbLinetypeTableRecord
  2
Hidden
 70
     0
  3

 72
    65
 73
     2
 40
4.0
 49
2.0
 74
     0
 49
-2.0
 74
     0
  0
ENDTAB
  0
TABLE
  2
LAYER
  5
2
330
0
100
AcDbSymbolTable
 70
     2
  0
LAYER
  5
10
330
2
100
AcDbSymbolTableRecord
100
AcDbLayerTableRecord
  2
0
 70
     0
 62
     7
  6
Continuous
370
    -3
390
F
347
46
  0
LAYER
  5
6E
330
2
100
AcDbSymbolTableRecord
100
AcDbLayerTableRecord
  2
Graypants_Ohio24
 70
     0
 62
    36
420
  8866048
  6
Continuous
370
    -3
390
F
347
46
  0
ENDTAB
  0
TABLE
  2
STYLE
  5
3
330
0
100
AcDbSymbolTable
 70
     1
  0
STYLE
  5
11
330
3
100
AcDbSymbolTableRecord
100
AcDbTextStyleTableRecord
  2
Standard
 70
     0
 40
0.0
 41
1.0
 50
0.0
 71
     0
 42
0.2
  3
txt
  4

  0
ENDTAB
  0
TABLE
  2
VIEW
  5
6
330
0
100
AcDbSymbolTable
 70
     0
  0
ENDTAB
  0
TABLE
  2
UCS
  5
7
330
0
100
AcDbSymbolTable
 70
     0
  0
ENDTAB
  0
TABLE
  2
APPID
  5
9
330
0
100
AcDbSymbolTable
 70
     2
  0
APPID
  5
12
330
9
100
AcDbSymbolTableRecord
100
AcDbRegAppTableRecord
  2
ACAD
 70
     0
  0
APPID
  5
49E
330
9
100
AcDbSymbolTableRecord
100
AcDbRegAppTableRecord
  2
ACAD_MLEADERVER
 70
     0
  0
ENDTAB
  0
TABLE
  2
DIMSTYLE
  5
A
330
0
100
AcDbSymbolTable
 70
     1
100
AcDbDimStyleTable
  0
DIMSTYLE
105
27
330
A
100
AcDbSymbolTableRecord
100
AcDbDimStyleTableRecord
  2
STANDARD_ACAD
 70
     0
178
     0
340
11
  0
ENDTAB
  0
TABLE
  2
BLOCK_RECORD
  5
1
330
0
100
AcDbSymbolTable
 70
     1
  0
BLOCK_RECORD
  5
1F
330
1
100
AcDbSymbolTableRecord
100
AcDbBlockTableRecord
  2
*Model_Space
340
22
 70
     0
280
     1
281
     0
  0
BLOCK_RECORD
  5
1B
330
1
100
AcDbSymbolTableRecord
100
AcDbBlockTableRecord
  2
*Paper_Space
340
1E
 70
     0
280
     1
281
     0
  0
BLOCK_RECORD
  5
23
330
1
100
AcDbSymbolTableRecord
100
AcDbBlockTableRecord
  2
*Paper_Space0
340
26
 70
     0
280
     1
281
     0
  0
ENDTAB
  0
ENDSEC
  0
SECTION
  2
BLOCKS
  0
BLOCK
  5
20
330
1F
100
AcDbEntity
  8
0
100
AcDbBlockBegin
  2
*Model_Space
 70
     0
 10
0.0
 20
0.0
 30
0.0
  3
*Model_Space
  1

  0
ENDBLK
  5
21
330
1F
100
AcDbEntity
  8
0
100
AcDbBlockEnd
  0
BLOCK
  5
1C
330
1B
100
AcDbEntity
 67
     1
  8
0
100
AcDbBlockBegin
  2
*Paper_Space
 70
     0
 10
0.0
 20
0.0
 30
0.0
  3
*Paper_Space
  1

  0
ENDBLK
  5
1D
330
1B
100
AcDbEntity
 67
     1
  8
0
100
AcDbBlockEnd
  0
BLOCK
  5
24
330
23
100
AcDbEntity
  8
0
100
AcDbBlockBegin
  2
*Paper_Space0
 70
     0
 10
0.0
 20
0.0
 30
0.0
  3
*Paper_Space0
  1

  0
ENDBLK
  5
25
330
23
100
AcDbEntity
  8
0
100
AcDbBlockEnd
  0
ENDSEC
  0
SECTION
  2
ENTITIES
  0
CIRCLE
  5
6F
330
1F
100
AcDbEntity
  8
Graypants_Ohio24
100
AcDbCircle
 10
0.0000000000004547
 20
0.000000000001029
 30
0.0
 40
304.2246819452629
  0
CIRCLE
  5
70
330
1F
100
AcDbEntity
  8
Graypants_Ohio24
100
AcDbCircle
 10
0.0000000000004547
 20
0.000000000001029
 30
0.0
 40
303.3736658475462
  0
CIRCLE
  5
71
330
1F
100
AcDbEntity
  8
Graypants_Ohio24
100
AcDbCircle
 10
0.0000000000004547
 20
0.000000000001029
 30
0.0
 40
302.06588571077
  0
CIRCLE
  5
72
330
1F
100
AcDbEntity
  8
Graypants_Ohio24
100
AcDbCircle
 10
0.0000000000004547
 20
0.000000000001029
 30
0.0
 40
300.2290880118452
  0
CIRCLE
  5
73
330
1F
100
AcDbEntity
  8
Graypants_Ohio24
100
AcDbCircle
 10
0.0000000000004547
 20
0.000000000001029
 30
0.0
 40
297.9065164190323
  0
CIRCLE
  5
74
330
1F
100
AcDbEntity
  8
Graypants_Ohio24
100
AcDbCircle
 10
0.0000000000004547
 20
0.000000000001029
 30
0.0
 40
295.1152655102122
  0
CIRCLE
  5
75
330
1F
100
AcDbEntity
  8
Graypants_Ohio24
100
AcDbCircle
 10
0.0000000000004547
 20
0.000000000001029
 30
0.0
 40
291.8672780547275
  0
CIRCLE
  5
76
330
1F
100
AcDbEntity
  8
Graypants_Ohio24
100
AcDbCircle
 10
0.0000000000004547
 20
0.000000000001029
 30
0.0
 40
288.1718045297238
  0
CIRCLE
  5
77
330
1F
100
AcDbEntity
  8
Graypants_Ohio24
100
AcDbCircle
 10
0.0000000000004547
 20
0.000000000001029
 30
0.0
 40
256.7224975966891
  0
CIRCLE
  5
78
330
1F
100
AcDbEntity
  8
Graypants_Ohio24
100
AcDbCircle
 10
0.0000000000004547
 20
0.000000000001029
 30
0.0
 40
284.035332997373
  0
CIRCLE
  5
79
330
1F
100
AcDbEntity
  8
Graypants_Ohio24
100
AcDbCircle
 10
0.0000000000004547
 20
0.000000000001029
 30
0.0
 40
279.4614072848707
  0
CIRCLE
  5
7A
330
1F
100
AcDbEntity
  8
Graypants_Ohio24
100
AcDbCircle
 10
0.0000000000004547
 20
0.000000000001029
 30
0.0
 40
274.4502992647102
  0
CIRCLE
  5
7B
330
1F
100
AcDbEntity
  8
Graypants_Ohio24
100
AcDbCircle
 10
0.0000000000004547
 20
0.000000000001029
 30
0.0
 40
268.9984772858368
  0
CIRCLE
  5
7C
330
1F
100
AcDbEntity
  8
Graypants_Ohio24
100
AcDbCircle
 10
0.0000000000004547
 20
0.000000000001029
 30
0.0
 40
263.0958762648005
  0
CIRCLE
  5
7D
330
1F
100
AcDbEntity
  8
Graypants_Ohio24
100
AcDbCircle
 10
0.0000000000004547
 20
0.000000000001029
 30
0.0
 40
249.8626182824007
  0
CIRCLE
  5
7E
330
1F
100
AcDbEntity
  8
Graypants_Ohio24
100
AcDbCircle
 10
0.0000000000004547
 20
0.000000000001029
 30
0.0
 40
242.6274193454664
  0
CIRCLE
  5
7F
330
1F
100
AcDbEntity
  8
Graypants_Ohio24
100
AcDbCircle
 10
0.0000000000004547
 20
0.000000000001029
 30
0.0
 40
234.2009581899981
  0
LINE
  5
80
330
1F
100
AcDbEntity
  8
Graypants_Ohio24
370
     0
100
AcDbLine
 10
0.0000000000078444
 20
-1379.463929740888
 30
0.0
 11
-304.2246819452624
 21
-1379.463929740873
 31
0.0
  0
LINE
  5
81
330
1F
100
AcDbEntity
  8
Graypants_Ohio24
370
     0
100
AcDbLine
 10
0.0000000000078444
 20
-1372.363929740889
 30
0.0
 11
-304.2246819452624
 21
-1372.363929740874
 31
0.0
  0
LINE
  5
82
330
1F
100
AcDbEntity
  8
Graypants_Ohio24
370
     0
100
AcDbLine
 10
0.0000000000078444
 20
-1365.26392974089
 30
0.0
 11
-304.2246819452624
 21
-1365.263929740876
 31
0.0
  0
LINE
  5
83
330
1F
100
AcDbEntity
  8
Graypants_Ohio24
100
AcDbLine
 10
-304.2246819452624
 20
-1372.363929740874
 30
0.0
 11
-304.2246819452624
 21
-1379.46392974088
 31
0.0
  0
LINE
  5
84
330
1F
100
AcDbEntity
  8
Graypants_Ohio24
100
AcDbLine
 10
-304.2246819452624
 20
-1365.263929740876
 30
0.0
 11
-304.2246819452624
 21
-1372.363929740874
 31
0.0
  0
LINE
  5
85
330
1F
100
AcDbEntity
  8
Graypants_Ohio24
100
AcDbLine
 10
-304.2246819452624
 20
-1358.16392974087
 30
0.0
 11
-304.2246819452624
 21
-1365.263929740876
 31
0.0
  0
LINE
  5
86
330
1F
100
AcDbEntity
  8
Graypants_Ohio24
100
AcDbLine
 10
-303.3736658475458
 20
-1351.063929740872
 30
0.0
 11
-303.3736658475458
 21
-1358.16392974087
 31
0.0
  0
LINE
  5
87
330
1F
100
AcDbEntity
  8
Graypants_Ohio24
100
AcDbLine
 10
-302.0658857107695
 20
-1343.963929740873
 30
0.0
 11
-302.0658857107695
 21
-1351.063929740872
 31
0.0
  0
LINE
  5
88
330
1F
100
AcDbEntity
  8
Graypants_Ohio24
100
AcDbLine
 10
-300.2290880118447
 20
-1336.863929740874
 30
0.0
 11
-300.2290880118447
 21
-1343.963929740873
 31
0.0
  0
LINE
  5
89
330
1F
100
AcDbEntity
  8
Graypants_Ohio24
100
AcDbLine
 10
-297.9065164190318
 20
-1329.763929740869
 30
0.0
 11
-297.9065164190318
 21
-1336.863929740874
 31
0.0
  0
LINE
  5
8A
330
1F
100
AcDbEntity
  8
Graypants_Ohio24
100
AcDbLine
 10
-295.1152655102118
 20
-1322.66392974087
 30
0.0
 11
-295.1152655102118
 21
-1329.763929740869
 31
0.0
  0
LINE
  5
8B
330
1F
100
AcDbEntity
  8
Graypants_Ohio24
100
AcDbLine
 10
-291.8672780547271
 20
-1315.563929740872
 30
0.0
 11
-291.8672780547271
 21
-1322.66392974087
 31
0.0
  0
LINE
  5
8C
330
1F
100
AcDbEntity
  8
Graypants_Ohio24
100
AcDbLine
 10
-288.1718045297379
 20
-1308.463929740873
 30
0.0
 11
-288.1718045297379
 21
-1315.563929740872
 31
0.0
  0
LINE
  5
8D
330
1F
100
AcDbEntity
  8
Graypants_Ohio24
100
AcDbLine
 10
-284.0353329973726
 20
-1301.363929740867
 30
0.0
 11
-284.0353329973726
 21
-1308.463929740873
 31
0.0
  0
LINE
  5
8E
330
1F
100
AcDbEntity
  8
Graypants_Ohio24
100
AcDbLine
 10
-279.4614072848702
 20
-1294.263929740869
 30
0.0
 11
-279.4614072848702
 21
-1301.363929740867
 31
0.0
  0
LINE
  5
8F
330
1F
100
AcDbEntity
  8
Graypants_Ohio24
100
AcDbLine
 10
-274.4502992647243
 20
-1287.16392974087
 30
0.0
 11
-274.4502992647243
 21
-1294.263929740869
 31
0.0
  0
LINE
  5
90
330
1F
100
AcDbEntity
  8
Graypants_Ohio24
100
AcDbLine
 10
-268.9984772858364
 20
-1280.063929740872
 30
0.0
 11
-268.9984772858364
 21
-1287.16392974087
 31
0.0
  0
LINE
  5
91
330
1F
100
AcDbEntity
  8
Graypants_Ohio24
100
AcDbLine
 10
-263.0958762648146
 20
-1272.963929740866
 30
0.0
 11
-263.0958762648146
 21
-1280.063929740872
 31
0.0
  0
LINE
  5
92
330
1F
100
AcDbEntity
  8
Graypants_Ohio24
100
AcDbLine
 10
-256.7224975966886
 20
-1265.863929740867
 30
0.0
 11
-256.7224975966886
 21
-1272.963929740866
 31
0.0
  0
LINE
  5
93
330
1F
100
AcDbEntity
  8
Graypants_Ohio24
100
AcDbLine
 10
-249.8626182824004
 20
-1258.763929740861
 30
0.0
 11
-249.8626182824004
 21
-1265.86392974086
 31
0.0
  0
LINE
  5
94
330
1F
100
AcDbEntity
  8
Graypants_Ohio24
100
AcDbLine
 10
-242.6274193454659
 20
-1251.663929740863
 30
0.0
 11
-242.6274193454659
 21
-1258.763929740861
 31
0.0
  0
LINE
  5
95
330
1F
100
AcDbEntity
  8
Graypants_Ohio24
100
AcDbLine
 10
-234.2009581899978
 20
-1244.563929740864
 30
0.0
 11
-234.2009581899978
 21
-1251.663929740863
 31
0.0
  0
LINE
  5
96
330
1F
100
AcDbEntity
  8
Graypants_Ohio24
370
     0
100
AcDbLine
 10
0.0000000000005684
 20
-1493.063929740893
 30
0.0
 11
-242.6274193454659
 21
-1493.063929740879
 31
0.0
  0
LINE
  5
97
330
1F
100
AcDbEntity
  8
Graypants_Ohio24
370
     0
100
AcDbLine
 10
0.0000000000005684
 20
-1485.963929740895
 30
0.0
 11
-249.8626182824004
 21
-1485.96392974088
 31
0.0
  0
LINE
  5
98
330
1F
100
AcDbEntity
  8
Graypants_Ohio24
370
     0
100
AcDbLine
 10
0.0000000000005684
 20
-1478.863929740896
 30
0.0
 11
-256.7224975966886
 21
-1478.863929740882
 31
0.0
  0
LINE
  5
99
330
1F
100
AcDbEntity
  8
Graypants_Ohio24
370
     0
100
AcDbLine
 10
0.0000000000078444
 20
-1471.76392974089
 30
0.0
 11
-263.0958762648146
 21
-1471.763929740876
 31
0.0
  0
LINE
  5
9A
330
1F
100
AcDbEntity
  8
Graypants_Ohio24
370
     0
100
AcDbLine
 10
0.0000000000078444
 20
-1464.663929740892
 30
0.0
 11
-268.9984772858364
 21
-1464.663929740877
 31
0.0
  0
LINE
  5
9B
330
1F
100
AcDbEntity
  8
Graypants_Ohio24
370
     0
100
AcDbLine
 10
0.0000000000078444
 20
-1457.563929740893
 30
0.0
 11
-274.4502992647243
 21
-1457.563929740879
 31
0.0
  0
LINE
  5
9C
330
1F
100
AcDbEntity
  8
Graypants_Ohio24
370
     0
100
AcDbLine
 10
0.0000000000078444
 20
-1450.463929740895
 30
0.0
 11
-279.4614072848702
 21
-1450.46392974088
 31
0.0
  0
LINE
  5
9D
330
1F
100
AcDbEntity
  8
Graypants_Ohio24
370
     0
100
AcDbLine
 10
0.0000000000078444
 20
-1443.363929740889
 30
0.0
 11
-284.0353329973726
 21
-1443.363929740874
 31
0.0
  0
LINE
  5
9E
330
1F
100
AcDbEntity
  8
Graypants_Ohio24
370
     0
100
AcDbLine
 10
0.0000000000078444
 20
-1436.26392974089
 30
0.0
 11
-288.1718045297379
 21
-1436.263929740876
 31
0.0
  0
LINE
  5
9F
330
1F
100
AcDbEntity
  8
Graypants_Ohio24
370
     0
100
AcDbLine
 10
0.0000000000078444
 20
-1429.163929740892
 30
0.0
 11
-291.8672780547271
 21
-1429.163929740877
 31
0.0
  0
LINE
  5
A0
330
1F
100
AcDbEntity
  8
Graypants_Ohio24
370
     0
100
AcDbLine
 10
0.0000000000078444
 20
-1422.063929740893
 30
0.0
 11
-295.1152655102118
 21
-1422.063929740879
 31
0.0
  0
LINE
  5
A1
330
1F
100
AcDbEntity
  8
Graypants_Ohio24
370
     0
100
AcDbLine
 10
0.0000000000078444
 20
-1414.963929740888
 30
0.0
 11
-297.9065164190318
 21
-1414.963929740873
 31
0.0
  0
LINE
  5
A2
330
1F
100
AcDbEntity
  8
Graypants_Ohio24
370
     0
100
AcDbLine
 10
0.0000000000078444
 20
-1407.863929740889
 30
0.0
 11
-300.2290880118447
 21
-1407.863929740874
 31
0.0
  0
LINE
  5
A3
330
1F
100
AcDbEntity
  8
Graypants_Ohio24
370
     0
100
AcDbLine
 10
0.0000000000078444
 20
-1400.76392974089
 30
0.0
 11
-302.0658857107695
 21
-1400.763929740876
 31
0.0
  0
LINE
  5
A4
330
1F
100
AcDbEntity
  8
Graypants_Ohio24
370
     0
100
AcDbLine
 10
0.0000000000078444
 20
-1393.663929740892
 30
0.0
 11
-303.3736658475458
 21
-1393.663929740877
 31
0.0
  0
LINE
  5
A5
330
1F
100
AcDbEntity
  8
Graypants_Ohio24
370
     0
100
AcDbLine
 10
0.0000000000078444
 20
-1386.563929740886
 30
0.0
 11
-304.2246819452624
 21
-1386.563929740872
 31
0.0
  0
LINE
  5
A6
330
1F
100
AcDbEntity
  8
Graypants_Ohio24
100
AcDbLine
 10
-234.2009581899978
 20
-1500.163929740885
 30
0.0
 11
-234.2009581899978
 21
-1493.063929740879
 31
0.0
  0
LINE
  5
A7
330
1F
100
AcDbEntity
  8
Graypants_Ohio24
100
AcDbLine
 10
-242.6274193454659
 20
-1493.063929740879
 30
0.0
 11
-242.6274193454659
 21
-1485.96392974088
 31
0.0
  0
LINE
  5
A8
330
1F
100
AcDbEntity
  8
Graypants_Ohio24
100
AcDbLine
 10
-249.8626182824004
 20
-1485.96392974088
 30
0.0
 11
-249.8626182824004
 21
-1478.863929740882
 31
0.0
  0
LINE
  5
A9
330
1F
100
AcDbEntity
  8
Graypants_Ohio24
100
AcDbLine
 10
-256.7224975966886
 20
-1478.863929740882
 30
0.0
 11
-256.7224975966886
 21
-1471.763929740876
 31
0.0
  0
LINE
  5
AA
330
1F
100
AcDbEntity
  8
Graypants_Ohio24
100
AcDbLine
 10
-263.0958762648146
 20
-1471.763929740876
 30
0.0
 11
-263.0958762648146
 21
-1464.663929740877
 31
0.0
  0
LINE
  5
AB
330
1F
100
AcDbEntity
  8
Graypants_Ohio24
100
AcDbLine
 10
-268.9984772858364
 20
-1464.663929740877
 30
0.0
 11
-268.9984772858364
 21
-1457.563929740879
 31
0.0
  0
LINE
  5
AC
330
1F
100
AcDbEntity
  8
Graypants_Ohio24
100
AcDbLine
 10
-274.4502992647243
 20
-1457.563929740879
 30
0.0
 11
-274.4502992647243
 21
-1450.46392974088
 31
0.0
  0
LINE
  5
AD
330
1F
100
AcDbEntity
  8
Graypants_Ohio24
100
AcDbLine
 10
-279.4614072848702
 20
-1450.46392974088
 30
0.0
 11
-279.4614072848702
 21
-1443.363929740874
 31
0.0
  0
LINE
  5
AE
330
1F
100
AcDbEntity
  8
Graypants_Ohio24
100
AcDbLine
 10
-284.0353329973726
 20
-1443.363929740874
 30
0.0
 11
-284.0353329973726
 21
-1436.263929740876
 31
0.0
  0
LINE
  5
AF
330
1F
100
AcDbEntity
  8
Graypants_Ohio24
100
AcDbLine
 10
-288.1718045297379
 20
-1436.263929740876
 30
0.0
 11
-288.1718045297379
 21
-1429.163929740877
 31
0.0
  0
LINE
  5
B0
330
1F
100
AcDbEntity
  8
Graypants_Ohio24
100
AcDbLine
 10
-291.8672780547271
 20
-1429.163929740877
 30
0.0
 11
-291.8672780547271
 21
-1422.063929740879
 31
0.0
  0
LINE
  5
B1
330
1F
100
AcDbEntity
  8
Graypants_Ohio24
100
AcDbLine
 10
-295.1152655102118
 20
-1422.063929740879
 30
0.0
 11
-295.1152655102118
 21
-1414.963929740873
 31
0.0
  0
LINE
  5
B2
330
1F
100
AcDbEntity
  8
Graypants_Ohio24
100
AcDbLine
 10
-297.9065164190318
 20
-1414.963929740873
 30
0.0
 11
-297.9065164190318
 21
-1407.863929740874
 31
0.0
  0
LINE
  5
B3
330
1F
100
AcDbEntity
  8
Graypants_Ohio24
100
AcDbLine
 10
-300.2290880118447
 20
-1407.863929740874
 30
0.0
 11
-300.2290880118447
 21
-1400.763929740876
 31
0.0
  0
LINE
  5
B4
330
1F
100
AcDbEntity
  8
Graypants_Ohio24
100
AcDbLine
 10
-302.0658857107695
 20
-1400.763929740876
 30
0.0
 11
-302.0658857107695
 21
-1393.663929740877
 31
0.0
  0
LINE
  5
B5
330
1F
100
AcDbEntity
  8
Graypants_Ohio24
100
AcDbLine
 10
-303.3736658475458
 20
-1393.663929740877
 30
0.0
 11
-303.3736658475458
 21
-1386.563929740872
 31
0.0
  0
LINE
  5
B6
330
1F
100
AcDbEntity
  8
Graypants_Ohio24
100
AcDbLine
 10
-304.2246819452624
 20
-1386.563929740872
 30
0.0
 11
-304.2246819452624
 21
-1379.463929740873
 31
0.0
  0
LINE
  5
B7
330
1F
100
AcDbEntity
  8
Graypants_Ohio24
370
     0
100
AcDbLine
 10
0.0000000000078444
 20
-1358.163929740885
 30
0.0
 11
-304.2246819452624
 21
-1358.16392974087
 31
0.0
  0
LINE
  5
B8
330
1F
100
AcDbEntity
  8
Graypants_Ohio24
370
     0
100
AcDbLine
 10
0.0000000000078444
 20
-1351.063929740886
 30
0.0
 11
-303.3736658475458
 21
-1351.063929740872
 31
0.0
  0
LINE
  5
B9
330
1F
100
AcDbEntity
  8
Graypants_Ohio24
370
     0
100
AcDbLine
 10
0.0000000000078444
 20
-1343.963929740888
 30
0.0
 11
-302.065885710755
 21
-1343.963929740873
 31
0.0
  0
LINE
  5
BA
330
1F
100
AcDbEntity
  8
Graypants_Ohio24
370
     0
100
AcDbLine
 10
0.0000000000078444
 20
-1336.863929740889
 30
0.0
 11
-300.2290880118447
 21
-1336.863929740874
 31
0.0
  0
LINE
  5
BB
330
1F
100
AcDbEntity
  8
Graypants_Ohio24
370
     0
100
AcDbLine
 10
0.0000000000078444
 20
-1329.763929740883
 30
0.0
 11
-297.9065164190318
 21
-1329.763929740869
 31
0.0
  0
LINE
  5
BC
330
1F
100
AcDbEntity
  8
Graypants_Ohio24
370
     0
100
AcDbLine
 10
0.0000000000078444
 20
-1322.663929740885
 30
0.0
 11
-295.1152655102118
 21
-1322.66392974087
 31
0.0
  0
LINE
  5
BD
330
1F
100
AcDbEntity
  8
Graypants_Ohio24
370
     0
100
AcDbLine
 10
0.0000000000078444
 20
-1315.563929740886
 30
0.0
 11
-291.8672780547198
 21
-1315.563929740872
 31
0.0
  0
LINE
  5
BE
330
1F
100
AcDbEntity
  8
Graypants_Ohio24
370
     0
100
AcDbLine
 10
0.0000000000078444
 20
-1308.463929740888
 30
0.0
 11
-288.1718045297233
 21
-1308.463929740873
 31
0.0
  0
LINE
  5
BF
330
1F
100
AcDbEntity
  8
Graypants_Ohio24
370
     0
100
AcDbLine
 10
0.0000000000078444
 20
-1301.363929740882
 30
0.0
 11
-284.0353329973653
 21
-1301.363929740867
 31
0.0
  0
LINE
  5
C0
330
1F
100
AcDbEntity
  8
Graypants_Ohio24
370
     0
100
AcDbLine
 10
0.0000000000078444
 20
-1294.263929740883
 30
0.0
 11
-279.4614072848557
 21
-1294.263929740869
 31
0.0
  0
LINE
  5
C1
330
1F
100
AcDbEntity
  8
Graypants_Ohio24
370
     0
100
AcDbLine
 10
0.0000000000078444
 20
-1287.163929740885
 30
0.0
 11
-274.4502992647098
 21
-1287.16392974087
 31
0.0
  0
LINE
  5
C2
330
1F
100
AcDbEntity
  8
Graypants_Ohio24
370
     0
100
AcDbLine
 10
0.0000000000078444
 20
-1280.063929740886
 30
0.0
 11
-268.9984772858364
 21
-1280.063929740872
 31
0.0
  0
LINE
  5
C3
330
1F
100
AcDbEntity
  8
Graypants_Ohio24
370
     0
100
AcDbLine
 10
0.0000000000078444
 20
-1272.96392974088
 30
0.0
 11
-263.0958762648
 21
-1272.963929740866
 31
0.0
  0
LINE
  5
C4
330
1F
100
AcDbEntity
  8
Graypants_Ohio24
370
     0
100
AcDbLine
 10
0.0000000000151203
 20
-1265.863929740882
 30
0.0
 11
-256.7224975966741
 21
-1265.863929740867
 31
0.0
  0
LINE
  5
C5
330
1F
100
AcDbEntity
  8
Graypants_Ohio24
370
     0
100
AcDbLine
 10
0.0000000000151203
 20
-1258.763929740883
 30
0.0
 11
-249.8626182823858
 21
-1258.763929740869
 31
0.0
  0
LINE
  5
C6
330
1F
100
AcDbEntity
  8
Graypants_Ohio24
370
     0
100
AcDbLine
 10
0.0000000000151203
 20
-1251.663929740885
 30
0.0
 11
-242.6274193454514
 21
-1251.66392974087
 31
0.0
  0
LINE
  5
C7
330
1F
100
AcDbEntity
  8
Graypants_Ohio24
370
     0
100
AcDbLine
 10
0.0000000000005684
 20
-1500.163929740892
 30
0.0
 11
-234.2009581899978
 21
-1500.163929740885
 31
0.0
  0
LINE
  5
C8
330
1F
100
AcDbEntity
  8
Graypants_Ohio24
370
     0
100
AcDbLine
 10
0.0000000000151203
 20
-1244.563929740879
 30
0.0
 11
-234.2009581899832
 21
-1244.563929740872
 31
0.0
  0
LINE
  5
C9
330
1F
100
AcDbEntity
  8
Graypants_Ohio24
370
     0
100
AcDbLine
 10
-0.0000000000067075
 20
-1244.563929740879
 30
0.0
 11
234.2009581899915
 21
-1244.563929740872
 31
0.0
  0
LINE
  5
CA
330
1F
100
AcDbEntity
  8
Graypants_Ohio24
370
     0
100
AcDbLine
 10
0.0000000000078444
 20
-1500.163929740892
 30
0.0
 11
234.2009581900061
 21
-1500.163929740885
 31
0.0
  0
LINE
  5
CB
330
1F
100
AcDbEntity
  8
Graypants_Ohio24
370
     0
100
AcDbLine
 10
-0.0000000000067075
 20
-1251.663929740885
 30
0.0
 11
242.6274193454597
 21
-1251.66392974087
 31
0.0
  0
LINE
  5
CC
330
1F
100
AcDbEntity
  8
Graypants_Ohio24
370
     0
100
AcDbLine
 10
-0.0000000000067075
 20
-1258.763929740883
 30
0.0
 11
249.8626182824014
 21
-1258.763929740869
 31
0.0
  0
LINE
  5
CD
330
1F
100
AcDbEntity
  8
Graypants_Ohio24
370
     0
100
AcDbLine
 10
-0.0000000000067075
 20
-1265.863929740882
 30
0.0
 11
256.7224975966897
 21
-1265.863929740867
 31
0.0
  0
LINE
  5
CE
330
1F
100
AcDbEntity
  8
Graypants_Ohio24
370
     0
100
AcDbLine
 10
-0.0000000000067075
 20
-1272.96392974088
 30
0.0
 11
263.0958762648156
 21
-1272.963929740866
 31
0.0
  0
LINE
  5
CF
330
1F
100
AcDbEntity
  8
Graypants_Ohio24
370
     0
100
AcDbLine
 10
-0.0000000000067075
 20
-1280.063929740886
 30
0.0
 11
268.9984772858375
 21
-1280.063929740872
 31
0.0
  0
LINE
  5
D0
330
1F
100
AcDbEntity
  8
Graypants_Ohio24
370
     0
100
AcDbLine
 10
-0.0000000000067075
 20
-1287.163929740885
 30
0.0
 11
274.4502992647253
 21
-1287.16392974087
 31
0.0
  0
LINE
  5
D1
330
1F
100
AcDbEntity
  8
Graypants_Ohio24
370
     0
100
AcDbLine
 10
-0.0000000000067075
 20
-1294.263929740883
 30
0.0
 11
279.4614072848713
 21
-1294.263929740869
 31
0.0
  0
LINE
  5
D2
330
1F
100
AcDbEntity
  8
Graypants_Ohio24
370
     0
100
AcDbLine
 10
-0.0000000000067075
 20
-1301.363929740882
 30
0.0
 11
284.0353329973736
 21
-1301.363929740867
 31
0.0
  0
LINE
  5
D3
330
1F
100
AcDbEntity
  8
Graypants_Ohio24
370
     0
100
AcDbLine
 10
-0.0000000000067075
 20
-1308.463929740888
 30
0.0
 11
288.1718045297389
 21
-1308.463929740873
 31
0.0
  0
LINE
  5
D4
330
1F
100
AcDbEntity
  8
Graypants_Ohio24
370
     0
100
AcDbLine
 10
-0.0000000000067075
 20
-1315.563929740886
 30
0.0
 11
291.8672780547281
 21
-1315.563929740872
 31
0.0
  0
LINE
  5
D5
330
1F
100
AcDbEntity
  8
Graypants_Ohio24
370
     0
100
AcDbLine
 10
-0.0000000000067075
 20
-1322.663929740885
 30
0.0
 11
295.1152655102128
 21
-1322.66392974087
 31
0.0
  0
LINE
  5
D6
330
1F
100
AcDbEntity
  8
Graypants_Ohio24
370
     0
100
AcDbLine
 10
-0.0000000000067075
 20
-1329.763929740883
 30
0.0
 11
297.9065164190329
 21
-1329.763929740869
 31
0.0
  0
LINE
  5
D7
330
1F
100
AcDbEntity
  8
Graypants_Ohio24
370
     0
100
AcDbLine
 10
-0.0000000000067075
 20
-1336.863929740889
 30
0.0
 11
300.2290880118458
 21
-1336.863929740874
 31
0.0
  0
LINE
  5
D8
330
1F
100
AcDbEntity
  8
Graypants_Ohio24
370
     0
100
AcDbLine
 10
-0.0000000000067075
 20
-1343.963929740888
 30
0.0
 11
302.0658857107705
 21
-1343.963929740873
 31
0.0
  0
LINE
  5
D9
330
1F
100
AcDbEntity
  8
Graypants_Ohio24
370
     0
100
AcDbLine
 10
-0.0000000000067075
 20
-1351.063929740886
 30
0.0
 11
303.3736658475468
 21
-1351.063929740872
 31
0.0
  0
LINE
  5
DA
330
1F
100
AcDbEntity
  8
Graypants_Ohio24
370
     0
100
AcDbLine
 10
-0.0000000000067075
 20
-1358.163929740885
 30
0.0
 11
304.2246819452635
 21
-1358.16392974087
 31
0.0
  0
LINE
  5
DB
330
1F
100
AcDbEntity
  8
Graypants_Ohio24
100
AcDbLine
 10
304.2246819452635
 20
-1386.563929740872
 30
0.0
 11
304.2246819452635
 21
-1379.463929740873
 31
0.0
  0
LINE
  5
DC
330
1F
100
AcDbEntity
  8
Graypants_Ohio24
100
AcDbLine
 10
303.3736658475614
 20
-1393.663929740877
 30
0.0
 11
303.3736658475541
 21
-1386.563929740872
 31
0.0
  0
LINE
  5
DD
330
1F
100
AcDbEntity
  8
Graypants_Ohio24
100
AcDbLine
 10
302.0658857107705
 20
-1400.763929740876
 30
0.0
 11
302.0658857107705
 21
-1393.663929740877
 31
0.0
  0
LINE
  5
DE
330
1F
100
AcDbEntity
  8
Graypants_Ohio24
100
AcDbLine
 10
300.2290880118458
 20
-1407.863929740874
 30
0.0
 11
300.2290880118458
 21
-1400.763929740876
 31
0.0
  0
LINE
  5
DF
330
1F
100
AcDbEntity
  8
Graypants_Ohio24
100
AcDbLine
 10
297.9065164190329
 20
-1414.963929740873
 30
0.0
 11
297.9065164190329
 21
-1407.863929740874
 31
0.0
  0
LINE
  5
E0
330
1F
100
AcDbEntity
  8
Graypants_Ohio24
100
AcDbLine
 10
295.1152655102273
 20
-1422.063929740879
 30
0.0
 11
295.1152655102273
 21
-1414.963929740873
 31
0.0
  0
LINE
  5
E1
330
1F
100
AcDbEntity
  8
Graypants_Ohio24
100
AcDbLine
 10
291.8672780547354
 20
-1429.163929740877
 30
0.0
 11
291.8672780547354
 21
-1422.063929740879
 31
0.0
  0
LINE
  5
E2
330
1F
100
AcDbEntity
  8
Graypants_Ohio24
100
AcDbLine
 10
288.1718045297389
 20
-1436.263929740876
 30
0.0
 11
288.1718045297389
 21
-1429.163929740877
 31
0.0
  0
LINE
  5
E3
330
1F
100
AcDbEntity
  8
Graypants_Ohio24
100
AcDbLine
 10
284.0353329973809
 20
-1443.363929740874
 30
0.0
 11
284.0353329973809
 21
-1436.263929740876
 31
0.0
  0
LINE
  5
E4
330
1F
100
AcDbEntity
  8
Graypants_Ohio24
100
AcDbLine
 10
279.4614072848858
 20
-1450.46392974088
 30
0.0
 11
279.4614072848785
 21
-1443.363929740874
 31
0.0
  0
LINE
  5
E5
330
1F
100
AcDbEntity
  8
Graypants_Ohio24
100
AcDbLine
 10
274.4502992647253
 20
-1457.563929740879
 30
0.0
 11
274.4502992647253
 21
-1450.46392974088
 31
0.0
  0
LINE
  5
E6
330
1F
100
AcDbEntity
  8
Graypants_Ohio24
100
AcDbLine
 10
268.998477285852
 20
-1464.663929740877
 30
0.0
 11
268.998477285852
 21
-1457.563929740879
 31
0.0
  0
LINE
  5
E7
330
1F
100
AcDbEntity
  8
Graypants_Ohio24
100
AcDbLine
 10
263.0958762648302
 20
-1471.763929740876
 30
0.0
 11
263.0958762648302
 21
-1464.663929740877
 31
0.0
  0
LINE
  5
E8
330
1F
100
AcDbEntity
  8
Graypants_Ohio24
100
AcDbLine
 10
256.7224975967042
 20
-1478.863929740882
 30
0.0
 11
256.7224975967042
 21
-1471.763929740876
 31
0.0
  0
LINE
  5
E9
330
1F
100
AcDbEntity
  8
Graypants_Ohio24
100
AcDbLine
 10
249.862618282416
 20
-1485.96392974088
 30
0.0
 11
249.862618282416
 21
-1478.863929740882
 31
0.0
  0
LINE
  5
EA
330
1F
100
AcDbEntity
  8
Graypants_Ohio24
100
AcDbLine
 10
242.6274193454742
 20
-1493.063929740879
 30
0.0
 11
242.6274193454742
 21
-1485.96392974088
 31
0.0
  0
LINE
  5
EB
330
1F
100
AcDbEntity
  8
Graypants_Ohio24
100
AcDbLine
 10
234.2009581900061
 20
-1500.163929740885
 30
0.0
 11
234.2009581900061
 21
-1493.063929740879
 31
0.0
  0
LINE
  5
EC
330
1F
100
AcDbEntity
  8
Graypants_Ohio24
370
     0
100
AcDbLine
 10
0.0000000000005684
 20
-1386.563929740886
 30
0.0
 11
304.2246819452635
 21
-1386.563929740872
 31
0.0
  0
LINE
  5
ED
330
1F
100
AcDbEntity
  8
Graypants_Ohio24
370
     0
100
AcDbLine
 10
0.0000000000078444
 20
-1393.663929740892
 30
0.0
 11
303.3736658475614
 21
-1393.663929740877
 31
0.0
  0
LINE
  5
EE
330
1F
100
AcDbEntity
  8
Graypants_Ohio24
370
     0
100
AcDbLine
 10
0.0000000000078444
 20
-1400.76392974089
 30
0.0
 11
302.0658857107705
 21
-1400.763929740876
 31
0.0
  0
LINE
  5
EF
330
1F
100
AcDbEntity
  8
Graypants_Ohio24
370
     0
100
AcDbLine
 10
0.0000000000078444
 20
-1407.863929740889
 30
0.0
 11
300.2290880118458
 21
-1407.863929740874
 31
0.0
  0
LINE
  5
F0
330
1F
100
AcDbEntity
  8
Graypants_Ohio24
370
     0
100
AcDbLine
 10
0.0000000000078444
 20
-1414.963929740888
 30
0.0
 11
297.9065164190329
 21
-1414.963929740873
 31
0.0
  0
LINE
  5
F1
330
1F
100
AcDbEntity
  8
Graypants_Ohio24
370
     0
100
AcDbLine
 10
0.0000000000078444
 20
-1422.063929740893
 30
0.0
 11
295.1152655102273
 21
-1422.063929740879
 31
0.0
  0
LINE
  5
F2
330
1F
100
AcDbEntity
  8
Graypants_Ohio24
370
     0
100
AcDbLine
 10
0.0000000000078444
 20
-1429.163929740892
 30
0.0
 11
291.8672780547354
 21
-1429.163929740877
 31
0.0
  0
LINE
  5
F3
330
1F
100
AcDbEntity
  8
Graypants_Ohio24
370
     0
100
AcDbLine
 10
0.0000000000078444
 20
-1436.26392974089
 30
0.0
 11
288.1718045297389
 21
-1436.263929740876
 31
0.0
  0
LINE
  5
F4
330
1F
100
AcDbEntity
  8
Graypants_Ohio24
370
     0
100
AcDbLine
 10
0.0000000000078444
 20
-1443.363929740889
 30
0.0
 11
284.0353329973809
 21
-1443.363929740874
 31
0.0
  0
LINE
  5
F5
330
1F
100
AcDbEntity
  8
Graypants_Ohio24
370
     0
100
AcDbLine
 10
0.0000000000078444
 20
-1450.463929740895
 30
0.0
 11
279.4614072848858
 21
-1450.46392974088
 31
0.0
  0
LINE
  5
F6
330
1F
100
AcDbEntity
  8
Graypants_Ohio24
370
     0
100
AcDbLine
 10
0.0000000000078444
 20
-1457.563929740893
 30
0.0
 11
274.4502992647253
 21
-1457.563929740879
 31
0.0
  0
LINE
  5
F7
330
1F
100
AcDbEntity
  8
Graypants_Ohio24
370
     0
100
AcDbLine
 10
0.0000000000078444
 20
-1464.663929740892
 30
0.0
 11
268.998477285852
 21
-1464.663929740877
 31
0.0
  0
LINE
  5
F8
330
1F
100
AcDbEntity
  8
Graypants_Ohio24
370
     0
100
AcDbLine
 10
0.0000000000078444
 20
-1471.76392974089
 30
0.0
 11
263.0958762648302
 21
-1471.763929740876
 31
0.0
  0
LINE
  5
F9
330
1F
100
AcDbEntity
  8
Graypants_Ohio24
370
     0
100
AcDbLine
 10
0.0000000000078444
 20
-1478.863929740896
 30
0.0
 11
256.7224975967042
 21
-1478.863929740882
 31
0.0
  0
LINE
  5
FA
330
1F
100
AcDbEntity
  8
Graypants_Ohio24
370
     0
100
AcDbLine
 10
0.0000000000078444
 20
-1485.963929740895
 30
0.0
 11
249.862618282416
 21
-1485.96392974088
 31
0.0
  0
LINE
  5
FB
330
1F
100
AcDbEntity
  8
Graypants_Ohio24
370
     0
100
AcDbLine
 10
0.0000000000078444
 20
-1493.063929740893
 30
0.0
 11
242.6274193454742
 21
-1493.063929740879
 31
0.0
  0
LINE
  5
FC
330
1F
100
AcDbEntity
  8
Graypants_Ohio24
100
AcDbLine
 10
234.2009581900061
 20
-1244.563929740864
 30
0.0
 11
234.2009581900061
 21
-1251.663929740863
 31
0.0
  0
LINE
  5
FD
330
1F
100
AcDbEntity
  8
Graypants_Ohio24
100
AcDbLine
 10
242.6274193454742
 20
-1251.663929740863
 30
0.0
 11
242.6274193454742
 21
-1258.763929740861
 31
0.0
  0
LINE
  5
FE
330
1F
100
AcDbEntity
  8
Graypants_Ohio24
100
AcDbLine
 10
249.862618282416
 20
-1258.763929740861
 30
0.0
 11
249.862618282416
 21
-1265.86392974086
 31
0.0
  0
LINE
  5
FF
330
1F
100
AcDbEntity
  8
Graypants_Ohio24
100
AcDbLine
 10
256.7224975967042
 20
-1265.863929740867
 30
0.0
 11
256.7224975967042
 21
-1272.963929740866
 31
0.0
  0
LINE
  5
100
330
1F
100
AcDbEntity
  8
Graypants_Ohio24
100
AcDbLine
 10
263.0958762648302
 20
-1272.963929740866
 30
0.0
 11
263.0958762648302
 21
-1280.063929740872
 31
0.0
  0
LINE
  5
101
330
1F
100
AcDbEntity
  8
Graypants_Ohio24
100
AcDbLine
 10
268.998477285852
 20
-1280.063929740872
 30
0.0
 11
268.998477285852
 21
-1287.16392974087
 31
0.0
  0
LINE
  5
102
330
1F
100
AcDbEntity
  8
Graypants_Ohio24
100
AcDbLine
 10
274.4502992647253
 20
-1287.16392974087
 30
0.0
 11
274.4502992647253
 21
-1294.263929740869
 31
0.0
  0
LINE
  5
103
330
1F
100
AcDbEntity
  8
Graypants_Ohio24
100
AcDbLine
 10
279.4614072848858
 20
-1294.263929740869
 30
0.0
 11
279.4614072848785
 21
-1301.363929740867
 31
0.0
  0
LINE
  5
104
330
1F
100
AcDbEntity
  8
Graypants_Ohio24
100
AcDbLine
 10
284.0353329973809
 20
-1301.363929740867
 30
0.0
 11
284.0353329973809
 21
-1308.463929740873
 31
0.0
  0
LINE
  5
105
330
1F
100
AcDbEntity
  8
Graypants_Ohio24
100
AcDbLine
 10
288.1718045297389
 20
-1308.463929740873
 30
0.0
 11
288.1718045297389
 21
-1315.563929740872
 31
0.0
  0
LINE
  5
106
330
1F
100
AcDbEntity
  8
Graypants_Ohio24
100
AcDbLine
 10
291.8672780547354
 20
-1315.563929740872
 30
0.0
 11
291.8672780547354
 21
-1322.66392974087
 31
0.0
  0
LINE
  5
107
330
1F
100
AcDbEntity
  8
Graypants_Ohio24
100
AcDbLine
 10
295.1152655102273
 20
-1322.66392974087
 30
0.0
 11
295.1152655102273
 21
-1329.763929740869
 31
0.0
  0
LINE
  5
108
330
1F
100
AcDbEntity
  8
Graypants_Ohio24
100
AcDbLine
 10
297.9065164190329
 20
-1329.763929740869
 30
0.0
 11
297.9065164190329
 21
-1336.863929740874
 31
0.0
  0
LINE
  5
109
330
1F
100
AcDbEntity
  8
Graypants_Ohio24
100
AcDbLine
 10
300.2290880118458
 20
-1336.863929740874
 30
0.0
 11
300.2290880118458
 21
-1343.963929740873
 31
0.0
  0
LINE
  5
10A
330
1F
100
AcDbEntity
  8
Graypants_Ohio24
100
AcDbLine
 10
302.0658857107705
 20
-1343.963929740873
 30
0.0
 11
302.0658857107705
 21
-1351.063929740872
 31
0.0
  0
LINE
  5
10B
330
1F
100
AcDbEntity
  8
Graypants_Ohio24
100
AcDbLine
 10
303.3736658475614
 20
-1351.063929740872
 30
0.0
 11
303.3736658475541
 21
-1358.16392974087
 31
0.0
  0
LINE
  5
10C
330
1F
100
AcDbEntity
  8
Graypants_Ohio24
100
AcDbLine
 10
304.2246819452635
 20
-1358.16392974087
 30
0.0
 11
304.2246819452635
 21
-1365.263929740876
 31
0.0
  0
LINE
  5
10D
330
1F
100
AcDbEntity
  8
Graypants_Ohio24
100
AcDbLine
 10
304.2246819452635
 20
-1365.263929740876
 30
0.0
 11
304.2246819452635
 21
-1372.363929740874
 31
0.0
  0
LINE
  5
10E
330
1F
100
AcDbEntity
  8
Graypants_Ohio24
100
AcDbLine
 10
304.2246819452635
 20
-1372.363929740874
 30
0.0
 11
304.2246819452635
 21
-1379.46392974088
 31
0.0
  0
LINE
  5
10F
330
1F
100
AcDbEntity
  8
Graypants_Ohio24
370
     0
100
AcDbLine
 10
0.0000000000005684
 20
-1365.26392974089
 30
0.0
 11
304.2246819452635
 21
-1365.263929740876
 31
0.0
  0
LINE
  5
110
330
1F
100
AcDbEntity
  8
Graypants_Ohio24
370
     0
100
AcDbLine
 10
0.0000000000005684
 20
-1372.363929740889
 30
0.0
 11
304.2246819452635
 21
-1372.363929740874
 31
0.0
  0
LINE
  5
111
330
1F
100
AcDbEntity
  8
Graypants_Ohio24
370
     0
100
AcDbLine
 10
0.0000000000005684
 20
-1379.463929740888
 30
0.0
 11
304.2246819452635
 21
-1379.463929740873
 31
0.0
  0
LINE
  5
112
330
1F
100
AcDbEntity
  8
Graypants_Ohio24
 62
    36
420
  8866048
370
    -3
100
AcDbLine
 10
182.6995326016252
 20
-1504.315893299952
 30
0.0
 11
197.1368035491062
 21
-1504.315893299952
 31
0.0
  0
LINE
  5
113
330
1F
100
AcDbEntity
  8
Graypants_Ohio24
 62
    36
420
  8866048
370
    -3
100
AcDbLine
 10
-182.6995342636598
 20
-1504.315893299953
 30
0.0
 11
-197.136805340356
 21
-1504.315893299953
 31
0.0
  0
ARC
  5
114
330
1F
100
AcDbEntity
  8
Graypants_Ohio24
 62
    36
420
  8866048
370
    -3
100
AcDbCircle
 10
-140.940022780544
 20
-1508.341438869096
 30
0.0
 40
39.73663162675496
210
0.0
220
0.0
230
-1.0
100
AcDbArc
 50
168.1240925040948
 51
170.6374776846487
  0
ARC
  5
115
330
1F
100
AcDbEntity
  8
Graypants_Ohio24
 62
    36
420
  8866048
370
    -3
100
AcDbCircle
 10
-140.9400247435547
 20
-1508.341438873634
 30
0.0
 40
39.73663130798801
100
AcDbArc
 50
168.1240924007526
 51
170.6374776022367
  0
LINE
  5
116
330
1F
100
AcDbEntity
  8
Graypants_Ohio24
 62
    36
420
  8866048
370
    -3
100
AcDbLine
 10
198.636803576439
 20
-1504.315893299952
 30
0.0
 11
197.1368035491062
 21
-1504.315893299952
 31
0.0
  0
POLYLINE
  5
117
330
1F
100
AcDbEntity
  8
Graypants_Ohio24
 62
    36
420
  8866048
370
    -3
100
AcDb2dPolyline
 66
     1
 10
0.0
 20
0.0
 30
0.0
  0
VERTEX
  5
118
330
117
100
AcDbEntity
  8
Graypants_Ohio24
 62
    36
420
  8866048
370
    -3
100
AcDbVertex
100
AcDb2dVertex
 10
180.1473141353479
 20
-1501.877059729539
 30
0.0
  0
VERTEX
  5
119
330
117
100
AcDbEntity
  8
Graypants_Ohio24
 62
    36
420
  8866048
370
    -3
100
AcDbVertex
100
AcDb2dVertex
 10
180.1575406793413
 20
-1501.935868555968
 30
0.0
  0
VERTEX
  5
11A
330
117
100
AcDbEntity
  8
Graypants_Ohio24
 62
    36
420
  8866048
370
    -3
100
AcDbVertex
100
AcDb2dVertex
 10
180.1688659868438
 20
-1501.994839941978
 30
0.0
  0
VERTEX
  5
11B
330
117
100
AcDbEntity
  8
Graypants_Ohio24
 62
    36
420
  8866048
370
    -3
100
AcDbVertex
100
AcDb2dVertex
 10
180.1813052941554
 20
-1502.053936795405
 30
0.0
  0
VERTEX
  5
11C
330
117
100
AcDbEntity
  8
Graypants_Ohio24
 62
    36
420
  8866048
370
    -3
100
AcDbVertex
100
AcDb2dVertex
 10
180.1948727187841
 20
-1502.113120825054
 30
0.0
  0
VERTEX
  5
11D
330
117
100
AcDbEntity
  8
Graypants_Ohio24
 62
    36
420
  8866048
370
    -3
100
AcDbVertex
100
AcDb2dVertex
 10
180.2095811884446
 20
-1502.172352588489
 30
0.0
  0
VERTEX
  5
11E
330
117
100
AcDbEntity
  8
Graypants_Ohio24
 62
    36
420
  8866048
370
    -3
100
AcDbVertex
100
AcDb2dVertex
 10
180.2254423713396
 20
-1502.231591545775
 30
0.0
  0
VERTEX
  5
11F
330
117
100
AcDbEntity
  8
Graypants_Ohio24
 62
    36
420
  8866048
370
    -3
100
AcDbVertex
100
AcDb2dVertex
 10
180.242466608125
 20
-1502.290796119213
 30
0.0
  0
VERTEX
  5
120
330
117
100
AcDbEntity
  8
Graypants_Ohio24
 62
    36
420
  8866048
370
    -3
100
AcDbVertex
100
AcDb2dVertex
 10
180.2606628459749
 20
-1502.349923759029
 30
0.0
  0
VERTEX
  5
121
330
117
100
AcDbEntity
  8
Graypants_Ohio24
 62
    36
420
  8866048
370
    -3
100
AcDbVertex
100
AcDb2dVertex
 10
180.2800385751667
 20
-1502.408931014961
 30
0.0
  0
VERTEX
  5
122
330
117
100
AcDbEntity
  8
Graypants_Ohio24
 62
    36
420
  8866048
370
    -3
100
AcDbVertex
100
AcDb2dVertex
 10
180.3005997686112
 20
-1502.467773613633
 30
0.0
  0
VERTEX
  5
123
330
117
100
AcDbEntity
  8
Graypants_Ohio24
 62
    36
420
  8866048
370
    -3
100
AcDbVertex
100
AcDb2dVertex
 10
180.3223508247542
 20
-1502.526406541554
 30
0.0
  0
VERTEX
  5
124
330
117
100
AcDbEntity
  8
Graypants_Ohio24
 62
    36
420
  8866048
370
    -3
100
AcDbVertex
100
AcDb2dVertex
 10
180.3452945142716
 20
-1502.58478413357
 30
0.0
  0
VERTEX
  5
125
330
117
100
AcDbEntity
  8
Graypants_Ohio24
 62
    36
420
  8866048
370
    -3
100
AcDbVertex
100
AcDb2dVertex
 10
180.3694319309751
 20
-1502.642860166499
 30
0.0
  0
VERTEX
  5
126
330
117
100
AcDbEntity
  8
Graypants_Ohio24
 62
    36
420
  8866048
370
    -3
100
AcDbVertex
100
AcDb2dVertex
 10
180.3947624473313
 20
-1502.700587957679
 30
0.0
  0
VERTEX
  5
127
330
117
100
AcDbEntity
  8
Graypants_Ohio24
 62
    36
420
  8866048
370
    -3
100
AcDbVertex
100
AcDb2dVertex
 10
180.4212836749867
 20
-1502.757920468084
 30
0.0
  0
VERTEX
  5
128
330
117
100
AcDbEntity
  8
Graypants_Ohio24
 62
    36
420
  8866048
370
    -3
100
AcDbVertex
100
AcDb2dVertex
 10
180.4489914306685
 20
-1502.814810409649
 30
0.0
  0
VERTEX
  5
129
330
117
100
AcDbEntity
  8
Graypants_Ohio24
 62
    36
420
  8866048
370
    -3
100
AcDbVertex
100
AcDb2dVertex
 10
180.4778797078081
 20
-1502.871210356349
 30
0.0
  0
VERTEX
  5
12A
330
117
100
AcDbEntity
  8
Graypants_Ohio24
 62
    36
420
  8866048
370
    -3
100
AcDbVertex
100
AcDb2dVertex
 10
180.5079406542095
 20
-1502.927072858611
 30
0.0
  0
VERTEX
  5
12B
330
117
100
AcDbEntity
  8
Graypants_Ohio24
 62
    36
420
  8866048
370
    -3
100
AcDbVertex
100
AcDb2dVertex
 10
180.5391645560513
 20
-1502.982350560519
 30
0.0
  0
VERTEX
  5
12C
330
117
100
AcDbEntity
  8
Graypants_Ohio24
 62
    36
420
  8866048
370
    -3
100
AcDbVertex
100
AcDb2dVertex
 10
180.5715398284763
 20
-1503.036996319305
 30
0.0
  0
VERTEX
  5
12D
330
117
100
AcDbEntity
  8
Graypants_Ohio24
 62
    36
420
  8866048
370
    -3
100
AcDbVertex
100
AcDb2dVertex
 10
180.6050530129851
 20
-1503.090963326546
 30
0.0
  0
VERTEX
  5
12E
330
117
100
AcDbEntity
  8
Graypants_Ohio24
 62
    36
420
  8866048
370
    -3
100
AcDbVertex
100
AcDb2dVertex
 10
180.6396887818096
 20
-1503.14420523046
 30
0.0
  0
VERTEX
  5
12F
330
117
100
AcDbEntity
  8
Graypants_Ohio24
 62
    36
420
  8866048
370
    -3
100
AcDbVertex
100
AcDb2dVertex
 10
180.6754299493939
 20
-1503.19667625871
 30
0.0
  0
VERTEX
  5
130
330
117
100
AcDbEntity
  8
Graypants_Ohio24
 62
    36
420
  8866048
370
    -3
100
AcDbVertex
100
AcDb2dVertex
 10
180.712257491068
 20
-1503.248331341042
 30
0.0
  0
VERTEX
  5
131
330
117
100
AcDbEntity
  8
Graypants_Ohio24
 62
    36
420
  8866048
370
    -3
100
AcDbVertex
100
AcDb2dVertex
 10
180.7501505689474
 20
-1503.299126231141
 30
0.0
  0
VERTEX
  5
132
330
117
100
AcDbEntity
  8
Graypants_Ohio24
 62
    36
420
  8866048
370
    -3
100
AcDbVertex
100
AcDb2dVertex
 10
180.7890865650433
 20
-1503.349017627016
 30
0.0
  0
VERTEX
  5
133
330
117
100
AcDbEntity
  8
Graypants_Ohio24
 62
    36
420
  8866048
370
    -3
100
AcDbVertex
100
AcDb2dVertex
 10
180.8290411215158
 20
-1503.397963289278
 30
0.0
  0
VERTEX
  5
134
330
117
100
AcDbEntity
  8
Graypants_Ohio24
 62
    36
420
  8866048
370
    -3
100
AcDbVertex
100
AcDb2dVertex
 10
180.8699881879513
 20
-1503.445922156638
 30
0.0
  0
VERTEX
  5
135
330
117
100
AcDbEntity
  8
Graypants_Ohio24
 62
    36
420
  8866048
370
    -3
100
AcDbVertex
100
AcDb2dVertex
 10
180.9119000754941
 20
-1503.492854457989
 30
0.0
  0
VERTEX
  5
136
330
117
100
AcDbEntity
  8
Graypants_Ohio24
 62
    36
420
  8866048
370
    -3
100
AcDbVertex
100
AcDb2dVertex
 10
180.9547475176102
 20
-1503.53872182044
 30
0.0
  0
VERTEX
  5
137
330
117
100
AcDbEntity
  8
Graypants_Ohio24
 62
    36
420
  8866048
370
    -3
100
AcDbVertex
100
AcDb2dVertex
 10
180.9984997372151
 20
-1503.583487372693
 30
0.0
  0
VERTEX
  5
138
330
117
100
AcDbEntity
  8
Graypants_Ohio24
 62
    36
420
  8866048
370
    -3
100
AcDbVertex
100
AcDb2dVertex
 10
181.0431245198449
 20
-1503.627115843192
 30
0.0
  0
VERTEX
  5
139
330
117
100
AcDbEntity
  8
Graypants_Ohio24
 62
    36
420
  8866048
370
    -3
100
AcDbVertex
100
AcDb2dVertex
 10
181.0885882925119
 20
-1503.669573652481
 30
0.0
  0
VERTEX
  5
13A
330
117
100
AcDbEntity
  8
Graypants_Ohio24
 62
    36
420
  8866048
370
    -3
100
AcDbVertex
100
AcDb2dVertex
 10
181.1348562078377
 20
-1503.710828999294
 30
0.0
  0
VERTEX
  5
13B
330
117
100
AcDbEntity
  8
Graypants_Ohio24
 62
    36
420
  8866048
370
    -3
100
AcDbVertex
100
AcDb2dVertex
 10
181.181892233023
 20
-1503.750851939878
 30
0.0
  0
VERTEX
  5
13C
330
117
100
AcDbEntity
  8
Graypants_Ohio24
 62
    36
420
  8866048
370
    -3
100
AcDbVertex
100
AcDb2dVertex
 10
181.2296592431771
 20
-1503.789614460169
 30
0.0
  0
VERTEX
  5
13D
330
117
100
AcDbEntity
  8
Graypants_Ohio24
 62
    36
420
  8866048
370
    -3
100
AcDbVertex
100
AcDb2dVertex
 10
181.2781191185008
 20
-1503.827090540433
 30
0.0
  0
VERTEX
  5
13E
330
117
100
AcDbEntity
  8
Graypants_Ohio24
 62
    36
420
  8866048
370
    -3
100
AcDbVertex
100
AcDb2dVertex
 10
181.327232844791
 20
-1503.863256212068
 30
0.0
  0
VERTEX
  5
13F
330
117
100
AcDbEntity
  8
Graypants_Ohio24
 62
    36
420
  8866048
370
    -3
100
AcDbVertex
100
AcDb2dVertex
 10
181.3769606167153
 20
-1503.898089606325
 30
0.0
  0
VERTEX
  5
140
330
117
100
AcDbEntity
  8
Graypants_Ohio24
 62
    36
420
  8866048
370
    -3
100
AcDbVertex
100
AcDb2dVertex
 10
181.4272619432894
 20
-1503.931570994745
 30
0.0
  0
VERTEX
  5
141
330
117
100
AcDbEntity
  8
Graypants_Ohio24
 62
    36
420
  8866048
370
    -3
100
AcDbVertex
100
AcDb2dVertex
 10
181.478095754982
 20
-1503.96368282118
 30
0.0
  0
VERTEX
  5
142
330
117
100
AcDbEntity
  8
Graypants_Ohio24
 62
    36
420
  8866048
370
    -3
100
AcDbVertex
100
AcDb2dVertex
 10
181.5294205118638
 20
-1503.99440972533
 30
0.0
  0
VERTEX
  5
143
330
117
100
AcDbEntity
  8
Graypants_Ohio24
 62
    36
420
  8866048
370
    -3
100
AcDbVertex
100
AcDb2dVertex
 10
181.5811943122229
 20
-1504.023738557783
 30
0.0
  0
VERTEX
  5
144
330
117
100
AcDbEntity
  8
Graypants_Ohio24
 62
    36
420
  8866048
370
    -3
100
AcDbVertex
100
AcDb2dVertex
 10
181.6333750010706
 20
-1504.051658386596
 30
0.0
  0
VERTEX
  5
145
330
117
100
AcDbEntity
  8
Graypants_Ohio24
 62
    36
420
  8866048
370
    -3
100
AcDbVertex
100
AcDb2dVertex
 10
181.6859202779748
 20
-1504.07816049554
 30
0.0
  0
VERTEX
  5
146
330
117
100
AcDbEntity
  8
Graypants_Ohio24
 62
    36
420
  8866048
370
    -3
100
AcDbVertex
100
AcDb2dVertex
 10
181.7387878036737
 20
-1504.103238374151
 30
0.0
  0
VERTEX
  5
147
330
117
100
AcDbEntity
  8
Graypants_Ohio24
 62
    36
420
  8866048
370
    -3
100
AcDbVertex
100
AcDb2dVertex
 10
181.7919353049427
 20
-1504.126887699816
 30
0.0
  0
VERTEX
  5
148
330
117
100
AcDbEntity
  8
Graypants_Ohio24
 62
    36
420
  8866048
370
    -3
100
AcDbVertex
100
AcDb2dVertex
 10
181.8453206772114
 20
-1504.149106312141
 30
0.0
  0
VERTEX
  5
149
330
117
100
AcDbEntity
  8
Graypants_Ohio24
 62
    36
420
  8866048
370
    -3
100
AcDbVertex
100
AcDb2dVertex
 10
181.898902084456
 20
-1504.169894179931
 30
0.0
  0
VERTEX
  5
14A
330
117
100
AcDbEntity
  8
Graypants_Ohio24
 62
    36
420
  8866048
370
    -3
100
AcDbVertex
100
AcDb2dVertex
 10
181.9526380559249
 20
-1504.189253361118
 30
0.0
  0
VERTEX
  5
14B
330
117
100
AcDbEntity
  8
Graypants_Ohio24
 62
    36
420
  8866048
370
    -3
100
AcDbVertex
100
AcDb2dVertex
 10
182.0064875792874
 20
-1504.207187956025
 30
0.0
  0
VERTEX
  5
14C
330
117
100
AcDbEntity
  8
Graypants_Ohio24
 62
    36
420
  8866048
370
    -3
100
AcDbVertex
100
AcDb2dVertex
 10
182.0604101898342
 20
-1504.223704054405
 30
0.0
  0
VERTEX
  5
14D
330
117
100
AcDbEntity
  8
Graypants_Ohio24
 62
    36
420
  8866048
370
    -3
100
AcDbVertex
100
AcDb2dVertex
 10
182.1143660553972
 20
-1504.238809676682
 30
0.0
  0
VERTEX
  5
14E
330
117
100
AcDbEntity
  8
Graypants_Ohio24
 62
    36
420
  8866048
370
    -3
100
AcDbVertex
100
AcDb2dVertex
 10
182.1683160566933
 20
-1504.252514709886
 30
0.0
  0
VERTEX
  5
14F
330
117
100
AcDbEntity
  8
Graypants_Ohio24
 62
    36
420
  8866048
370
    -3
100
AcDbVertex
100
AcDb2dVertex
 10
182.2222218628419
 20
-1504.264830838767
 30
0.0
  0
VERTEX
  5
150
330
117
100
AcDbEntity
  8
Graypants_Ohio24
 62
    36
420
  8866048
370
    -3
100
AcDbVertex
100
AcDb2dVertex
 10
182.2760460018441
 20
-1504.275771472586
 30
0.0
  0
VERTEX
  5
151
330
117
100
AcDbEntity
  8
Graypants_Ohio24
 62
    36
420
  8866048
370
    -3
100
AcDbVertex
100
AcDb2dVertex
 10
182.3297519258545
 20
-1504.28535166811
 30
0.0
  0
VERTEX
  5
152
330
117
100
AcDbEntity
  8
Graypants_Ohio24
 62
    36
420
  8866048
370
    -3
100
AcDbVertex
100
AcDb2dVertex
 10
182.3833040711172
 20
-1504.293588049313
 30
0.0
  0
VERTEX
  5
153
330
117
100
AcDbEntity
  8
Graypants_Ohio24
 62
    36
420
  8866048
370
    -3
100
AcDbVertex
100
AcDb2dVertex
 10
182.4366679124781
 20
-1504.300498724317
 30
0.0
  0
VERTEX
  5
154
330
117
100
AcDbEntity
  8
Graypants_Ohio24
 62
    36
420
  8866048
370
    -3
100
AcDbVertex
100
AcDb2dVertex
 10
182.4898100124227
 20
-1504.306103200063
 30
0.0
  0
VERTEX
  5
155
330
117
100
AcDbEntity
  8
Graypants_Ohio24
 62
    36
420
  8866048
370
    -3
100
AcDbVertex
100
AcDb2dVertex
 10
182.5426980646285
 20
-1504.310422295238
 30
0.0
  0
VERTEX
  5
156
330
117
100
AcDbEntity
  8
Graypants_Ohio24
 62
    36
420
  8866048
370
    -3
100
AcDbVertex
100
AcDb2dVertex
 10
182.5953009320564
 20
-1504.313478051921
 30
0.0
  0
VERTEX
  5
157
330
117
100
AcDbEntity
  8
Graypants_Ohio24
 62
    36
420
  8866048
370
    -3
100
AcDbVertex
100
AcDb2dVertex
 10
182.6475886796343
 20
-1504.315293646451
 30
0.0
  0
VERTEX
  5
158
330
117
100
AcDbEntity
  8
Graypants_Ohio24
 62
    36
420
  8866048
370
    -3
100
AcDbVertex
100
AcDb2dVertex
 10
182.6995326016252
 20
-1504.315893299952
 30
0.0
  0
SEQEND
  5
159
330
117
100
AcDbEntity
  8
Graypants_Ohio24
 62
    36
420
  8866048
370
    -3
  0
LINE
  5
15A
330
1F
100
AcDbEntity
  8
Graypants_Ohio24
 62
    36
420
  8866048
370
    -3
100
AcDbLine
 10
198.8688543461544
 20
-1502.315893299952
 30
0.0
 11
198.8688543461544
 21
-1500.163929740891
 31
0.0
  0
LINE
  5
15B
330
1F
100
AcDbEntity
  8
Graypants_Ohio24
 62
    36
420
  8866048
370
    -3
100
AcDbLine
 10
200.3688543734872
 20
-1502.315893299952
 30
0.0
 11
200.3688543734872
 21
-1500.163929740891
 31
0.0
  0
POLYLINE
  5
15C
330
1F
100
AcDbEntity
  8
Graypants_Ohio24
 62
    36
420
  8866048
370
    -3
100
AcDb2dPolyline
 66
     1
 10
0.0
 20
0.0
 30
0.0
  0
VERTEX
  5
15D
330
15C
100
AcDbEntity
  8
Graypants_Ohio24
 62
    36
420
  8866048
370
    -3
100
AcDbVertex
100
AcDb2dVertex
 10
197.1368035491062
 20
-1504.315893299952
 30
0.0
  0
VERTEX
  5
15E
330
15C
100
AcDbEntity
  8
Graypants_Ohio24
 62
    36
420
  8866048
370
    -3
100
AcDbVertex
100
AcDb2dVertex
 10
197.1752480511897
 20
-1504.31540057934
 30
0.0
  0
VERTEX
  5
15F
330
15C
100
AcDbEntity
  8
Graypants_Ohio24
 62
    36
420
  8866048
370
    -3
100
AcDbVertex
100
AcDb2dVertex
 10
197.2140187965164
 20
-1504.313904913364
 30
0.0
  0
VERTEX
  5
160
330
15C
100
AcDbEntity
  8
Graypants_Ohio24
 62
    36
420
  8866048
370
    -3
100
AcDbVertex
100
AcDb2dVertex
 10
197.253090390153
 20
-1504.311380665797
 30
0.0
  0
VERTEX
  5
161
330
15C
100
AcDbEntity
  8
Graypants_Ohio24
 62
    36
420
  8866048
370
    -3
100
AcDbVertex
100
AcDb2dVertex
 10
197.2924359998852
 20
-1504.307803117178
 30
0.0
  0
VERTEX
  5
162
330
15C
100
AcDbEntity
  8
Graypants_Ohio24
 62
    36
420
  8866048
370
    -3
100
AcDbVertex
100
AcDb2dVertex
 10
197.3320273730379
 20
-1504.30314857901
 30
0.0
  0
VERTEX
  5
163
330
15C
100
AcDbEntity
  8
Graypants_Ohio24
 62
    36
420
  8866048
370
    -3
100
AcDbVertex
100
AcDb2dVertex
 10
197.3718348605892
 20
-1504.297394509289
 30
0.0
  0
VERTEX
  5
164
330
15C
100
AcDbEntity
  8
Graypants_Ohio24
 62
    36
420
  8866048
370
    -3
100
AcDbVertex
100
AcDb2dVertex
 10
197.4118274488669
 20
-1504.290519628701
 30
0.0
  0
VERTEX
  5
165
330
15C
100
AcDbEntity
  8
Graypants_Ohio24
 62
    36
420
  8866048
370
    -3
100
AcDbVertex
100
AcDb2dVertex
 10
197.4519727990699
 20
-1504.282504036785
 30
0.0
  0
VERTEX
  5
166
330
15C
100
AcDbEntity
  8
Graypants_Ohio24
 62
    36
420
  8866048
370
    -3
100
AcDbVertex
100
AcDb2dVertex
 10
197.4922372948064
 20
-1504.273329327305
 30
0.0
  0
VERTEX
  5
167
330
15C
100
AcDbEntity
  8
Graypants_Ohio24
 62
    36
420
  8866048
370
    -3
100
AcDbVertex
100
AcDb2dVertex
 10
197.5325860977819
 20
-1504.262978702038
 30
0.0
  0
VERTEX
  5
168
330
15C
100
AcDbEntity
  8
Graypants_Ohio24
 62
    36
420
  8866048
370
    -3
100
AcDbVertex
100
AcDb2dVertex
 10
197.5729832117092
 20
-1504.251437082157
 30
0.0
  0
VERTEX
  5
169
330
15C
100
AcDbEntity
  8
Graypants_Ohio24
 62
    36
420
  8866048
370
    -3
100
AcDbVertex
100
AcDb2dVertex
 10
197.6133915544434
 20
-1504.238691216327
 30
0.0
  0
VERTEX
  5
16A
330
15C
100
AcDbEntity
  8
Graypants_Ohio24
 62
    36
420
  8866048
370
    -3
100
AcDbVertex
100
AcDb2dVertex
 10
197.6537730382726
 20
-1504.224729784664
 30
0.0
  0
VERTEX
  5
16B
330
15C
100
AcDbEntity
  8
Graypants_Ohio24
 62
    36
420
  8866048
370
    -3
100
AcDbVertex
100
AcDb2dVertex
 10
197.6940886582177
 20
-1504.209543497636
 30
0.0
  0
VERTEX
  5
16C
330
15C
100
AcDbEntity
  8
Graypants_Ohio24
 62
    36
420
  8866048
370
    -3
100
AcDbVertex
100
AcDb2dVertex
 10
197.7342985881177
 20
-1504.193125189027
 30
0.0
  0
VERTEX
  5
16D
330
15C
100
AcDbEntity
  8
Graypants_Ohio24
 62
    36
420
  8866048
370
    -3
100
AcDbVertex
100
AcDb2dVertex
 10
197.774362284192
 20
-1504.175469902078
 30
0.0
  0
VERTEX
  5
16E
330
15C
100
AcDbEntity
  8
Graypants_Ohio24
 62
    36
420
  8866048
370
    -3
100
AcDbVertex
100
AcDb2dVertex
 10
197.8142385956906
 20
-1504.156574967917
 30
0.0
  0
VERTEX
  5
16F
330
15C
100
AcDbEntity
  8
Graypants_Ohio24
 62
    36
420
  8866048
370
    -3
100
AcDbVertex
100
AcDb2dVertex
 10
197.8538858821606
 20
-1504.136440075466
 30
0.0
  0
VERTEX
  5
170
330
15C
100
AcDbEntity
  8
Graypants_Ohio24
 62
    36
420
  8866048
370
    -3
100
AcDbVertex
100
AcDb2dVertex
 10
197.8932621367745
 20
-1504.115067331998
 30
0.0
  0
VERTEX
  5
171
330
15C
100
AcDbEntity
  8
Graypants_Ohio24
 62
    36
420
  8866048
370
    -3
100
AcDbVertex
100
AcDb2dVertex
 10
197.9323251150887
 20
-1504.092461313612
 30
0.0
  0
VERTEX
  5
172
330
15C
100
AcDbEntity
  8
Graypants_Ohio24
 62
    36
420
  8866048
370
    -3
100
AcDbVertex
100
AcDb2dVertex
 10
197.9710324685256
 20
-1504.068629104935
 30
0.0
  0
VERTEX
  5
173
330
15C
100
AcDbEntity
  8
Graypants_Ohio24
 62
    36
420
  8866048
370
    -3
100
AcDbVertex
100
AcDb2dVertex
 10
198.0093418818003
 20
-1504.043580327447
 30
0.0
  0
VERTEX
  5
174
330
15C
100
AcDbEntity
  8
Graypants_Ohio24
 62
    36
420
  8866048
370
    -3
100
AcDbVertex
100
AcDb2dVertex
 10
198.0472112134564
 20
-1504.0173271559
 30
0.0
  0
VERTEX
  5
175
330
15C
100
AcDbEntity
  8
Graypants_Ohio24
 62
    36
420
  8866048
370
    -3
100
AcDbVertex
100
AcDb2dVertex
 10
198.0845986386094
 20
-1503.98988432239
 30
0.0
  0
VERTEX
  5
176
330
15C
100
AcDbEntity
  8
Graypants_Ohio24
 62
    36
420
  8866048
370
    -3
100
AcDbVertex
100
AcDb2dVertex
 10
198.1214627929606
 20
-1503.96126910777
 30
0.0
  0
VERTEX
  5
177
330
15C
100
AcDbEntity
  8
Graypants_Ohio24
 62
    36
420
  8866048
370
    -3
100
AcDbVertex
100
AcDb2dVertex
 10
198.1577629170991
 20
-1503.931501320171
 30
0.0
  0
VERTEX
  5
178
330
15C
100
AcDbEntity
  8
Graypants_Ohio24
 62
    36
420
  8866048
370
    -3
100
AcDbVertex
100
AcDb2dVertex
 10
198.1934590000882
 20
-1503.900603260522
 30
0.0
  0
VERTEX
  5
179
330
15C
100
AcDbEntity
  8
Graypants_Ohio24
 62
    36
420
  8866048
370
    -3
100
AcDbVertex
100
AcDb2dVertex
 10
198.228511921314
 20
-1503.868599675103
 30
0.0
  0
VERTEX
  5
17A
330
15C
100
AcDbEntity
  8
Graypants_Ohio24
 62
    36
420
  8866048
370
    -3
100
AcDbVertex
100
AcDb2dVertex
 10
198.2628835895751
 20
-1503.835517695235
 30
0.0
  0
VERTEX
  5
17B
330
15C
100
AcDbEntity
  8
Graypants_Ohio24
 62
    36
420
  8866048
370
    -3
100
AcDbVertex
100
AcDb2dVertex
 10
198.2965370783984
 20
-1503.801386764404
 30
0.0
  0
VERTEX
  5
17C
330
15C
100
AcDbEntity
  8
Graypants_Ohio24
 62
    36
420
  8866048
370
    -3
100
AcDbVertex
100
AcDb2dVertex
 10
198.3294367565893
 20
-1503.766238553161
 30
0.0
  0
VERTEX
  5
17D
330
15C
100
AcDbEntity
  8
Graypants_Ohio24
 62
    36
420
  8866048
370
    -3
100
AcDbVertex
100
AcDb2dVertex
 10
198.3615484130585
 20
-1503.730106862326
 30
0.0
  0
VERTEX
  5
17E
330
15C
100
AcDbEntity
  8
Graypants_Ohio24
 62
    36
420
  8866048
370
    -3
100
AcDbVertex
100
AcDb2dVertex
 10
198.3928393750138
 20
-1503.693027515087
 30
0.0
  0
VERTEX
  5
17F
330
15C
100
AcDbEntity
  8
Graypants_Ohio24
 62
    36
420
  8866048
370
    -3
100
AcDbVertex
100
AcDb2dVertex
 10
198.4232786186627
 20
-1503.655038238737
 30
0.0
  0
VERTEX
  5
180
330
15C
100
AcDbEntity
  8
Graypants_Ohio24
 62
    36
420
  8866048
370
    -3
100
AcDbVertex
100
AcDb2dVertex
 10
198.4528368716375
 20
-1503.616178536839
 30
0.0
  0
VERTEX
  5
181
330
15C
100
AcDbEntity
  8
Graypants_Ohio24
 62
    36
420
  8866048
370
    -3
100
AcDbVertex
100
AcDb2dVertex
 10
198.4814867064361
 20
-1503.576489552751
 30
0.0
  0
VERTEX
  5
182
330
15C
100
AcDbEntity
  8
Graypants_Ohio24
 62
    36
420
  8866048
370
    -3
100
AcDbVertex
100
AcDb2dVertex
 10
198.5092026242534
 20
-1503.536013925494
 30
0.0
  0
VERTEX
  5
183
330
15C
100
AcDbEntity
  8
Graypants_Ohio24
 62
    36
420
  8866048
370
    -3
100
AcDbVertex
100
AcDb2dVertex
 10
198.5359611286741
 20
-1503.494795638998
 30
0.0
  0
VERTEX
  5
184
330
15C
100
AcDbEntity
  8
Graypants_Ohio24
 62
    36
420
  8866048
370
    -3
100
AcDbVertex
100
AcDb2dVertex
 10
198.5617407887933
 20
-1503.452879865858
 30
0.0
  0
VERTEX
  5
185
330
15C
100
AcDbEntity
  8
Graypants_Ohio24
 62
    36
420
  8866048
370
    -3
100
AcDbVertex
100
AcDb2dVertex
 10
198.5865222914381
 20
-1503.410312806723
 30
0.0
  0
VERTEX
  5
186
330
15C
100
AcDbEntity
  8
Graypants_Ohio24
 62
    36
420
  8866048
370
    -3
100
AcDbVertex
100
AcDb2dVertex
 10
198.6102884822655
 20
-1503.367141526508
 30
0.0
  0
VERTEX
  5
187
330
15C
100
AcDbEntity
  8
Graypants_Ohio24
 62
    36
420
  8866048
370
    -3
100
AcDbVertex
100
AcDb2dVertex
 10
198.6330243956173
 20
-1503.323413788591
 30
0.0
  0
VERTEX
  5
188
330
15C
100
AcDbEntity
  8
Graypants_Ohio24
 62
    36
420
  8866048
370
    -3
100
AcDbVertex
100
AcDb2dVertex
 10
198.6547172731234
 20
-1503.279177888189
 30
0.0
  0
VERTEX
  5
189
330
15C
100
AcDbEntity
  8
Graypants_Ohio24
 62
    36
420
  8866048
370
    -3
100
AcDbVertex
100
AcDb2dVertex
 10
198.6753565711408
 20
-1503.234482486065
 30
0.0
  0
VERTEX
  5
18A
330
15C
100
AcDbEntity
  8
Graypants_Ohio24
 62
    36
420
  8866048
370
    -3
100
AcDbVertex
100
AcDb2dVertex
 10
198.6949339572229
 20
-1503.1893764437
 30
0.0
  0
VERTEX
  5
18B
330
15C
100
AcDbEntity
  8
Graypants_Ohio24
 62
    36
420
  8866048
370
    -3
100
AcDbVertex
100
AcDb2dVertex
 10
198.713443295902
 20
-1503.143908661022
 30
0.0
  0
VERTEX
  5
18C
330
15C
100
AcDbEntity
  8
Graypants_Ohio24
 62
    36
420
  8866048
370
    -3
100
AcDbVertex
100
AcDb2dVertex
 10
198.7308806241606
 20
-1503.098127917712
 30
0.0
  0
VERTEX
  5
18D
330
15C
100
AcDbEntity
  8
Graypants_Ohio24
 62
    36
420
  8866048
370
    -3
100
AcDbVertex
100
AcDb2dVertex
 10
198.7472441170474
 20
-1503.052082719076
 30
0.0
  0
VERTEX
  5
18E
330
15C
100
AcDbEntity
  8
Graypants_Ohio24
 62
    36
420
  8866048
370
    -3
100
AcDbVertex
100
AcDb2dVertex
 10
198.7625340439643
 20
-1503.005821147369
 30
0.0
  0
VERTEX
  5
18F
330
15C
100
AcDbEntity
  8
Graypants_Ohio24
 62
    36
420
  8866048
370
    -3
100
AcDbVertex
100
AcDb2dVertex
 10
198.7767527162201
 20
-1502.959390719383
 30
0.0
  0
VERTEX
  5
190
330
15C
100
AcDbEntity
  8
Graypants_Ohio24
 62
    36
420
  8866048
370
    -3
100
AcDbVertex
100
AcDb2dVertex
 10
198.7899044264958
 20
-1502.912838251045
 30
0.0
  0
VERTEX
  5
191
330
15C
100
AcDbEntity
  8
Graypants_Ohio24
 62
    36
420
  8866048
370
    -3
100
AcDbVertex
100
AcDb2dVertex
 10
198.8019953809153
 20
-1502.866209729644
 30
0.0
  0
VERTEX
  5
192
330
15C
100
AcDbEntity
  8
Graypants_Ohio24
 62
    36
420
  8866048
370
    -3
100
AcDbVertex
100
AcDb2dVertex
 10
198.8130336244499
 20
-1502.81955019425
 30
0.0
  0
VERTEX
  5
193
330
15C
100
AcDbEntity
  8
Graypants_Ohio24
 62
    36
420
  8866048
370
    -3
100
AcDbVertex
100
AcDb2dVertex
 10
198.8230289604077
 20
-1502.772903624765
 30
0.0
  0
VERTEX
  5
194
330
15C
100
AcDbEntity
  8
Graypants_Ohio24
 62
    36
420
  8866048
370
    -3
100
AcDbVertex
100
AcDb2dVertex
 10
198.8319928647794
 20
-1502.726312839964
 30
0.0
  0
VERTEX
  5
195
330
15C
100
AcDbEntity
  8
Graypants_Ohio24
 62
    36
420
  8866048
370
    -3
100
AcDbVertex
100
AcDb2dVertex
 10
198.8399383962139
 20
-1502.679819404776
 30
0.0
  0
VERTEX
  5
196
330
15C
100
AcDbEntity
  8
Graypants_Ohio24
 62
    36
420
  8866048
370
    -3
100
AcDbVertex
100
AcDb2dVertex
 10
198.8468801023972
 20
-1502.633463547002
 30
0.0
  0
VERTEX
  5
197
330
15C
100
AcDbEntity
  8
Graypants_Ohio24
 62
    36
420
  8866048
370
    -3
100
AcDbVertex
100
AcDb2dVertex
 10
198.8528339235978
 20
-1502.587284083506
 30
0.0
  0
VERTEX
  5
198
330
15C
100
AcDbEntity
  8
Graypants_Ohio24
 62
    36
420
  8866048
370
    -3
100
AcDbVertex
100
AcDb2dVertex
 10
198.8578170941211
 20
-1502.54131835592
 30
0.0
  0
VERTEX
  5
199
330
15C
100
AcDbEntity
  8
Graypants_Ohio24
 62
    36
420
  8866048
370
    -3
100
AcDbVertex
100
AcDb2dVertex
 10
198.8618480423932
 20
-1502.495602175748
 30
0.0
  0
VERTEX
  5
19A
330
15C
100
AcDbEntity
  8
Graypants_Ohio24
 62
    36
420
  8866048
370
    -3
100
AcDbVertex
100
AcDb2dVertex
 10
198.8649462903619
 20
-1502.450169778731
 30
0.0
  0
VERTEX
  5
19B
330
15C
100
AcDbEntity
  8
Graypants_Ohio24
 62
    36
420
  8866048
370
    -3
100
AcDbVertex
100
AcDb2dVertex
 10
198.8671323528665
 20
-1502.405053788249
 30
0.0
  0
VERTEX
  5
19C
330
15C
100
AcDbEntity
  8
Graypants_Ohio24
 62
    36
420
  8866048
370
    -3
100
AcDbVertex
100
AcDb2dVertex
 10
198.8684276375893
 20
-1502.360285187476
 30
0.0
  0
VERTEX
  5
19D
330
15C
100
AcDbEntity
  8
Graypants_Ohio24
 62
    36
420
  8866048
370
    -3
100
AcDbVertex
100
AcDb2dVertex
 10
198.8688543461544
 20
-1502.315893299952
 30
0.0
  0
SEQEND
  5
19E
330
15C
100
AcDbEntity
  8
Graypants_Ohio24
 62
    36
420
  8866048
370
    -3
  0
POLYLINE
  5
19F
330
1F
100
AcDbEntity
  8
Graypants_Ohio24
 62
    36
420
  8866048
370
    -3
100
AcDb2dPolyline
 66
     1
 10
0.0
 20
0.0
 30
0.0
  0
VERTEX
  5
1A0
330
19F
100
AcDbEntity
  8
Graypants_Ohio24
 62
    36
420
  8866048
370
    -3
100
AcDbVertex
100
AcDb2dVertex
 10
198.636803576439
 20
-1504.315893299952
 30
0.0
  0
VERTEX
  5
1A1
330
19F
100
AcDbEntity
  8
Graypants_Ohio24
 62
    36
420
  8866048
370
    -3
100
AcDbVertex
100
AcDb2dVertex
 10
198.6752480785225
 20
-1504.31540057934
 30
0.0
  0
VERTEX
  5
1A2
330
19F
100
AcDbEntity
  8
Graypants_Ohio24
 62
    36
420
  8866048
370
    -3
100
AcDbVertex
100
AcDb2dVertex
 10
198.7140188238492
 20
-1504.313904913364
 30
0.0
  0
VERTEX
  5
1A3
330
19F
100
AcDbEntity
  8
Graypants_Ohio24
 62
    36
420
  8866048
370
    -3
100
AcDbVertex
100
AcDb2dVertex
 10
198.7530904174858
 20
-1504.311380665797
 30
0.0
  0
VERTEX
  5
1A4
330
19F
100
AcDbEntity
  8
Graypants_Ohio24
 62
    36
420
  8866048
370
    -3
100
AcDbVertex
100
AcDb2dVertex
 10
198.792436027218
 20
-1504.307803117178
 30
0.0
  0
VERTEX
  5
1A5
330
19F
100
AcDbEntity
  8
Graypants_Ohio24
 62
    36
420
  8866048
370
    -3
100
AcDbVertex
100
AcDb2dVertex
 10
198.8320274003707
 20
-1504.30314857901
 30
0.0
  0
VERTEX
  5
1A6
330
19F
100
AcDbEntity
  8
Graypants_Ohio24
 62
    36
420
  8866048
370
    -3
100
AcDbVertex
100
AcDb2dVertex
 10
198.8718348879221
 20
-1504.297394509289
 30
0.0
  0
VERTEX
  5
1A7
330
19F
100
AcDbEntity
  8
Graypants_Ohio24
 62
    36
420
  8866048
370
    -3
100
AcDbVertex
100
AcDb2dVertex
 10
198.9118274761997
 20
-1504.290519628701
 30
0.0
  0
VERTEX
  5
1A8
330
19F
100
AcDbEntity
  8
Graypants_Ohio24
 62
    36
420
  8866048
370
    -3
100
AcDbVertex
100
AcDb2dVertex
 10
198.9519728264027
 20
-1504.282504036785
 30
0.0
  0
VERTEX
  5
1A9
330
19F
100
AcDbEntity
  8
Graypants_Ohio24
 62
    36
420
  8866048
370
    -3
100
AcDbVertex
100
AcDb2dVertex
 10
198.9922373221392
 20
-1504.273329327305
 30
0.0
  0
VERTEX
  5
1AA
330
19F
100
AcDbEntity
  8
Graypants_Ohio24
 62
    36
420
  8866048
370
    -3
100
AcDbVertex
100
AcDb2dVertex
 10
199.0325861251147
 20
-1504.262978702038
 30
0.0
  0
VERTEX
  5
1AB
330
19F
100
AcDbEntity
  8
Graypants_Ohio24
 62
    36
420
  8866048
370
    -3
100
AcDbVertex
100
AcDb2dVertex
 10
199.072983239042
 20
-1504.251437082157
 30
0.0
  0
VERTEX
  5
1AC
330
19F
100
AcDbEntity
  8
Graypants_Ohio24
 62
    36
420
  8866048
370
    -3
100
AcDbVertex
100
AcDb2dVertex
 10
199.1133915817763
 20
-1504.238691216327
 30
0.0
  0
VERTEX
  5
1AD
330
19F
100
AcDbEntity
  8
Graypants_Ohio24
 62
    36
420
  8866048
370
    -3
100
AcDbVertex
100
AcDb2dVertex
 10
199.1537730656054
 20
-1504.224729784664
 30
0.0
  0
VERTEX
  5
1AE
330
19F
100
AcDbEntity
  8
Graypants_Ohio24
 62
    36
420
  8866048
370
    -3
100
AcDbVertex
100
AcDb2dVertex
 10
199.1940886855505
 20
-1504.209543497636
 30
0.0
  0
VERTEX
  5
1AF
330
19F
100
AcDbEntity
  8
Graypants_Ohio24
 62
    36
420
  8866048
370
    -3
100
AcDbVertex
100
AcDb2dVertex
 10
199.2342986154506
 20
-1504.193125189027
 30
0.0
  0
VERTEX
  5
1B0
330
19F
100
AcDbEntity
  8
Graypants_Ohio24
 62
    36
420
  8866048
370
    -3
100
AcDbVertex
100
AcDb2dVertex
 10
199.2743623115249
 20
-1504.175469902078
 30
0.0
  0
VERTEX
  5
1B1
330
19F
100
AcDbEntity
  8
Graypants_Ohio24
 62
    36
420
  8866048
370
    -3
100
AcDbVertex
100
AcDb2dVertex
 10
199.3142386230234
 20
-1504.156574967917
 30
0.0
  0
VERTEX
  5
1B2
330
19F
100
AcDbEntity
  8
Graypants_Ohio24
 62
    36
420
  8866048
370
    -3
100
AcDbVertex
100
AcDb2dVertex
 10
199.3538859094934
 20
-1504.136440075466
 30
0.0
  0
VERTEX
  5
1B3
330
19F
100
AcDbEntity
  8
Graypants_Ohio24
 62
    36
420
  8866048
370
    -3
100
AcDbVertex
100
AcDb2dVertex
 10
199.3932621641073
 20
-1504.115067331998
 30
0.0
  0
VERTEX
  5
1B4
330
19F
100
AcDbEntity
  8
Graypants_Ohio24
 62
    36
420
  8866048
370
    -3
100
AcDbVertex
100
AcDb2dVertex
 10
199.4323251424215
 20
-1504.092461313612
 30
0.0
  0
VERTEX
  5
1B5
330
19F
100
AcDbEntity
  8
Graypants_Ohio24
 62
    36
420
  8866048
370
    -3
100
AcDbVertex
100
AcDb2dVertex
 10
199.4710324958583
 20
-1504.068629104935
 30
0.0
  0
VERTEX
  5
1B6
330
19F
100
AcDbEntity
  8
Graypants_Ohio24
 62
    36
420
  8866048
370
    -3
100
AcDbVertex
100
AcDb2dVertex
 10
199.5093419091331
 20
-1504.043580327447
 30
0.0
  0
VERTEX
  5
1B7
330
19F
100
AcDbEntity
  8
Graypants_Ohio24
 62
    36
420
  8866048
370
    -3
100
AcDbVertex
100
AcDb2dVertex
 10
199.5472112407893
 20
-1504.0173271559
 30
0.0
  0
VERTEX
  5
1B8
330
19F
100
AcDbEntity
  8
Graypants_Ohio24
 62
    36
420
  8866048
370
    -3
100
AcDbVertex
100
AcDb2dVertex
 10
199.5845986659422
 20
-1503.98988432239
 30
0.0
  0
VERTEX
  5
1B9
330
19F
100
AcDbEntity
  8
Graypants_Ohio24
 62
    36
420
  8866048
370
    -3
100
AcDbVertex
100
AcDb2dVertex
 10
199.6214628202934
 20
-1503.96126910777
 30
0.0
  0
VERTEX
  5
1BA
330
19F
100
AcDbEntity
  8
Graypants_Ohio24
 62
    36
420
  8866048
370
    -3
100
AcDbVertex
100
AcDb2dVertex
 10
199.6577629444319
 20
-1503.931501320171
 30
0.0
  0
VERTEX
  5
1BB
330
19F
100
AcDbEntity
  8
Graypants_Ohio24
 62
    36
420
  8866048
370
    -3
100
AcDbVertex
100
AcDb2dVertex
 10
199.693459027421
 20
-1503.900603260522
 30
0.0
  0
VERTEX
  5
1BC
330
19F
100
AcDbEntity
  8
Graypants_Ohio24
 62
    36
420
  8866048
370
    -3
100
AcDbVertex
100
AcDb2dVertex
 10
199.7285119486468
 20
-1503.868599675103
 30
0.0
  0
VERTEX
  5
1BD
330
19F
100
AcDbEntity
  8
Graypants_Ohio24
 62
    36
420
  8866048
370
    -3
100
AcDbVertex
100
AcDb2dVertex
 10
199.7628836169079
 20
-1503.835517695235
 30
0.0
  0
VERTEX
  5
1BE
330
19F
100
AcDbEntity
  8
Graypants_Ohio24
 62
    36
420
  8866048
370
    -3
100
AcDbVertex
100
AcDb2dVertex
 10
199.7965371057313
 20
-1503.801386764404
 30
0.0
  0
VERTEX
  5
1BF
330
19F
100
AcDbEntity
  8
Graypants_Ohio24
 62
    36
420
  8866048
370
    -3
100
AcDbVertex
100
AcDb2dVertex
 10
199.8294367839222
 20
-1503.766238553161
 30
0.0
  0
VERTEX
  5
1C0
330
19F
100
AcDbEntity
  8
Graypants_Ohio24
 62
    36
420
  8866048
370
    -3
100
AcDbVertex
100
AcDb2dVertex
 10
199.8615484403913
 20
-1503.730106862326
 30
0.0
  0
VERTEX
  5
1C1
330
19F
100
AcDbEntity
  8
Graypants_Ohio24
 62
    36
420
  8866048
370
    -3
100
AcDbVertex
100
AcDb2dVertex
 10
199.8928394023467
 20
-1503.693027515087
 30
0.0
  0
VERTEX
  5
1C2
330
19F
100
AcDbEntity
  8
Graypants_Ohio24
 62
    36
420
  8866048
370
    -3
100
AcDbVertex
100
AcDb2dVertex
 10
199.9232786459955
 20
-1503.655038238737
 30
0.0
  0
VERTEX
  5
1C3
330
19F
100
AcDbEntity
  8
Graypants_Ohio24
 62
    36
420
  8866048
370
    -3
100
AcDbVertex
100
AcDb2dVertex
 10
199.9528368989703
 20
-1503.616178536839
 30
0.0
  0
VERTEX
  5
1C4
330
19F
100
AcDbEntity
  8
Graypants_Ohio24
 62
    36
420
  8866048
370
    -3
100
AcDbVertex
100
AcDb2dVertex
 10
199.9814867337689
 20
-1503.576489552751
 30
0.0
  0
VERTEX
  5
1C5
330
19F
100
AcDbEntity
  8
Graypants_Ohio24
 62
    36
420
  8866048
370
    -3
100
AcDbVertex
100
AcDb2dVertex
 10
200.0092026515863
 20
-1503.536013925494
 30
0.0
  0
VERTEX
  5
1C6
330
19F
100
AcDbEntity
  8
Graypants_Ohio24
 62
    36
420
  8866048
370
    -3
100
AcDbVertex
100
AcDb2dVertex
 10
200.035961156007
 20
-1503.494795638998
 30
0.0
  0
VERTEX
  5
1C7
330
19F
100
AcDbEntity
  8
Graypants_Ohio24
 62
    36
420
  8866048
370
    -3
100
AcDbVertex
100
AcDb2dVertex
 10
200.0617408161262
 20
-1503.452879865858
 30
0.0
  0
VERTEX
  5
1C8
330
19F
100
AcDbEntity
  8
Graypants_Ohio24
 62
    36
420
  8866048
370
    -3
100
AcDbVertex
100
AcDb2dVertex
 10
200.086522318771
 20
-1503.410312806723
 30
0.0
  0
VERTEX
  5
1C9
330
19F
100
AcDbEntity
  8
Graypants_Ohio24
 62
    36
420
  8866048
370
    -3
100
AcDbVertex
100
AcDb2dVertex
 10
200.1102885095983
 20
-1503.367141526508
 30
0.0
  0
VERTEX
  5
1CA
330
19F
100
AcDbEntity
  8
Graypants_Ohio24
 62
    36
420
  8866048
370
    -3
100
AcDbVertex
100
AcDb2dVertex
 10
200.1330244229502
 20
-1503.323413788591
 30
0.0
  0
VERTEX
  5
1CB
330
19F
100
AcDbEntity
  8
Graypants_Ohio24
 62
    36
420
  8866048
370
    -3
100
AcDbVertex
100
AcDb2dVertex
 10
200.1547173004562
 20
-1503.279177888189
 30
0.0
  0
VERTEX
  5
1CC
330
19F
100
AcDbEntity
  8
Graypants_Ohio24
 62
    36
420
  8866048
370
    -3
100
AcDbVertex
100
AcDb2dVertex
 10
200.1753565984737
 20
-1503.234482486065
 30
0.0
  0
VERTEX
  5
1CD
330
19F
100
AcDbEntity
  8
Graypants_Ohio24
 62
    36
420
  8866048
370
    -3
100
AcDbVertex
100
AcDb2dVertex
 10
200.1949339845558
 20
-1503.1893764437
 30
0.0
  0
VERTEX
  5
1CE
330
19F
100
AcDbEntity
  8
Graypants_Ohio24
 62
    36
420
  8866048
370
    -3
100
AcDbVertex
100
AcDb2dVertex
 10
200.2134433232349
 20
-1503.143908661022
 30
0.0
  0
VERTEX
  5
1CF
330
19F
100
AcDbEntity
  8
Graypants_Ohio24
 62
    36
420
  8866048
370
    -3
100
AcDbVertex
100
AcDb2dVertex
 10
200.2308806514935
 20
-1503.098127917712
 30
0.0
  0
VERTEX
  5
1D0
330
19F
100
AcDbEntity
  8
Graypants_Ohio24
 62
    36
420
  8866048
370
    -3
100
AcDbVertex
100
AcDb2dVertex
 10
200.2472441443803
 20
-1503.052082719076
 30
0.0
  0
VERTEX
  5
1D1
330
19F
100
AcDbEntity
  8
Graypants_Ohio24
 62
    36
420
  8866048
370
    -3
100
AcDbVertex
100
AcDb2dVertex
 10
200.2625340712972
 20
-1503.005821147369
 30
0.0
  0
VERTEX
  5
1D2
330
19F
100
AcDbEntity
  8
Graypants_Ohio24
 62
    36
420
  8866048
370
    -3
100
AcDbVertex
100
AcDb2dVertex
 10
200.276752743553
 20
-1502.959390719383
 30
0.0
  0
VERTEX
  5
1D3
330
19F
100
AcDbEntity
  8
Graypants_Ohio24
 62
    36
420
  8866048
370
    -3
100
AcDbVertex
100
AcDb2dVertex
 10
200.2899044538286
 20
-1502.912838251045
 30
0.0
  0
VERTEX
  5
1D4
330
19F
100
AcDbEntity
  8
Graypants_Ohio24
 62
    36
420
  8866048
370
    -3
100
AcDbVertex
100
AcDb2dVertex
 10
200.3019954082481
 20
-1502.866209729644
 30
0.0
  0
VERTEX
  5
1D5
330
19F
100
AcDbEntity
  8
Graypants_Ohio24
 62
    36
420
  8866048
370
    -3
100
AcDbVertex
100
AcDb2dVertex
 10
200.3130336517827
 20
-1502.81955019425
 30
0.0
  0
VERTEX
  5
1D6
330
19F
100
AcDbEntity
  8
Graypants_Ohio24
 62
    36
420
  8866048
370
    -3
100
AcDbVertex
100
AcDb2dVertex
 10
200.3230289877405
 20
-1502.772903624765
 30
0.0
  0
VERTEX
  5
1D7
330
19F
100
AcDbEntity
  8
Graypants_Ohio24
 62
    36
420
  8866048
370
    -3
100
AcDbVertex
100
AcDb2dVertex
 10
200.3319928921122
 20
-1502.726312839964
 30
0.0
  0
VERTEX
  5
1D8
330
19F
100
AcDbEntity
  8
Graypants_Ohio24
 62
    36
420
  8866048
370
    -3
100
AcDbVertex
100
AcDb2dVertex
 10
200.3399384235467
 20
-1502.679819404776
 30
0.0
  0
VERTEX
  5
1D9
330
19F
100
AcDbEntity
  8
Graypants_Ohio24
 62
    36
420
  8866048
370
    -3
100
AcDbVertex
100
AcDb2dVertex
 10
200.34688012973
 20
-1502.633463547002
 30
0.0
  0
VERTEX
  5
1DA
330
19F
100
AcDbEntity
  8
Graypants_Ohio24
 62
    36
420
  8866048
370
    -3
100
AcDbVertex
100
AcDb2dVertex
 10
200.3528339509306
 20
-1502.587284083506
 30
0.0
  0
VERTEX
  5
1DB
330
19F
100
AcDbEntity
  8
Graypants_Ohio24
 62
    36
420
  8866048
370
    -3
100
AcDbVertex
100
AcDb2dVertex
 10
200.3578171214539
 20
-1502.54131835592
 30
0.0
  0
VERTEX
  5
1DC
330
19F
100
AcDbEntity
  8
Graypants_Ohio24
 62
    36
420
  8866048
370
    -3
100
AcDbVertex
100
AcDb2dVertex
 10
200.361848069726
 20
-1502.495602175748
 30
0.0
  0
VERTEX
  5
1DD
330
19F
100
AcDbEntity
  8
Graypants_Ohio24
 62
    36
420
  8866048
370
    -3
100
AcDbVertex
100
AcDb2dVertex
 10
200.3649463176947
 20
-1502.450169778731
 30
0.0
  0
VERTEX
  5
1DE
330
19F
100
AcDbEntity
  8
Graypants_Ohio24
 62
    36
420
  8866048
370
    -3
100
AcDbVertex
100
AcDb2dVertex
 10
200.3671323801994
 20
-1502.405053788249
 30
0.0
  0
VERTEX
  5
1DF
330
19F
100
AcDbEntity
  8
Graypants_Ohio24
 62
    36
420
  8866048
370
    -3
100
AcDbVertex
100
AcDb2dVertex
 10
200.3684276649221
 20
-1502.360285187476
 30
0.0
  0
VERTEX
  5
1E0
330
19F
100
AcDbEntity
  8
Graypants_Ohio24
 62
    36
420
  8866048
370
    -3
100
AcDbVertex
100
AcDb2dVertex
 10
200.3688543734872
 20
-1502.315893299952
 30
0.0
  0
SEQEND
  5
1E1
330
19F
100
AcDbEntity
  8
Graypants_Ohio24
 62
    36
420
  8866048
370
    -3
  0
LINE
  5
1E2
330
1F
100
AcDbEntity
  8
Graypants_Ohio24
 62
    36
420
  8866048
370
    -3
100
AcDbLine
 10
-197.136805340356
 20
-1504.315893299953
 30
0.0
 11
-198.6368053274135
 21
-1504.315893299953
 31
0.0
  0
POLYLINE
  5
1E3
330
1F
100
AcDbEntity
  8
Graypants_Ohio24
 62
    36
420
  8866048
370
    -3
100
AcDb2dPolyline
 66
     1
 10
0.0
 20
0.0
 30
0.0
  0
VERTEX
  5
1E4
330
1E3
100
AcDbEntity
  8
Graypants_Ohio24
 62
    36
420
  8866048
370
    -3
100
AcDbVertex
100
AcDb2dVertex
 10
-180.1473157745398
 20
-1501.877059729539
 30
0.0
  0
VERTEX
  5
1E5
330
1E3
100
AcDbEntity
  8
Graypants_Ohio24
 62
    36
420
  8866048
370
    -3
100
AcDbVertex
100
AcDb2dVertex
 10
-180.1575423186247
 20
-1501.935868555969
 30
0.0
  0
VERTEX
  5
1E6
330
1E3
100
AcDbEntity
  8
Graypants_Ohio24
 62
    36
420
  8866048
370
    -3
100
AcDbVertex
100
AcDb2dVertex
 10
-180.1688676262286
 20
-1501.994839941979
 30
0.0
  0
VERTEX
  5
1E7
330
1E3
100
AcDbEntity
  8
Graypants_Ohio24
 62
    36
420
  8866048
370
    -3
100
AcDbVertex
100
AcDb2dVertex
 10
-180.1813069336516
 20
-1502.053936795405
 30
0.0
  0
VERTEX
  5
1E8
330
1E3
100
AcDbEntity
  8
Graypants_Ohio24
 62
    36
420
  8866048
370
    -3
100
AcDbVertex
100
AcDb2dVertex
 10
-180.1948743584017
 20
-1502.113120825055
 30
0.0
  0
VERTEX
  5
1E9
330
1E3
100
AcDbEntity
  8
Graypants_Ohio24
 62
    36
420
  8866048
370
    -3
100
AcDbVertex
100
AcDb2dVertex
 10
-180.2095828281939
 20
-1502.17235258849
 30
0.0
  0
VERTEX
  5
1EA
330
1E3
100
AcDbEntity
  8
Graypants_Ohio24
 62
    36
420
  8866048
370
    -3
100
AcDbVertex
100
AcDb2dVertex
 10
-180.2254440112308
 20
-1502.231591545776
 30
0.0
  0
VERTEX
  5
1EB
330
1E3
100
AcDbEntity
  8
Graypants_Ohio24
 62
    36
420
  8866048
370
    -3
100
AcDbVertex
100
AcDb2dVertex
 10
-180.2424682481686
 20
-1502.290796119214
 30
0.0
  0
VERTEX
  5
1EC
330
1E3
100
AcDbEntity
  8
Graypants_Ohio24
 62
    36
420
  8866048
370
    -3
100
AcDbVertex
100
AcDb2dVertex
 10
-180.2606644861813
 20
-1502.349923759029
 30
0.0
  0
VERTEX
  5
1ED
330
1E3
100
AcDbEntity
  8
Graypants_Ohio24
 62
    36
420
  8866048
370
    -3
100
AcDbVertex
100
AcDb2dVertex
 10
-180.2800402155465
 20
-1502.408931014962
 30
0.0
  0
VERTEX
  5
1EE
330
1E3
100
AcDbEntity
  8
Graypants_Ohio24
 62
    36
420
  8866048
370
    -3
100
AcDbVertex
100
AcDb2dVertex
 10
-180.300601409175
 20
-1502.467773613633
 30
0.0
  0
VERTEX
  5
1EF
330
1E3
100
AcDbEntity
  8
Graypants_Ohio24
 62
    36
420
  8866048
370
    -3
100
AcDbVertex
100
AcDb2dVertex
 10
-180.3223524655127
 20
-1502.526406541555
 30
0.0
  0
VERTEX
  5
1F0
330
1E3
100
AcDbEntity
  8
Graypants_Ohio24
 62
    36
420
  8866048
370
    -3
100
AcDbVertex
100
AcDb2dVertex
 10
-180.3452961552355
 20
-1502.584784133571
 30
0.0
  0
VERTEX
  5
1F1
330
1E3
100
AcDbEntity
  8
Graypants_Ohio24
 62
    36
420
  8866048
370
    -3
100
AcDbVertex
100
AcDb2dVertex
 10
-180.369433572155
 20
-1502.6428601665
 30
0.0
  0
VERTEX
  5
1F2
330
1E3
100
AcDbEntity
  8
Graypants_Ohio24
 62
    36
420
  8866048
370
    -3
100
AcDbVertex
100
AcDb2dVertex
 10
-180.3947640887379
 20
-1502.700587957679
 30
0.0
  0
VERTEX
  5
1F3
330
1E3
100
AcDbEntity
  8
Graypants_Ohio24
 62
    36
420
  8866048
370
    -3
100
AcDbVertex
100
AcDb2dVertex
 10
-180.4212853166307
 20
-1502.757920468084
 30
0.0
  0
VERTEX
  5
1F4
330
1E3
100
AcDbEntity
  8
Graypants_Ohio24
 62
    36
420
  8866048
370
    -3
100
AcDbVertex
100
AcDb2dVertex
 10
-180.4489930725605
 20
-1502.814810409649
 30
0.0
  0
VERTEX
  5
1F5
330
1E3
100
AcDbEntity
  8
Graypants_Ohio24
 62
    36
420
  8866048
370
    -3
100
AcDbVertex
100
AcDb2dVertex
 10
-180.4778813499586
 20
-1502.87121035635
 30
0.0
  0
VERTEX
  5
1F6
330
1E3
100
AcDbEntity
  8
Graypants_Ohio24
 62
    36
420
  8866048
370
    -3
100
AcDbVertex
100
AcDb2dVertex
 10
-180.5079422966291
 20
-1502.927072858611
 30
0.0
  0
VERTEX
  5
1F7
330
1E3
100
AcDbEntity
  8
Graypants_Ohio24
 62
    36
420
  8866048
370
    -3
100
AcDbVertex
100
AcDb2dVertex
 10
-180.5391661987504
 20
-1502.982350560519
 30
0.0
  0
VERTEX
  5
1F8
330
1E3
100
AcDbEntity
  8
Graypants_Ohio24
 62
    36
420
  8866048
370
    -3
100
AcDbVertex
100
AcDb2dVertex
 10
-180.5715414714651
 20
-1503.036996319306
 30
0.0
  0
VERTEX
  5
1F9
330
1E3
100
AcDbEntity
  8
Graypants_Ohio24
 62
    36
420
  8866048
370
    -3
100
AcDbVertex
100
AcDb2dVertex
 10
-180.6050546562738
 20
-1503.090963326546
 30
0.0
  0
VERTEX
  5
1FA
330
1E3
100
AcDbEntity
  8
Graypants_Ohio24
 62
    36
420
  8866048
370
    -3
100
AcDbVertex
100
AcDb2dVertex
 10
-180.6396904254084
 20
-1503.144205230461
 30
0.0
  0
VERTEX
  5
1FB
330
1E3
100
AcDbEntity
  8
Graypants_Ohio24
 62
    36
420
  8866048
370
    -3
100
AcDbVertex
100
AcDb2dVertex
 10
-180.6754315933126
 20
-1503.19667625871
 30
0.0
  0
VERTEX
  5
1FC
330
1E3
100
AcDbEntity
  8
Graypants_Ohio24
 62
    36
420
  8866048
370
    -3
100
AcDbVertex
100
AcDb2dVertex
 10
-180.7122591353163
 20
-1503.248331341043
 30
0.0
  0
VERTEX
  5
1FD
330
1E3
100
AcDbEntity
  8
Graypants_Ohio24
 62
    36
420
  8866048
370
    -3
100
AcDbVertex
100
AcDb2dVertex
 10
-180.7501522135348
 20
-1503.299126231141
 30
0.0
  0
VERTEX
  5
1FE
330
1E3
100
AcDbEntity
  8
Graypants_Ohio24
 62
    36
420
  8866048
370
    -3
100
AcDbVertex
100
AcDb2dVertex
 10
-180.7890882099792
 20
-1503.349017627017
 30
0.0
  0
VERTEX
  5
1FF
330
1E3
100
AcDbEntity
  8
Graypants_Ohio24
 62
    36
420
  8866048
370
    -3
100
AcDbVertex
100
AcDb2dVertex
 10
-180.8290427668093
 20
-1503.397963289279
 30
0.0
  0
VERTEX
  5
200
330
1E3
100
AcDbEntity
  8
Graypants_Ohio24
 62
    36
420
  8866048
370
    -3
100
AcDbVertex
100
AcDb2dVertex
 10
-180.8699898336113
 20
-1503.445922156639
 30
0.0
  0
VERTEX
  5
201
330
1E3
100
AcDbEntity
  8
Graypants_Ohio24
 62
    36
420
  8866048
370
    -3
100
AcDbVertex
100
AcDb2dVertex
 10
-180.9119017215291
 20
-1503.49285445799
 30
0.0
  0
VERTEX
  5
202
330
1E3
100
AcDbEntity
  8
Graypants_Ohio24
 62
    36
420
  8866048
370
    -3
100
AcDbVertex
100
AcDb2dVertex
 10
-180.9547491640288
 20
-1503.53872182044
 30
0.0
  0
VERTEX
  5
203
330
1E3
100
AcDbEntity
  8
Graypants_Ohio24
 62
    36
420
  8866048
370
    -3
100
AcDbVertex
100
AcDb2dVertex
 10
-180.9985013840252
 20
-1503.583487372694
 30
0.0
  0
VERTEX
  5
204
330
1E3
100
AcDbEntity
  8
Graypants_Ohio24
 62
    36
420
  8866048
370
    -3
100
AcDbVertex
100
AcDb2dVertex
 10
-181.0431261670544
 20
-1503.627115843193
 30
0.0
  0
VERTEX
  5
205
330
1E3
100
AcDbEntity
  8
Graypants_Ohio24
 62
    36
420
  8866048
370
    -3
100
AcDbVertex
100
AcDb2dVertex
 10
-181.0885899401283
 20
-1503.669573652482
 30
0.0
  0
VERTEX
  5
206
330
1E3
100
AcDbEntity
  8
Graypants_Ohio24
 62
    36
420
  8866048
370
    -3
100
AcDbVertex
100
AcDb2dVertex
 10
-181.1348578558682
 20
-1503.710828999294
 30
0.0
  0
VERTEX
  5
207
330
1E3
100
AcDbEntity
  8
Graypants_Ohio24
 62
    36
420
  8866048
370
    -3
100
AcDbVertex
100
AcDb2dVertex
 10
-181.1818938814745
 20
-1503.750851939879
 30
0.0
  0
VERTEX
  5
208
330
1E3
100
AcDbEntity
  8
Graypants_Ohio24
 62
    36
420
  8866048
370
    -3
100
AcDbVertex
100
AcDb2dVertex
 10
-181.2296608920561
 20
-1503.78961446017
 30
0.0
  0
VERTEX
  5
209
330
1E3
100
AcDbEntity
  8
Graypants_Ohio24
 62
    36
420
  8866048
370
    -3
100
AcDbVertex
100
AcDb2dVertex
 10
-181.2781207678136
 20
-1503.827090540434
 30
0.0
  0
VERTEX
  5
20A
330
1E3
100
AcDbEntity
  8
Graypants_Ohio24
 62
    36
420
  8866048
370
    -3
100
AcDbVertex
100
AcDb2dVertex
 10
-181.3272344945434
 20
-1503.863256212069
 30
0.0
  0
VERTEX
  5
20B
330
1E3
100
AcDbEntity
  8
Graypants_Ohio24
 62
    36
420
  8866048
370
    -3
100
AcDbVertex
100
AcDb2dVertex
 10
-181.3769622669127
 20
-1503.898089606325
 30
0.0
  0
VERTEX
  5
20C
330
1E3
100
AcDbEntity
  8
Graypants_Ohio24
 62
    36
420
  8866048
370
    -3
100
AcDbVertex
100
AcDb2dVertex
 10
-181.4272635939371
 20
-1503.931570994745
 30
0.0
  0
VERTEX
  5
20D
330
1E3
100
AcDbEntity
  8
Graypants_Ohio24
 62
    36
420
  8866048
370
    -3
100
AcDbVertex
100
AcDb2dVertex
 10
-181.4780974060846
 20
-1503.96368282118
 30
0.0
  0
VERTEX
  5
20E
330
1E3
100
AcDbEntity
  8
Graypants_Ohio24
 62
    36
420
  8866048
370
    -3
100
AcDbVertex
100
AcDb2dVertex
 10
-181.5294221634257
 20
-1503.994409725331
 30
0.0
  0
VERTEX
  5
20F
330
1E3
100
AcDbEntity
  8
Graypants_Ohio24
 62
    36
420
  8866048
370
    -3
100
AcDbVertex
100
AcDb2dVertex
 10
-181.5811959642482
 20
-1504.023738557783
 30
0.0
  0
VERTEX
  5
210
330
1E3
100
AcDbEntity
  8
Graypants_Ohio24
 62
    36
420
  8866048
370
    -3
100
AcDbVertex
100
AcDb2dVertex
 10
-181.633376653563
 20
-1504.051658386596
 30
0.0
  0
VERTEX
  5
211
330
1E3
100
AcDbEntity
  8
Graypants_Ohio24
 62
    36
420
  8866048
370
    -3
100
AcDbVertex
100
AcDb2dVertex
 10
-181.6859219309374
 20
-1504.07816049554
 30
0.0
  0
VERTEX
  5
212
330
1E3
100
AcDbEntity
  8
Graypants_Ohio24
 62
    36
420
  8866048
370
    -3
100
AcDbVertex
100
AcDb2dVertex
 10
-181.7387894571095
 20
-1504.103238374152
 30
0.0
  0
VERTEX
  5
213
330
1E3
100
AcDbEntity
  8
Graypants_Ohio24
 62
    36
420
  8866048
370
    -3
100
AcDbVertex
100
AcDb2dVertex
 10
-181.7919369588542
 20
-1504.126887699817
 30
0.0
  0
VERTEX
  5
214
330
1E3
100
AcDbEntity
  8
Graypants_Ohio24
 62
    36
420
  8866048
370
    -3
100
AcDbVertex
100
AcDb2dVertex
 10
-181.8453223316006
 20
-1504.149106312141
 30
0.0
  0
VERTEX
  5
215
330
1E3
100
AcDbEntity
  8
Graypants_Ohio24
 62
    36
420
  8866048
370
    -3
100
AcDbVertex
100
AcDb2dVertex
 10
-181.8989037393249
 20
-1504.169894179932
 30
0.0
  0
VERTEX
  5
216
330
1E3
100
AcDbEntity
  8
Graypants_Ohio24
 62
    36
420
  8866048
370
    -3
100
AcDbVertex
100
AcDb2dVertex
 10
-181.9526397112747
 20
-1504.189253361119
 30
0.0
  0
VERTEX
  5
217
330
1E3
100
AcDbEntity
  8
Graypants_Ohio24
 62
    36
420
  8866048
370
    -3
100
AcDbVertex
100
AcDb2dVertex
 10
-182.0064892351191
 20
-1504.207187956026
 30
0.0
  0
VERTEX
  5
218
330
1E3
100
AcDbEntity
  8
Graypants_Ohio24
 62
    36
420
  8866048
370
    -3
100
AcDbVertex
100
AcDb2dVertex
 10
-182.0604118461486
 20
-1504.223704054406
 30
0.0
  0
VERTEX
  5
219
330
1E3
100
AcDbEntity
  8
Graypants_Ohio24
 62
    36
420
  8866048
370
    -3
100
AcDbVertex
100
AcDb2dVertex
 10
-182.1143677121945
 20
-1504.238809676682
 30
0.0
  0
VERTEX
  5
21A
330
1E3
100
AcDbEntity
  8
Graypants_Ohio24
 62
    36
420
  8866048
370
    -3
100
AcDbVertex
100
AcDb2dVertex
 10
-182.1683177139735
 20
-1504.252514709887
 30
0.0
  0
VERTEX
  5
21B
330
1E3
100
AcDbEntity
  8
Graypants_Ohio24
 62
    36
420
  8866048
370
    -3
100
AcDbVertex
100
AcDb2dVertex
 10
-182.2222235206046
 20
-1504.264830838768
 30
0.0
  0
VERTEX
  5
21C
330
1E3
100
AcDbEntity
  8
Graypants_Ohio24
 62
    36
420
  8866048
370
    -3
100
AcDbVertex
100
AcDb2dVertex
 10
-182.2760476600885
 20
-1504.275771472587
 30
0.0
  0
VERTEX
  5
21D
330
1E3
100
AcDbEntity
  8
Graypants_Ohio24
 62
    36
420
  8866048
370
    -3
100
AcDbVertex
100
AcDb2dVertex
 10
-182.3297535845794
 20
-1504.28535166811
 30
0.0
  0
VERTEX
  5
21E
330
1E3
100
AcDbEntity
  8
Graypants_Ohio24
 62
    36
420
  8866048
370
    -3
100
AcDbVertex
100
AcDb2dVertex
 10
-182.3833057303215
 20
-1504.293588049313
 30
0.0
  0
VERTEX
  5
21F
330
1E3
100
AcDbEntity
  8
Graypants_Ohio24
 62
    36
420
  8866048
370
    -3
100
AcDbVertex
100
AcDb2dVertex
 10
-182.4366695721601
 20
-1504.300498724317
 30
0.0
  0
VERTEX
  5
220
330
1E3
100
AcDbEntity
  8
Graypants_Ohio24
 62
    36
420
  8866048
370
    -3
100
AcDbVertex
100
AcDb2dVertex
 10
-182.4898116725802
 20
-1504.306103200064
 30
0.0
  0
VERTEX
  5
221
330
1E3
100
AcDbEntity
  8
Graypants_Ohio24
 62
    36
420
  8866048
370
    -3
100
AcDbVertex
100
AcDb2dVertex
 10
-182.5426997252595
 20
-1504.310422295238
 30
0.0
  0
VERTEX
  5
222
330
1E3
100
AcDbEntity
  8
Graypants_Ohio24
 62
    36
420
  8866048
370
    -3
100
AcDbVertex
100
AcDb2dVertex
 10
-182.5953025931581
 20
-1504.313478051921
 30
0.0
  0
VERTEX
  5
223
330
1E3
100
AcDbEntity
  8
Graypants_Ohio24
 62
    36
420
  8866048
370
    -3
100
AcDbVertex
100
AcDb2dVertex
 10
-182.6475903412039
 20
-1504.315293646452
 30
0.0
  0
VERTEX
  5
224
330
1E3
100
AcDbEntity
  8
Graypants_Ohio24
 62
    36
420
  8866048
370
    -3
100
AcDbVertex
100
AcDb2dVertex
 10
-182.6995342636598
 20
-1504.315893299953
 30
0.0
  0
SEQEND
  5
225
330
1E3
100
AcDbEntity
  8
Graypants_Ohio24
 62
    36
420
  8866048
370
    -3
  0
LINE
  5
226
330
1F
100
AcDbEntity
  8
Graypants_Ohio24
 62
    36
420
  8866048
370
    -3
100
AcDbLine
 10
-200.368856139964
 20
-1502.315893299953
 30
0.0
 11
-200.368856139964
 21
-1500.163929740892
 31
0.0
  0
LINE
  5
227
330
1F
100
AcDbEntity
  8
Graypants_Ohio24
 62
    36
420
  8866048
370
    -3
100
AcDbLine
 10
-198.8688561529063
 20
-1502.315893299953
 30
0.0
 11
-198.8688561529063
 21
-1500.162242018251
 31
0.0
  0
POLYLINE
  5
228
330
1F
100
AcDbEntity
  8
Graypants_Ohio24
 62
    36
420
  8866048
370
    -3
100
AcDb2dPolyline
 66
     1
 10
0.0
 20
0.0
 30
0.0
  0
VERTEX
  5
229
330
228
100
AcDbEntity
  8
Graypants_Ohio24
 62
    36
420
  8866048
370
    -3
100
AcDbVertex
100
AcDb2dVertex
 10
-198.6368053274135
 20
-1504.315893299953
 30
0.0
  0
VERTEX
  5
22A
330
228
100
AcDbEntity
  8
Graypants_Ohio24
 62
    36
420
  8866048
370
    -3
100
AcDbVertex
100
AcDb2dVertex
 10
-198.6752498298411
 20
-1504.31540057934
 30
0.0
  0
VERTEX
  5
22B
330
228
100
AcDbEntity
  8
Graypants_Ohio24
 62
    36
420
  8866048
370
    -3
100
AcDbVertex
100
AcDb2dVertex
 10
-198.7140205755149
 20
-1504.313904913364
 30
0.0
  0
VERTEX
  5
22C
330
228
100
AcDbEntity
  8
Graypants_Ohio24
 62
    36
420
  8866048
370
    -3
100
AcDbVertex
100
AcDb2dVertex
 10
-198.7530921695012
 20
-1504.311380665798
 30
0.0
  0
VERTEX
  5
22D
330
228
100
AcDbEntity
  8
Graypants_Ohio24
 62
    36
420
  8866048
370
    -3
100
AcDbVertex
100
AcDb2dVertex
 10
-198.7924377795855
 20
-1504.307803117179
 30
0.0
  0
VERTEX
  5
22E
330
228
100
AcDbEntity
  8
Graypants_Ohio24
 62
    36
420
  8866048
370
    -3
100
AcDbVertex
100
AcDb2dVertex
 10
-198.8320291530925
 20
-1504.303148579011
 30
0.0
  0
VERTEX
  5
22F
330
228
100
AcDbEntity
  8
Graypants_Ohio24
 62
    36
420
  8866048
370
    -3
100
AcDbVertex
100
AcDb2dVertex
 10
-198.8718366410002
 20
-1504.29739450929
 30
0.0
  0
VERTEX
  5
230
330
228
100
AcDbEntity
  8
Graypants_Ohio24
 62
    36
420
  8866048
370
    -3
100
AcDbVertex
100
AcDb2dVertex
 10
-198.9118292296358
 20
-1504.290519628702
 30
0.0
  0
VERTEX
  5
231
330
228
100
AcDbEntity
  8
Graypants_Ohio24
 62
    36
420
  8866048
370
    -3
100
AcDbVertex
100
AcDb2dVertex
 10
-198.9519745801981
 20
-1504.282504036786
 30
0.0
  0
VERTEX
  5
232
330
228
100
AcDbEntity
  8
Graypants_Ohio24
 62
    36
420
  8866048
370
    -3
100
AcDbVertex
100
AcDb2dVertex
 10
-198.9922390762949
 20
-1504.273329327305
 30
0.0
  0
VERTEX
  5
233
330
228
100
AcDbEntity
  8
Graypants_Ohio24
 62
    36
420
  8866048
370
    -3
100
AcDbVertex
100
AcDb2dVertex
 10
-199.0325878796316
 20
-1504.262978702038
 30
0.0
  0
VERTEX
  5
234
330
228
100
AcDbEntity
  8
Graypants_Ohio24
 62
    36
420
  8866048
370
    -3
100
AcDbVertex
100
AcDb2dVertex
 10
-199.0729849939204
 20
-1504.251437082157
 30
0.0
  0
VERTEX
  5
235
330
228
100
AcDbEntity
  8
Graypants_Ohio24
 62
    36
420
  8866048
370
    -3
100
AcDbVertex
100
AcDb2dVertex
 10
-199.1133933370163
 20
-1504.238691216327
 30
0.0
  0
VERTEX
  5
236
330
228
100
AcDbEntity
  8
Graypants_Ohio24
 62
    36
420
  8866048
370
    -3
100
AcDbVertex
100
AcDb2dVertex
 10
-199.1537748212069
 20
-1504.224729784665
 30
0.0
  0
VERTEX
  5
237
330
228
100
AcDbEntity
  8
Graypants_Ohio24
 62
    36
420
  8866048
370
    -3
100
AcDbVertex
100
AcDb2dVertex
 10
-199.1940904415129
 20
-1504.209543497637
 30
0.0
  0
VERTEX
  5
238
330
228
100
AcDbEntity
  8
Graypants_Ohio24
 62
    36
420
  8866048
370
    -3
100
AcDbVertex
100
AcDb2dVertex
 10
-199.2343003717728
 20
-1504.193125189028
 30
0.0
  0
VERTEX
  5
239
330
228
100
AcDbEntity
  8
Graypants_Ohio24
 62
    36
420
  8866048
370
    -3
100
AcDbVertex
100
AcDb2dVertex
 10
-199.2743640682057
 20
-1504.175469902078
 30
0.0
  0
VERTEX
  5
23A
330
228
100
AcDbEntity
  8
Graypants_Ohio24
 62
    36
420
  8866048
370
    -3
100
AcDbVertex
100
AcDb2dVertex
 10
-199.3142403800612
 20
-1504.156574967917
 30
0.0
  0
VERTEX
  5
23B
330
228
100
AcDbEntity
  8
Graypants_Ohio24
 62
    36
420
  8866048
370
    -3
100
AcDbVertex
100
AcDb2dVertex
 10
-199.353887666886
 20
-1504.136440075467
 30
0.0
  0
VERTEX
  5
23C
330
228
100
AcDbEntity
  8
Graypants_Ohio24
 62
    36
420
  8866048
370
    -3
100
AcDbVertex
100
AcDb2dVertex
 10
-199.3932639218523
 20
-1504.115067331999
 30
0.0
  0
VERTEX
  5
23D
330
228
100
AcDbEntity
  8
Graypants_Ohio24
 62
    36
420
  8866048
370
    -3
100
AcDbVertex
100
AcDb2dVertex
 10
-199.4323269005161
 20
-1504.092461313613
 30
0.0
  0
VERTEX
  5
23E
330
228
100
AcDbEntity
  8
Graypants_Ohio24
 62
    36
420
  8866048
370
    -3
100
AcDbVertex
100
AcDb2dVertex
 10
-199.4710342542994
 20
-1504.068629104936
 30
0.0
  0
VERTEX
  5
23F
330
228
100
AcDbEntity
  8
Graypants_Ohio24
 62
    36
420
  8866048
370
    -3
100
AcDbVertex
100
AcDb2dVertex
 10
-199.509343667917
 20
-1504.043580327448
 30
0.0
  0
VERTEX
  5
240
330
228
100
AcDbEntity
  8
Graypants_Ohio24
 62
    36
420
  8866048
370
    -3
100
AcDbVertex
100
AcDb2dVertex
 10
-199.5472129999121
 20
-1504.017327155901
 30
0.0
  0
VERTEX
  5
241
330
228
100
AcDbEntity
  8
Graypants_Ohio24
 62
    36
420
  8866048
370
    -3
100
AcDbVertex
100
AcDb2dVertex
 10
-199.5846004253997
 20
-1503.98988432239
 30
0.0
  0
VERTEX
  5
242
330
228
100
AcDbEntity
  8
Graypants_Ohio24
 62
    36
420
  8866048
370
    -3
100
AcDbVertex
100
AcDb2dVertex
 10
-199.6214645800808
 20
-1503.961269107771
 30
0.0
  0
VERTEX
  5
243
330
228
100
AcDbEntity
  8
Graypants_Ohio24
 62
    36
420
  8866048
370
    -3
100
AcDbVertex
100
AcDb2dVertex
 10
-199.6577647045442
 20
-1503.931501320171
 30
0.0
  0
VERTEX
  5
244
330
228
100
AcDbEntity
  8
Graypants_Ohio24
 62
    36
420
  8866048
370
    -3
100
AcDbVertex
100
AcDb2dVertex
 10
-199.6934607878528
 20
-1503.900603260523
 30
0.0
  0
VERTEX
  5
245
330
228
100
AcDbEntity
  8
Graypants_Ohio24
 62
    36
420
  8866048
370
    -3
100
AcDbVertex
100
AcDb2dVertex
 10
-199.7285137093923
 20
-1503.868599675103
 30
0.0
  0
VERTEX
  5
246
330
228
100
AcDbEntity
  8
Graypants_Ohio24
 62
    36
420
  8866048
370
    -3
100
AcDbVertex
100
AcDb2dVertex
 10
-199.7628853779611
 20
-1503.835517695236
 30
0.0
  0
VERTEX
  5
247
330
228
100
AcDbEntity
  8
Graypants_Ohio24
 62
    36
420
  8866048
370
    -3
100
AcDbVertex
100
AcDb2dVertex
 10
-199.7965388670856
 20
-1503.801386764405
 30
0.0
  0
VERTEX
  5
248
330
228
100
AcDbEntity
  8
Graypants_Ohio24
 62
    36
420
  8866048
370
    -3
100
AcDbVertex
100
AcDb2dVertex
 10
-199.829438545571
 20
-1503.766238553162
 30
0.0
  0
VERTEX
  5
249
330
228
100
AcDbEntity
  8
Graypants_Ohio24
 62
    36
420
  8866048
370
    -3
100
AcDbVertex
100
AcDb2dVertex
 10
-199.8615502023275
 20
-1503.730106862326
 30
0.0
  0
VERTEX
  5
24A
330
228
100
AcDbEntity
  8
Graypants_Ohio24
 62
    36
420
  8866048
370
    -3
100
AcDbVertex
100
AcDb2dVertex
 10
-199.892841164563
 20
-1503.693027515088
 30
0.0
  0
VERTEX
  5
24B
330
228
100
AcDbEntity
  8
Graypants_Ohio24
 62
    36
420
  8866048
370
    -3
100
AcDbVertex
100
AcDb2dVertex
 10
-199.9232804084843
 20
-1503.655038238738
 30
0.0
  0
VERTEX
  5
24C
330
228
100
AcDbEntity
  8
Graypants_Ohio24
 62
    36
420
  8866048
370
    -3
100
AcDbVertex
100
AcDb2dVertex
 10
-199.9528386617236
 20
-1503.616178536839
 30
0.0
  0
VERTEX
  5
24D
330
228
100
AcDbEntity
  8
Graypants_Ohio24
 62
    36
420
  8866048
370
    -3
100
AcDbVertex
100
AcDb2dVertex
 10
-199.9814884967787
 20
-1503.576489552752
 30
0.0
  0
VERTEX
  5
24E
330
228
100
AcDbEntity
  8
Graypants_Ohio24
 62
    36
420
  8866048
370
    -3
100
AcDbVertex
100
AcDb2dVertex
 10
-200.0092044148442
 20
-1503.536013925495
 30
0.0
  0
VERTEX
  5
24F
330
228
100
AcDbEntity
  8
Graypants_Ohio24
 62
    36
420
  8866048
370
    -3
100
AcDbVertex
100
AcDb2dVertex
 10
-200.0359629195043
 20
-1503.494795638999
 30
0.0
  0
VERTEX
  5
250
330
228
100
AcDbEntity
  8
Graypants_Ohio24
 62
    36
420
  8866048
370
    -3
100
AcDbVertex
100
AcDb2dVertex
 10
-200.0617425798542
 20
-1503.452879865858
 30
0.0
  0
VERTEX
  5
251
330
228
100
AcDbEntity
  8
Graypants_Ohio24
 62
    36
420
  8866048
370
    -3
100
AcDbVertex
100
AcDb2dVertex
 10
-200.0865240827208
 20
-1503.410312806723
 30
0.0
  0
VERTEX
  5
252
330
228
100
AcDbEntity
  8
Graypants_Ohio24
 62
    36
420
  8866048
370
    -3
100
AcDbVertex
100
AcDb2dVertex
 10
-200.1102902737609
 20
-1503.367141526509
 30
0.0
  0
VERTEX
  5
253
330
228
100
AcDbEntity
  8
Graypants_Ohio24
 62
    36
420
  8866048
370
    -3
100
AcDbVertex
100
AcDb2dVertex
 10
-200.1330261873161
 20
-1503.323413788592
 30
0.0
  0
VERTEX
  5
254
330
228
100
AcDbEntity
  8
Graypants_Ohio24
 62
    36
420
  8866048
370
    -3
100
AcDbVertex
100
AcDb2dVertex
 10
-200.1547190650164
 20
-1503.27917788819
 30
0.0
  0
VERTEX
  5
255
330
228
100
AcDbEntity
  8
Graypants_Ohio24
 62
    36
420
  8866048
370
    -3
100
AcDbVertex
100
AcDb2dVertex
 10
-200.1753583632185
 20
-1503.234482486065
 30
0.0
  0
VERTEX
  5
256
330
228
100
AcDbEntity
  8
Graypants_Ohio24
 62
    36
420
  8866048
370
    -3
100
AcDbVertex
100
AcDb2dVertex
 10
-200.1949357494759
 20
-1503.189376443701
 30
0.0
  0
VERTEX
  5
257
330
228
100
AcDbEntity
  8
Graypants_Ohio24
 62
    36
420
  8866048
370
    -3
100
AcDbVertex
100
AcDb2dVertex
 10
-200.2134450883207
 20
-1503.143908661023
 30
0.0
  0
VERTEX
  5
258
330
228
100
AcDbEntity
  8
Graypants_Ohio24
 62
    36
420
  8866048
370
    -3
100
AcDbVertex
100
AcDb2dVertex
 10
-200.2308824167354
 20
-1503.098127917713
 30
0.0
  0
VERTEX
  5
259
330
228
100
AcDbEntity
  8
Graypants_Ohio24
 62
    36
420
  8866048
370
    -3
100
AcDbVertex
100
AcDb2dVertex
 10
-200.2472459097686
 20
-1503.052082719077
 30
0.0
  0
VERTEX
  5
25A
330
228
100
AcDbEntity
  8
Graypants_Ohio24
 62
    36
420
  8866048
370
    -3
100
AcDbVertex
100
AcDb2dVertex
 10
-200.2625358368224
 20
-1503.005821147369
 30
0.0
  0
VERTEX
  5
25B
330
228
100
AcDbEntity
  8
Graypants_Ohio24
 62
    36
420
  8866048
370
    -3
100
AcDbVertex
100
AcDb2dVertex
 10
-200.2767545092054
 20
-1502.959390719384
 30
0.0
  0
VERTEX
  5
25C
330
228
100
AcDbEntity
  8
Graypants_Ohio24
 62
    36
420
  8866048
370
    -3
100
AcDbVertex
100
AcDb2dVertex
 10
-200.2899062195987
 20
-1502.912838251045
 30
0.0
  0
VERTEX
  5
25D
330
228
100
AcDbEntity
  8
Graypants_Ohio24
 62
    36
420
  8866048
370
    -3
100
AcDbVertex
100
AcDb2dVertex
 10
-200.3019971741265
 20
-1502.866209729644
 30
0.0
  0
VERTEX
  5
25E
330
228
100
AcDbEntity
  8
Graypants_Ohio24
 62
    36
420
  8866048
370
    -3
100
AcDbVertex
100
AcDb2dVertex
 10
-200.3130354177599
 20
-1502.81955019425
 30
0.0
  0
VERTEX
  5
25F
330
228
100
AcDbEntity
  8
Graypants_Ohio24
 62
    36
420
  8866048
370
    -3
100
AcDbVertex
100
AcDb2dVertex
 10
-200.3230307538072
 20
-1502.772903624766
 30
0.0
  0
VERTEX
  5
260
330
228
100
AcDbEntity
  8
Graypants_Ohio24
 62
    36
420
  8866048
370
    -3
100
AcDbVertex
100
AcDb2dVertex
 10
-200.3319946582591
 20
-1502.726312839964
 30
0.0
  0
VERTEX
  5
261
330
228
100
AcDbEntity
  8
Graypants_Ohio24
 62
    36
420
  8866048
370
    -3
100
AcDbVertex
100
AcDb2dVertex
 10
-200.3399401897647
 20
-1502.679819404777
 30
0.0
  0
VERTEX
  5
262
330
228
100
AcDbEntity
  8
Graypants_Ohio24
 62
    36
420
  8866048
370
    -3
100
AcDbVertex
100
AcDb2dVertex
 10
-200.3468818960101
 20
-1502.633463547003
 30
0.0
  0
VERTEX
  5
263
330
228
100
AcDbEntity
  8
Graypants_Ohio24
 62
    36
420
  8866048
370
    -3
100
AcDbVertex
100
AcDb2dVertex
 10
-200.352835717264
 20
-1502.587284083507
 30
0.0
  0
VERTEX
  5
264
330
228
100
AcDbEntity
  8
Graypants_Ohio24
 62
    36
420
  8866048
370
    -3
100
AcDbVertex
100
AcDb2dVertex
 10
-200.3578188878319
 20
-1502.541318355921
 30
0.0
  0
VERTEX
  5
265
330
228
100
AcDbEntity
  8
Graypants_Ohio24
 62
    36
420
  8866048
370
    -3
100
AcDbVertex
100
AcDb2dVertex
 10
-200.3618498361401
 20
-1502.495602175748
 30
0.0
  0
VERTEX
  5
266
330
228
100
AcDbEntity
  8
Graypants_Ohio24
 62
    36
420
  8866048
370
    -3
100
AcDbVertex
100
AcDb2dVertex
 10
-200.3649480841365
 20
-1502.450169778732
 30
0.0
  0
VERTEX
  5
267
330
228
100
AcDbEntity
  8
Graypants_Ohio24
 62
    36
420
  8866048
370
    -3
100
AcDbVertex
100
AcDb2dVertex
 10
-200.3671341466607
 20
-1502.40505378825
 30
0.0
  0
VERTEX
  5
268
330
228
100
AcDbEntity
  8
Graypants_Ohio24
 62
    36
420
  8866048
370
    -3
100
AcDbVertex
100
AcDb2dVertex
 10
-200.3684294313951
 20
-1502.360285187476
 30
0.0
  0
VERTEX
  5
269
330
228
100
AcDbEntity
  8
Graypants_Ohio24
 62
    36
420
  8866048
370
    -3
100
AcDbVertex
100
AcDb2dVertex
 10
-200.368856139964
 20
-1502.315893299953
 30
0.0
  0
SEQEND
  5
26A
330
228
100
AcDbEntity
  8
Graypants_Ohio24
 62
    36
420
  8866048
370
    -3
  0
POLYLINE
  5
26B
330
1F
100
AcDbEntity
  8
Graypants_Ohio24
 62
    36
420
  8866048
370
    -3
100
AcDb2dPolyline
 66
     1
 10
0.0
 20
0.0
 30
0.0
  0
VERTEX
  5
26C
330
26B
100
AcDbEntity
  8
Graypants_Ohio24
 62
    36
420
  8866048
370
    -3
100
AcDbVertex
100
AcDb2dVertex
 10
-197.136805340356
 20
-1504.315893299953
 30
0.0
  0
VERTEX
  5
26D
330
26B
100
AcDbEntity
  8
Graypants_Ohio24
 62
    36
420
  8866048
370
    -3
100
AcDbVertex
100
AcDb2dVertex
 10
-197.1752498427836
 20
-1504.31540057934
 30
0.0
  0
VERTEX
  5
26E
330
26B
100
AcDbEntity
  8
Graypants_Ohio24
 62
    36
420
  8866048
370
    -3
100
AcDbVertex
100
AcDb2dVertex
 10
-197.2140205884573
 20
-1504.313904913364
 30
0.0
  0
VERTEX
  5
26F
330
26B
100
AcDbEntity
  8
Graypants_Ohio24
 62
    36
420
  8866048
370
    -3
100
AcDbVertex
100
AcDb2dVertex
 10
-197.2530921824435
 20
-1504.311380665798
 30
0.0
  0
VERTEX
  5
270
330
26B
100
AcDbEntity
  8
Graypants_Ohio24
 62
    36
420
  8866048
370
    -3
100
AcDbVertex
100
AcDb2dVertex
 10
-197.2924377925279
 20
-1504.307803117179
 30
0.0
  0
VERTEX
  5
271
330
26B
100
AcDbEntity
  8
Graypants_Ohio24
 62
    36
420
  8866048
370
    -3
100
AcDbVertex
100
AcDb2dVertex
 10
-197.332029166035
 20
-1504.303148579011
 30
0.0
  0
VERTEX
  5
272
330
26B
100
AcDbEntity
  8
Graypants_Ohio24
 62
    36
420
  8866048
370
    -3
100
AcDbVertex
100
AcDb2dVertex
 10
-197.3718366539426
 20
-1504.29739450929
 30
0.0
  0
VERTEX
  5
273
330
26B
100
AcDbEntity
  8
Graypants_Ohio24
 62
    36
420
  8866048
370
    -3
100
AcDbVertex
100
AcDb2dVertex
 10
-197.4118292425782
 20
-1504.290519628702
 30
0.0
  0
VERTEX
  5
274
330
26B
100
AcDbEntity
  8
Graypants_Ohio24
 62
    36
420
  8866048
370
    -3
100
AcDbVertex
100
AcDb2dVertex
 10
-197.4519745931406
 20
-1504.282504036786
 30
0.0
  0
VERTEX
  5
275
330
26B
100
AcDbEntity
  8
Graypants_Ohio24
 62
    36
420
  8866048
370
    -3
100
AcDbVertex
100
AcDb2dVertex
 10
-197.4922390892374
 20
-1504.273329327305
 30
0.0
  0
VERTEX
  5
276
330
26B
100
AcDbEntity
  8
Graypants_Ohio24
 62
    36
420
  8866048
370
    -3
100
AcDbVertex
100
AcDb2dVertex
 10
-197.532587892574
 20
-1504.262978702038
 30
0.0
  0
VERTEX
  5
277
330
26B
100
AcDbEntity
  8
Graypants_Ohio24
 62
    36
420
  8866048
370
    -3
100
AcDbVertex
100
AcDb2dVertex
 10
-197.5729850068628
 20
-1504.251437082157
 30
0.0
  0
VERTEX
  5
278
330
26B
100
AcDbEntity
  8
Graypants_Ohio24
 62
    36
420
  8866048
370
    -3
100
AcDbVertex
100
AcDb2dVertex
 10
-197.6133933499587
 20
-1504.238691216327
 30
0.0
  0
VERTEX
  5
279
330
26B
100
AcDbEntity
  8
Graypants_Ohio24
 62
    36
420
  8866048
370
    -3
100
AcDbVertex
100
AcDb2dVertex
 10
-197.6537748341493
 20
-1504.224729784665
 30
0.0
  0
VERTEX
  5
27A
330
26B
100
AcDbEntity
  8
Graypants_Ohio24
 62
    36
420
  8866048
370
    -3
100
AcDbVertex
100
AcDb2dVertex
 10
-197.6940904544552
 20
-1504.209543497637
 30
0.0
  0
VERTEX
  5
27B
330
26B
100
AcDbEntity
  8
Graypants_Ohio24
 62
    36
420
  8866048
370
    -3
100
AcDbVertex
100
AcDb2dVertex
 10
-197.7343003847152
 20
-1504.193125189028
 30
0.0
  0
VERTEX
  5
27C
330
26B
100
AcDbEntity
  8
Graypants_Ohio24
 62
    36
420
  8866048
370
    -3
100
AcDbVertex
100
AcDb2dVertex
 10
-197.7743640811481
 20
-1504.175469902078
 30
0.0
  0
VERTEX
  5
27D
330
26B
100
AcDbEntity
  8
Graypants_Ohio24
 62
    36
420
  8866048
370
    -3
100
AcDbVertex
100
AcDb2dVertex
 10
-197.8142403930036
 20
-1504.156574967917
 30
0.0
  0
VERTEX
  5
27E
330
26B
100
AcDbEntity
  8
Graypants_Ohio24
 62
    36
420
  8866048
370
    -3
100
AcDbVertex
100
AcDb2dVertex
 10
-197.8538876798284
 20
-1504.136440075467
 30
0.0
  0
VERTEX
  5
27F
330
26B
100
AcDbEntity
  8
Graypants_Ohio24
 62
    36
420
  8866048
370
    -3
100
AcDbVertex
100
AcDb2dVertex
 10
-197.8932639347947
 20
-1504.115067331999
 30
0.0
  0
VERTEX
  5
280
330
26B
100
AcDbEntity
  8
Graypants_Ohio24
 62
    36
420
  8866048
370
    -3
100
AcDbVertex
100
AcDb2dVertex
 10
-197.9323269134586
 20
-1504.092461313613
 30
0.0
  0
VERTEX
  5
281
330
26B
100
AcDbEntity
  8
Graypants_Ohio24
 62
    36
420
  8866048
370
    -3
100
AcDbVertex
100
AcDb2dVertex
 10
-197.9710342672418
 20
-1504.068629104936
 30
0.0
  0
VERTEX
  5
282
330
26B
100
AcDbEntity
  8
Graypants_Ohio24
 62
    36
420
  8866048
370
    -3
100
AcDbVertex
100
AcDb2dVertex
 10
-198.0093436808595
 20
-1504.043580327448
 30
0.0
  0
VERTEX
  5
283
330
26B
100
AcDbEntity
  8
Graypants_Ohio24
 62
    36
420
  8866048
370
    -3
100
AcDbVertex
100
AcDb2dVertex
 10
-198.0472130128545
 20
-1504.017327155901
 30
0.0
  0
VERTEX
  5
284
330
26B
100
AcDbEntity
  8
Graypants_Ohio24
 62
    36
420
  8866048
370
    -3
100
AcDbVertex
100
AcDb2dVertex
 10
-198.0846004383421
 20
-1503.98988432239
 30
0.0
  0
VERTEX
  5
285
330
26B
100
AcDbEntity
  8
Graypants_Ohio24
 62
    36
420
  8866048
370
    -3
100
AcDbVertex
100
AcDb2dVertex
 10
-198.1214645930232
 20
-1503.961269107771
 30
0.0
  0
VERTEX
  5
286
330
26B
100
AcDbEntity
  8
Graypants_Ohio24
 62
    36
420
  8866048
370
    -3
100
AcDbVertex
100
AcDb2dVertex
 10
-198.1577647174866
 20
-1503.931501320171
 30
0.0
  0
VERTEX
  5
287
330
26B
100
AcDbEntity
  8
Graypants_Ohio24
 62
    36
420
  8866048
370
    -3
100
AcDbVertex
100
AcDb2dVertex
 10
-198.1934608007952
 20
-1503.900603260523
 30
0.0
  0
VERTEX
  5
288
330
26B
100
AcDbEntity
  8
Graypants_Ohio24
 62
    36
420
  8866048
370
    -3
100
AcDbVertex
100
AcDb2dVertex
 10
-198.2285137223347
 20
-1503.868599675103
 30
0.0
  0
VERTEX
  5
289
330
26B
100
AcDbEntity
  8
Graypants_Ohio24
 62
    36
420
  8866048
370
    -3
100
AcDbVertex
100
AcDb2dVertex
 10
-198.2628853909034
 20
-1503.835517695236
 30
0.0
  0
VERTEX
  5
28A
330
26B
100
AcDbEntity
  8
Graypants_Ohio24
 62
    36
420
  8866048
370
    -3
100
AcDbVertex
100
AcDb2dVertex
 10
-198.296538880028
 20
-1503.801386764405
 30
0.0
  0
VERTEX
  5
28B
330
26B
100
AcDbEntity
  8
Graypants_Ohio24
 62
    36
420
  8866048
370
    -3
100
AcDbVertex
100
AcDb2dVertex
 10
-198.3294385585134
 20
-1503.766238553162
 30
0.0
  0
VERTEX
  5
28C
330
26B
100
AcDbEntity
  8
Graypants_Ohio24
 62
    36
420
  8866048
370
    -3
100
AcDbVertex
100
AcDb2dVertex
 10
-198.3615502152699
 20
-1503.730106862326
 30
0.0
  0
VERTEX
  5
28D
330
26B
100
AcDbEntity
  8
Graypants_Ohio24
 62
    36
420
  8866048
370
    -3
100
AcDbVertex
100
AcDb2dVertex
 10
-198.3928411775053
 20
-1503.693027515088
 30
0.0
  0
VERTEX
  5
28E
330
26B
100
AcDbEntity
  8
Graypants_Ohio24
 62
    36
420
  8866048
370
    -3
100
AcDbVertex
100
AcDb2dVertex
 10
-198.4232804214267
 20
-1503.655038238738
 30
0.0
  0
VERTEX
  5
28F
330
26B
100
AcDbEntity
  8
Graypants_Ohio24
 62
    36
420
  8866048
370
    -3
100
AcDbVertex
100
AcDb2dVertex
 10
-198.4528386746659
 20
-1503.616178536839
 30
0.0
  0
VERTEX
  5
290
330
26B
100
AcDbEntity
  8
Graypants_Ohio24
 62
    36
420
  8866048
370
    -3
100
AcDbVertex
100
AcDb2dVertex
 10
-198.481488509721
 20
-1503.576489552752
 30
0.0
  0
VERTEX
  5
291
330
26B
100
AcDbEntity
  8
Graypants_Ohio24
 62
    36
420
  8866048
370
    -3
100
AcDbVertex
100
AcDb2dVertex
 10
-198.5092044277864
 20
-1503.536013925495
 30
0.0
  0
VERTEX
  5
292
330
26B
100
AcDbEntity
  8
Graypants_Ohio24
 62
    36
420
  8866048
370
    -3
100
AcDbVertex
100
AcDb2dVertex
 10
-198.5359629324466
 20
-1503.494795638999
 30
0.0
  0
VERTEX
  5
293
330
26B
100
AcDbEntity
  8
Graypants_Ohio24
 62
    36
420
  8866048
370
    -3
100
AcDbVertex
100
AcDb2dVertex
 10
-198.5617425927965
 20
-1503.452879865858
 30
0.0
  0
VERTEX
  5
294
330
26B
100
AcDbEntity
  8
Graypants_Ohio24
 62
    36
420
  8866048
370
    -3
100
AcDbVertex
100
AcDb2dVertex
 10
-198.5865240956632
 20
-1503.410312806723
 30
0.0
  0
VERTEX
  5
295
330
26B
100
AcDbEntity
  8
Graypants_Ohio24
 62
    36
420
  8866048
370
    -3
100
AcDbVertex
100
AcDb2dVertex
 10
-198.6102902867032
 20
-1503.367141526509
 30
0.0
  0
VERTEX
  5
296
330
26B
100
AcDbEntity
  8
Graypants_Ohio24
 62
    36
420
  8866048
370
    -3
100
AcDbVertex
100
AcDb2dVertex
 10
-198.6330262002585
 20
-1503.323413788592
 30
0.0
  0
VERTEX
  5
297
330
26B
100
AcDbEntity
  8
Graypants_Ohio24
 62
    36
420
  8866048
370
    -3
100
AcDbVertex
100
AcDb2dVertex
 10
-198.6547190779588
 20
-1503.27917788819
 30
0.0
  0
VERTEX
  5
298
330
26B
100
AcDbEntity
  8
Graypants_Ohio24
 62
    36
420
  8866048
370
    -3
100
AcDbVertex
100
AcDb2dVertex
 10
-198.6753583761609
 20
-1503.234482486065
 30
0.0
  0
VERTEX
  5
299
330
26B
100
AcDbEntity
  8
Graypants_Ohio24
 62
    36
420
  8866048
370
    -3
100
AcDbVertex
100
AcDb2dVertex
 10
-198.6949357624183
 20
-1503.189376443701
 30
0.0
  0
VERTEX
  5
29A
330
26B
100
AcDbEntity
  8
Graypants_Ohio24
 62
    36
420
  8866048
370
    -3
100
AcDbVertex
100
AcDb2dVertex
 10
-198.713445101263
 20
-1503.143908661023
 30
0.0
  0
VERTEX
  5
29B
330
26B
100
AcDbEntity
  8
Graypants_Ohio24
 62
    36
420
  8866048
370
    -3
100
AcDbVertex
100
AcDb2dVertex
 10
-198.7308824296777
 20
-1503.098127917713
 30
0.0
  0
VERTEX
  5
29C
330
26B
100
AcDbEntity
  8
Graypants_Ohio24
 62
    36
420
  8866048
370
    -3
100
AcDbVertex
100
AcDb2dVertex
 10
-198.747245922711
 20
-1503.052082719077
 30
0.0
  0
VERTEX
  5
29D
330
26B
100
AcDbEntity
  8
Graypants_Ohio24
 62
    36
420
  8866048
370
    -3
100
AcDbVertex
100
AcDb2dVertex
 10
-198.7625358497647
 20
-1503.005821147369
 30
0.0
  0
VERTEX
  5
29E
330
26B
100
AcDbEntity
  8
Graypants_Ohio24
 62
    36
420
  8866048
370
    -3
100
AcDbVertex
100
AcDb2dVertex
 10
-198.7767545221477
 20
-1502.959390719384
 30
0.0
  0
VERTEX
  5
29F
330
26B
100
AcDbEntity
  8
Graypants_Ohio24
 62
    36
420
  8866048
370
    -3
100
AcDbVertex
100
AcDb2dVertex
 10
-198.789906232541
 20
-1502.912838251045
 30
0.0
  0
VERTEX
  5
2A0
330
26B
100
AcDbEntity
  8
Graypants_Ohio24
 62
    36
420
  8866048
370
    -3
100
AcDbVertex
100
AcDb2dVertex
 10
-198.8019971870688
 20
-1502.866209729644
 30
0.0
  0
VERTEX
  5
2A1
330
26B
100
AcDbEntity
  8
Graypants_Ohio24
 62
    36
420
  8866048
370
    -3
100
AcDbVertex
100
AcDb2dVertex
 10
-198.8130354307022
 20
-1502.81955019425
 30
0.0
  0
VERTEX
  5
2A2
330
26B
100
AcDbEntity
  8
Graypants_Ohio24
 62
    36
420
  8866048
370
    -3
100
AcDbVertex
100
AcDb2dVertex
 10
-198.8230307667495
 20
-1502.772903624766
 30
0.0
  0
VERTEX
  5
2A3
330
26B
100
AcDbEntity
  8
Graypants_Ohio24
 62
    36
420
  8866048
370
    -3
100
AcDbVertex
100
AcDb2dVertex
 10
-198.8319946712014
 20
-1502.726312839964
 30
0.0
  0
VERTEX
  5
2A4
330
26B
100
AcDbEntity
  8
Graypants_Ohio24
 62
    36
420
  8866048
370
    -3
100
AcDbVertex
100
AcDb2dVertex
 10
-198.839940202707
 20
-1502.679819404777
 30
0.0
  0
VERTEX
  5
2A5
330
26B
100
AcDbEntity
  8
Graypants_Ohio24
 62
    36
420
  8866048
370
    -3
100
AcDbVertex
100
AcDb2dVertex
 10
-198.8468819089524
 20
-1502.633463547003
 30
0.0
  0
VERTEX
  5
2A6
330
26B
100
AcDbEntity
  8
Graypants_Ohio24
 62
    36
420
  8866048
370
    -3
100
AcDbVertex
100
AcDb2dVertex
 10
-198.8528357302064
 20
-1502.587284083507
 30
0.0
  0
VERTEX
  5
2A7
330
26B
100
AcDbEntity
  8
Graypants_Ohio24
 62
    36
420
  8866048
370
    -3
100
AcDbVertex
100
AcDb2dVertex
 10
-198.8578189007742
 20
-1502.541318355921
 30
0.0
  0
VERTEX
  5
2A8
330
26B
100
AcDbEntity
  8
Graypants_Ohio24
 62
    36
420
  8866048
370
    -3
100
AcDbVertex
100
AcDb2dVertex
 10
-198.8618498490824
 20
-1502.495602175748
 30
0.0
  0
VERTEX
  5
2A9
330
26B
100
AcDbEntity
  8
Graypants_Ohio24
 62
    36
420
  8866048
370
    -3
100
AcDbVertex
100
AcDb2dVertex
 10
-198.8649480970788
 20
-1502.450169778732
 30
0.0
  0
VERTEX
  5
2AA
330
26B
100
AcDbEntity
  8
Graypants_Ohio24
 62
    36
420
  8866048
370
    -3
100
AcDbVertex
100
AcDb2dVertex
 10
-198.867134159603
 20
-1502.40505378825
 30
0.0
  0
VERTEX
  5
2AB
330
26B
100
AcDbEntity
  8
Graypants_Ohio24
 62
    36
420
  8866048
370
    -3
100
AcDbVertex
100
AcDb2dVertex
 10
-198.8684294443374
 20
-1502.360285187476
 30
0.0
  0
VERTEX
  5
2AC
330
26B
100
AcDbEntity
  8
Graypants_Ohio24
 62
    36
420
  8866048
370
    -3
100
AcDbVertex
100
AcDb2dVertex
 10
-198.8688561529063
 20
-1502.315893299953
 30
0.0
  0
SEQEND
  5
2AD
330
26B
100
AcDbEntity
  8
Graypants_Ohio24
 62
    36
420
  8866048
370
    -3
  0
LINE
  5
2AE
330
1F
100
AcDbEntity
  8
Graypants_Ohio24
 62
    36
420
  8866048
370
    -3
100
AcDbLine
 10
1.500000000000909
 20
-1504.315893299954
 30
0.0
 11
-1.499999999999318
 21
-1504.315893299954
 31
0.0
  0
LINE
  5
2AF
330
1F
100
AcDbEntity
  8
Graypants_Ohio24
 62
    36
420
  8866048
370
    -3
100
AcDbLine
 10
-1.499999999999545
 20
-1501.87705972954
 30
0.0
 11
-1.499999999999318
 21
-1504.315893299954
 31
0.0
  0
LINE
  5
2B0
330
1F
100
AcDbEntity
  8
Graypants_Ohio24
 62
    36
420
  8866048
370
    -3
100
AcDbLine
 10
1.500000000000568
 20
-1501.87705972954
 30
0.0
 11
1.500000000000909
 21
-1504.315893299954
 31
0.0
  0
LINE
  5
2B1
330
1F
100
AcDbEntity
  8
Graypants_Ohio24
 62
    36
420
  8866048
370
    -3
100
AcDbLine
 10
-1.499999999999598
 20
-1500.163929740891
 30
0.0
 11
-1.499999999999545
 21
-1501.87705972954
 31
0.0
  0
LINE
  5
2B2
330
1F
100
AcDbEntity
  8
Graypants_Ohio24
 62
    36
420
  8866048
370
    -3
100
AcDbLine
 10
1.500000000000577
 20
-1500.162195849859
 30
0.0
 11
1.500000000000568
 21
-1501.87705972954
 31
0.0
  0
LINE
  5
2B3
330
1F
100
AcDbEntity
  8
Graypants_Ohio24
 62
    36
420
  8866048
370
    -3
100
AcDbLine
 10
-0.0000000000004547
 20
-560.4002275185051
 30
0.0
 11
57.15000000000009
 21
-560.4002275185051
 31
0.0
  0
LINE
  5
2B4
330
1F
100
AcDbEntity
  8
Graypants_Ohio24
 62
    36
420
  8866048
370
    -3
100
AcDbLine
 10
-57.14999999999986
 20
-568.3377275185048
 30
0.0
 11
-57.14999999999986
 21
-560.4002275185051
 31
0.0
  0
LINE
  5
2B5
330
1F
100
AcDbEntity
  8
Graypants_Ohio24
 62
    36
420
  8866048
370
    -3
100
AcDbLine
 10
57.15000000000009
 20
-560.4002275185051
 30
0.0
 11
57.15000000000009
 21
-568.3377275185051
 31
0.0
  0
LINE
  5
2B6
330
1F
100
AcDbEntity
  8
Graypants_Ohio24
 62
    36
420
  8866048
370
    -3
100
AcDbLine
 10
-57.14999999999986
 20
-560.4002275185051
 30
0.0
 11
-0.0000000000004547
 21
-560.4002275185051
 31
0.0
  0
ARC
  5
2B7
330
1F
100
AcDbEntity
  8
Graypants_Ohio24
 62
    36
420
  8866048
370
    -3
100
AcDbCircle
 10
-55.56250000000031
 20
-568.3377275185052
 30
0.0
 40
1.587499999999778
210
0.0
220
0.0
230
-1.0
100
AcDbArc
 50
179.9999999999959
 51
270.000000000003
  0
ARC
  5
2B8
330
1F
100
AcDbEntity
  8
Graypants_Ohio24
 62
    36
420
  8866048
370
    -3
100
AcDbCircle
 10
-55.56250000000031
 20
-568.3377275185054
 30
0.0
 40
1.587499999999551
100
AcDbArc
 50
179.9999999999877
 51
270.0000000000113
  0
LINE
  5
2B9
330
1F
100
AcDbEntity
  8
Graypants_Ohio24
 62
    36
420
  8866048
370
    -3
100
AcDbLine
 10
12.44600000000048
 20
-569.9252275185047
 30
0.0
 11
12.44600000000059
 21
-1244.563929740921
 31
0.0
  0
LINE
  5
2BA
330
1F
100
AcDbEntity
  8
Graypants_Ohio24
 62
    36
420
  8866048
370
    -3
100
AcDbLine
 10
0.0002500000001646
 20
-569.9252275185049
 30
0.0
 11
0.0001220146061769
 21
-1244.563929740921
 31
0.0
  0
LINE
  5
2BB
330
1F
100
AcDbEntity
  8
Graypants_Ohio24
 62
    36
420
  8866048
370
    -3
100
AcDbLine
 10
6.604000000000724
 20
-1244.563929740921
 30
0.0
 11
6.604000000000497
 21
-569.9252275185047
 31
0.0
  0
LINE
  5
2BC
330
1F
100
AcDbEntity
  8
Graypants_Ohio24
 62
    36
420
  8866048
370
    -3
100
AcDbLine
 10
-1.587622014606268
 20
-1244.563929740921
 30
0.0
 11
-1.587749999999801
 21
-569.9252275185049
 31
0.0
  0
LINE
  5
2BD
330
1F
100
AcDbEntity
  8
Graypants_Ohio24
 62
    36
420
  8866048
370
    -3
100
AcDbLine
 10
-0.0000000000003411
 20
-569.9252275185049
 30
0.0
 11
55.56250000000023
 21
-569.9252275185049
 31
0.0
  0
LINE
  5
2BE
330
1F
100
AcDbEntity
  8
Graypants_Ohio24
 62
    36
420
  8866048
370
    -3
100
AcDbLine
 10
-55.5625
 20
-569.9252275185049
 30
0.0
 11
-0.0000000000003411
 21
-569.9252275185049
 31
0.0
  0
LINE
  5
2BF
330
1F
100
AcDbEntity
  8
Graypants_Ohio24
 62
    36
420
  8866048
370
    -3
100
AcDbLine
 10
19.04999970531276
 20
-34.69704535102073
 30
0.0
 11
19.04999960974521
 21
-53.88153686438954
 31
0.0
  0
LINE
  5
2C0
330
1F
100
AcDbEntity
  8
Graypants_Ohio24
 62
    36
420
  8866048
370
    -3
100
AcDbLine
 10
-19.05000048448233
 20
-72.79704516122547
 30
0.0
 11
-19.05000039025481
 21
-53.88153658843816
 31
0.0
  0
ARC
  5
2C1
330
1F
100
AcDbEntity
  8
Graypants_Ohio24
 62
    36
420
  8866048
370
    -3
100
AcDbCircle
 10
6.349999705313323
 20
-34.69704528775497
 30
0.0
 40
12.69999999999943
100
AcDbArc
 50
359.9999997145779
 51
89.99999971458294
  0
ARC
  5
2C2
330
1F
100
AcDbEntity
  8
Graypants_Ohio24
 62
    36
420
  8866048
370
    -3
100
AcDbCircle
 10
6.350000294687835
 20
-34.69704522448996
 30
0.0
 40
12.69999999999932
210
0.0
220
0.0
230
-1.0
100
AcDbArc
 50
0.000000285416033
 51
90.00000028542156
  0
LINE
  5
2C3
330
1F
100
AcDbEntity
  8
Graypants_Ohio24
 62
    36
420
  8866048
370
    -3
100
AcDbLine
 10
19.04999951551758
 20
-72.79704535102064
 30
0.0
 11
-19.05000048448233
 21
-72.79704516122547
 31
0.0
  0
ARC
  5
2C4
330
1F
100
AcDbEntity
  8
Graypants_Ohio24
 62
    36
420
  8866048
370
    -3
100
AcDbCircle
 10
0.0000000000003519
 20
0.0000000000005001
 30
0.0
 40
190.4999999999994
100
AcDbArc
 50
90.45048777381189
 51
209.548847182396
  0
LINE
  5
2C5
330
1F
100
AcDbEntity
  8
Graypants_Ohio24
 62
    36
420
  8866048
370
    -3
100
AcDbLine
 10
19.04999960974521
 20
-53.88153686438954
 30
0.0
 11
19.04999951551758
 21
-72.79704535102064
 31
0.0
  0
LINE
  5
2C6
330
1F
100
AcDbEntity
  8
Graypants_Ohio24
 62
    36
420
  8866048
370
    -3
100
AcDbLine
 10
-19.05000039025481
 20
-53.88153658843816
 30
0.0
 11
-19.05000029468715
 21
-34.69704516122555
 31
0.0
  0
LINE
  5
2C7
330
1F
100
AcDbEntity
  8
Graypants_Ohio24
 62
    36
420
  8866048
370
    -3
100
AcDbLine
 10
20.52352285758946
 20
33.84630636239991
 30
0.0
 11
37.14179489361891
 21
43.44087008548946
 31
0.0
  0
LINE
  5
2C8
330
1F
100
AcDbEntity
  8
Graypants_Ohio24
 62
    36
420
  8866048
370
    -3
100
AcDbLine
 10
72.56909067230663
 20
19.90073821894794
 30
0.0
 11
56.19006037545728
 21
10.44430077678635
 31
0.0
  0
ARC
  5
2C9
330
1F
100
AcDbEntity
  8
Graypants_Ohio24
 62
    36
420
  8866048
370
    -3
100
AcDbCircle
 10
26.87352280280012
 20
22.84778370270512
 30
0.0
 40
12.69999999999987
100
AcDbArc
 50
119.999999714581
 51
209.9999997145812
  0
ARC
  5
2CA
330
1F
100
AcDbEntity
  8
Graypants_Ohio24
 62
    36
420
  8866048
370
    -3
100
AcDbCircle
 10
-33.22352274801127
 20
11.84926104301037
 30
0.0
 40
12.7000000000001
210
0.0
220
0.0
230
-1.0
100
AcDbArc
 50
240.0000002854199
 51
330.0000002854179
  0
LINE
  5
2CB
330
1F
100
AcDbEntity
  8
Graypants_Ohio24
 62
    36
420
  8866048
370
    -3
100
AcDbLine
 10
53.51909083667397
 20
52.89630619803257
 30
0.0
 11
72.56909067230663
 21
19.90073821894794
 31
0.0
  0
LINE
  5
2CC
330
1F
100
AcDbEntity
  8
Graypants_Ohio24
 62
    36
420
  8866048
370
    -3
100
AcDbLine
 10
-39.57352256290278
 20
0.850738988625841
 30
0.0
 11
-56.18777952438268
 21
10.44298482807381
 31
0.0
  0
LINE
  5
2CD
330
1F
100
AcDbEntity
  8
Graypants_Ohio24
 62
    36
420
  8866048
370
    -3
100
AcDbLine
 10
-53.51909018782487
 20
52.89630694228277
 30
0.0
 11
-37.13777928540139
 21
43.43855257428505
 31
0.0
  0
ARC
  5
2CE
330
1F
100
AcDbEntity
  8
Graypants_Ohio24
 62
    36
420
  8866048
370
    -3
100
AcDbCircle
 10
-33.2235225081137
 20
11.8492615850555
 30
0.0
 40
12.7
100
AcDbArc
 50
239.9999997145814
 51
329.9999997145819
  0
ARC
  5
2CF
330
1F
100
AcDbEntity
  8
Graypants_Ohio24
 62
    36
420
  8866048
370
    -3
100
AcDbCircle
 10
26.8735224533241
 20
22.8477841814856
 30
0.0
 40
12.6999999999997
210
0.0
220
0.0
230
-1.0
100
AcDbArc
 50
120.0000002854179
 51
210.0000002854201
  0
LINE
  5
2D0
330
1F
100
AcDbEntity
  8
Graypants_Ohio24
 62
    36
420
  8866048
370
    -3
100
AcDbLine
 10
-72.56909035219223
 20
19.90073915299309
 30
0.0
 11
-53.51909018782487
 21
52.89630694228277
 31
0.0
  0
LINE
  5
2D1
330
1F
100
AcDbEntity
  8
Graypants_Ohio24
 62
    36
420
  8866048
370
    -3
100
AcDbLine
 10
37.14179489361891
 20
43.44087008548946
 30
0.0
 11
53.51909083667397
 21
52.89630619803257
 31
0.0
  0
LINE
  5
2D2
330
1F
100
AcDbEntity
  8
Graypants_Ohio24
 62
    36
420
  8866048
370
    -3
100
AcDbLine
 10
56.19006037545728
 20
10.44430077678635
 30
0.0
 11
39.57352269322212
 21
0.8507383833152802
 31
0.0
  0
LINE
  5
2D3
330
1F
100
AcDbEntity
  8
Graypants_Ohio24
 62
    36
420
  8866048
370
    -3
100
AcDbLine
 10
-56.18777952438268
 20
10.44298482807381
 30
0.0
 11
-72.56909035219223
 21
19.90073915299309
 31
0.0
  0
LINE
  5
2D4
330
1F
100
AcDbEntity
  8
Graypants_Ohio24
 62
    36
420
  8866048
370
    -3
100
AcDbLine
 10
-37.13777928540139
 20
43.43855257428505
 30
0.0
 11
-20.52352239853531
 21
33.8463067779153
 31
0.0
  0
LINE
  5
2D5
330
1F
100
AcDbEntity
  8
Graypants_Ohio24
 62
    36
420
  8866048
370
    -3
100
AcDbLine
 10
-1.499999999998749
 20
216.5000000000007
 30
0.0
 11
1.500000000001364
 21
216.5000000000005
 31
0.0
  0
LINE
  5
2D6
330
1F
100
AcDbEntity
  8
Graypants_Ohio24
 62
    36
420
  8866048
370
    -3
100
AcDbLine
 10
-1.500000000007731
 20
130.1383630135733
 30
0.0
 11
-1.500000000015408
 21
57.13031156925494
 31
0.0
  0
LINE
  5
2D7
330
1F
100
AcDbEntity
  8
Graypants_Ohio24
 62
    36
420
  8866048
370
    -3
100
AcDbLine
 10
1.499999999992269
 20
130.1383630135729
 30
0.0
 11
1.499999999984703
 21
57.13031156925591
 31
0.0
  0
LINE
  5
2D8
330
1F
100
AcDbEntity
  8
Graypants_Ohio24
  6
Continuous
 62
    36
420
  8866048
370
    -3
100
AcDbLine
 10
-1.500000000015408
 20
57.13031156925494
 30
0.0
 11
-1.500000000017167
 21
39.99724306548297
 31
0.0
  0
LINE
  5
2D9
330
1F
100
AcDbEntity
  8
Graypants_Ohio24
  6
Continuous
 62
    36
420
  8866048
370
    -3
100
AcDbLine
 10
1.499999999984703
 20
57.13031156925591
 30
0.0
 11
1.499999999982947
 21
39.99724306548274
 31
0.0
  0
LINE
  5
2DA
330
1F
100
AcDbEntity
  8
Graypants_Ohio24
 62
    36
420
  8866048
370
    -3
100
AcDbLine
 10
-1.499999999998181
 20
222.1958951478634
 30
0.0
 11
-1.499999999998749
 21
216.5000000000007
 31
0.0
  0
LINE
  5
2DB
330
1F
100
AcDbEntity
  8
Graypants_Ohio24
 62
    36
420
  8866048
370
    -3
100
AcDbLine
 10
1.500000000001933
 20
222.1987437240773
 30
0.0
 11
1.500000000001364
 21
216.5000000000005
 31
0.0
  0
LINE
  5
2DC
330
1F
100
AcDbEntity
  8
Graypants_Ohio24
 62
    36
420
  8866048
370
    -3
100
AcDbLine
 10
-186.7445004650533
 20
-109.5490371753999
 30
0.0
 11
-188.2445004521109
 21
-106.9509609565744
 31
0.0
  0
LINE
  5
2DD
330
1F
100
AcDbEntity
  8
Graypants_Ohio24
  6
Continuous
 62
    36
420
  8866048
370
    -3
100
AcDbLine
 10
-33.88862868214301
 20
-21.29765946959719
 30
0.0
 11
-10.07531758491177
 21
-7.549038055483374
 31
0.0
  0
LINE
  5
2DE
330
1F
100
AcDbEntity
  8
Graypants_Ohio24
  6
Continuous
 62
    36
420
  8866048
370
    -3
100
AcDbLine
 10
-35.38862866920067
 20
-18.6995832507714
 30
0.0
 11
-11.57531757196944
 21
-4.950961836657592
 31
0.0
  0
LINE
  5
2DF
330
1F
100
AcDbEntity
  8
Graypants_Ohio24
 62
    36
420
  8866048
370
    -3
100
AcDbLine
 10
-111.95312870729
 20
-66.36821905476154
 30
0.0
 11
-48.72307774387473
 21
-29.86233253013646
 31
0.0
  0
LINE
  5
2E0
330
1F
100
AcDbEntity
  8
Graypants_Ohio24
 62
    36
420
  8866048
370
    -3
100
AcDbLine
 10
-113.4531286943476
 20
-63.77014283593575
 30
0.0
 11
-50.22437514603192
 21
-27.26500537425927
 31
0.0
  0
LINE
  5
2E1
330
1F
100
AcDbEntity
  8
Graypants_Ohio24
 62
    36
420
  8866048
370
    -3
100
AcDbLine
 10
188.2444987941485
 20
-106.9509638747566
 30
0.0
 11
186.7444987668157
 21
-109.5490400703286
 31
0.0
  0
LINE
  5
2E2
330
1F
100
AcDbEntity
  8
Graypants_Ohio24
  6
Continuous
 62
    36
420
  8866048
370
    -3
100
AcDbLine
 10
35.38862837931538
 20
-18.69958379937406
 30
0.0
 11
11.57531749521581
 21
-4.95096201610499
 31
0.0
  0
LINE
  5
2E3
330
1F
100
AcDbEntity
  8
Graypants_Ohio24
  6
Continuous
 62
    36
420
  8866048
370
    -3
100
AcDbLine
 10
33.88862835198233
 20
-21.29765999494611
 30
0.0
 11
10.07531746788288
 21
-7.549038211677265
 31
0.0
  0
LINE
  5
2E4
330
1F
100
AcDbEntity
  8
Graypants_Ohio24
 62
    36
420
  8866048
370
    -3
100
AcDbLine
 10
113.4531277057763
 20
-63.77014459469819
 30
0.0
 11
50.22671316714536
 21
-27.26635625402527
 31
0.0
  0
LINE
  5
2E5
330
1F
100
AcDbEntity
  8
Graypants_Ohio24
 62
    36
420
  8866048
370
    -3
100
AcDbLine
 10
111.9531276784433
 20
-66.36822079027024
 30
0.0
 11
48.72630083090423
 21
-29.86419440293246
 31
0.0
  0
ARC
  5
2E6
330
1F
100
AcDbEntity
  8
Graypants_Ohio24
 62
    36
420
  8866048
370
    -3
100
AcDbCircle
 10
0.0000000000002281
 20
0.000000000000051
 30
0.0
 40
190.4999999999998
100
AcDbArc
 50
330.4521248261733
 51
89.54868906408528
  0
ARC
  5
2E7
330
1F
100
AcDbEntity
  8
Graypants_Ohio24
 62
    36
420
  8866048
370
    -3
100
AcDbCircle
 10
0.0000000000005897
 20
-0.0000000000000214
 30
0.0
 40
190.4999999999993
100
AcDbArc
 50
210.4511522467607
 51
329.5490983280177
  0
LINE
  5
2E8
330
1F
100
AcDbEntity
  8
Graypants_Ohio24
 62
    36
420
  8866048
370
    -3
100
AcDbLine
 10
-191.6743413077111
 20
-112.3952820802263
 30
0.0
 11
-186.7445004650533
 21
-109.5490371753999
 31
0.0
  0
LINE
  5
2E9
330
1F
100
AcDbEntity
  8
Graypants_Ohio24
 62
    36
420
  8866048
370
    -3
100
AcDbLine
 10
-193.1756387101433
 20
-109.7979549245078
 30
0.0
 11
-188.2445004521109
 21
-106.9509609565744
 31
0.0
  0
LINE
  5
2EA
330
1F
100
AcDbEntity
  8
Graypants_Ohio24
  6
Continuous
 62
    36
420
  8866048
370
    -3
100
AcDbLine
 10
-48.72307774387473
 20
-29.86233253013646
 30
0.0
 11
-33.88862868214301
 21
-21.29765946959719
 31
0.0
  0
LINE
  5
2EB
330
1F
100
AcDbEntity
  8
Graypants_Ohio24
  6
Continuous
 62
    36
420
  8866048
370
    -3
100
AcDbLine
 10
-50.22437514603192
 20
-27.26500537425927
 30
0.0
 11
-35.38862866920067
 21
-18.6995832507714
 31
0.0
  0
LINE
  5
2EC
330
1F
100
AcDbEntity
  8
Graypants_Ohio24
 62
    36
420
  8866048
370
    -3
100
AcDbLine
 10
193.1772886595286
 20
-109.7989115005835
 30
0.0
 11
188.2444987941485
 21
-106.9509638747566
 31
0.0
  0
LINE
  5
2ED
330
1F
100
AcDbEntity
  8
Graypants_Ohio24
 62
    36
420
  8866048
370
    -3
100
AcDbLine
 10
191.6815593142305
 20
-112.3994533756379
 30
0.0
 11
186.7444987668157
 21
-109.5490400703286
 31
0.0
  0
LINE
  5
2EE
330
1F
100
AcDbEntity
  8
Graypants_Ohio24
  6
Continuous
 62
    36
420
  8866048
370
    -3
100
AcDbLine
 10
50.22671316714536
 20
-27.26635625402527
 30
0.0
 11
35.38862837931538
 21
-18.69958379937406
 31
0.0
  0
LINE
  5
2EF
330
1F
100
AcDbEntity
  8
Graypants_Ohio24
  6
Continuous
 62
    36
420
  8866048
370
    -3
100
AcDbLine
 10
48.72630083090423
 20
-29.86419440293246
 30
0.0
 11
33.88862835198233
 21
-21.29765999494611
 31
0.0
  0
LINE
  5
2F0
330
1F
100
AcDbEntity
  8
Graypants_Ohio24
 62
    36
420
  8866048
370
    -3
100
AcDbLine
 10
-2.749630244276091
 20
39.23159054117878
 30
0.0
 11
-35.35036952430232
 21
-17.23454488421611
 31
0.0
  0
LINE
  5
2F1
330
1F
100
AcDbEntity
  8
Graypants_Ohio24
 62
    36
420
  8866048
370
    -3
100
AcDbLine
 10
-32.60073891739103
 20
-21.99704491314377
 30
0.0
 11
32.60073845454644
 21
-21.99704559910219
 31
0.0
  0
LINE
  5
2F2
330
1F
100
AcDbEntity
  8
Graypants_Ohio24
 62
    36
420
  8866048
370
    -3
100
AcDbLine
 10
35.35036916166655
 20
-17.23454562802976
 30
0.0
 11
2.749631069755196
 21
39.23159048332332
 31
0.0
  0
ARC
  5
2F3
330
1F
100
AcDbEntity
  8
Graypants_Ohio24
 62
    36
420
  8866048
370
    -3
100
AcDbCircle
 10
-0.0123384438919305
 20
-0.0000059824024204
 30
0.0
 40
7.937496117506636
100
AcDbArc
 50
89.91093651763319
 51
90.00127772681896
  0
ARC
  5
2F4
330
1F
100
AcDbEntity
  8
Graypants_Ohio24
 62
    36
420
  8866048
370
    -3
100
AcDbCircle
 10
0.0123384516467607
 20
-0.0000056087357627
 30
0.0
 40
7.937495743847771
100
AcDbArc
 50
89.99872240038741
 51
90.08906346574426
  0
LINE
  5
2F5
330
1F
100
AcDbEntity
  8
Graypants_Ohio24
 62
    36
420
  8866048
370
    -3
100
AcDbLine
 10
2.375847880097214
 20
11.27445248485195
 30
0.0
 11
2.381250000000666
 21
11.11250000000169
 31
0.0
  0
LINE
  5
2F6
330
1F
100
AcDbEntity
  8
Graypants_Ohio24
 62
    36
420
  8866048
370
    -3
100
AcDbLine
 10
2.363938912478402
 20
11.39910840981094
 30
0.0
 11
2.37350228143475
 21
11.30594108790982
 31
0.0
  0
ARC
  5
2F7
330
1F
100
AcDbEntity
  8
Graypants_Ohio24
 62
    36
420
  8866048
370
    -3
100
AcDbCircle
 10
-0.0000480993546486
 20
11.11245581517504
 30
0.0
 40
2.381298099764026
210
0.0
220
0.0
230
-1.0
100
AcDbArc
 50
0.0010631193457324
 51
171.7416516693813
  0
LINE
  5
2F8
330
1F
100
AcDbEntity
  8
Graypants_Ohio24
 62
    36
420
  8866048
370
    -3
100
AcDbLine
 10
2.362986154857829
 20
11.41679236066452
 30
0.0
 11
2.357778158752135
 21
11.45471389761293
 31
0.0
  0
LINE
  5
2F9
330
1F
100
AcDbEntity
  8
Graypants_Ohio24
 62
    36
420
  8866048
370
    -3
100
AcDbLine
 10
2.376796190188485
 20
11.27494825864388
 30
0.0
 11
2.374455387830051
 21
11.30605865898752
 31
0.0
  0
POLYLINE
  5
2FA
330
1F
100
AcDbEntity
  8
Graypants_Ohio24
 62
    36
420
  8866048
370
    -3
100
AcDb2dPolyline
 66
     1
 10
0.0
 20
0.0
 30
0.0
  0
VERTEX
  5
2FB
330
2FA
100
AcDbEntity
  8
Graypants_Ohio24
 62
    36
420
  8866048
370
    -3
100
AcDbVertex
100
AcDb2dVertex
 10
2.381250000000364
 20
-11.11250000011091
 30
0.0
  0
VERTEX
  5
2FC
330
2FA
100
AcDbEntity
  8
Graypants_Ohio24
 62
    36
420
  8866048
370
    -3
100
AcDbVertex
100
AcDb2dVertex
 10
2.348064729243467
 20
-11.44729340134932
 30
0.0
  0
VERTEX
  5
2FD
330
2FA
100
AcDbEntity
  8
Graypants_Ohio24
 62
    36
420
  8866048
370
    -3
100
AcDbVertex
100
AcDb2dVertex
 10
2.335717027013761
 20
-11.54500142646798
 30
0.0
  0
VERTEX
  5
2FE
330
2FA
100
AcDbEntity
  8
Graypants_Ohio24
 62
    36
420
  8866048
370
    -3
100
AcDbVertex
100
AcDb2dVertex
 10
2.326417020982931
 20
-11.60197297054803
 30
0.0
  0
VERTEX
  5
2FF
330
2FA
100
AcDbEntity
  8
Graypants_Ohio24
 62
    36
420
  8866048
370
    -3
100
AcDbVertex
100
AcDb2dVertex
 10
2.315278165636402
 20
-11.65855471182457
 30
0.0
  0
VERTEX
  5
300
330
2FA
100
AcDbEntity
  8
Graypants_Ohio24
 62
    36
420
  8866048
370
    -3
100
AcDbVertex
100
AcDb2dVertex
 10
2.302375982295206
 20
-11.71473176148786
 30
0.0
  0
VERTEX
  5
301
330
2FA
100
AcDbEntity
  8
Graypants_Ohio24
 62
    36
420
  8866048
370
    -3
100
AcDbVertex
100
AcDb2dVertex
 10
2.287785992280375
 20
-11.77048923072813
 30
0.0
  0
VERTEX
  5
302
330
2FA
100
AcDbEntity
  8
Graypants_Ohio24
 62
    36
420
  8866048
370
    -3
100
AcDbVertex
100
AcDb2dVertex
 10
2.271583716912941
 20
-11.82581223073564
 30
0.0
  0
VERTEX
  5
303
330
2FA
100
AcDbEntity
  8
Graypants_Ohio24
 62
    36
420
  8866048
370
    -3
100
AcDbVertex
100
AcDb2dVertex
 10
2.253844677513938
 20
-11.88068587270063
 30
0.0
  0
VERTEX
  5
304
330
2FA
100
AcDbEntity
  8
Graypants_Ohio24
 62
    36
420
  8866048
370
    -3
100
AcDbVertex
100
AcDb2dVertex
 10
2.234644395404397
 20
-11.93509526781335
 30
0.0
  0
VERTEX
  5
305
330
2FA
100
AcDbEntity
  8
Graypants_Ohio24
 62
    36
420
  8866048
370
    -3
100
AcDbVertex
100
AcDb2dVertex
 10
2.21405839190535
 20
-11.98902552726404
 30
0.0
  0
VERTEX
  5
306
330
2FA
100
AcDbEntity
  8
Graypants_Ohio24
 62
    36
420
  8866048
370
    -3
100
AcDbVertex
100
AcDb2dVertex
 10
2.190898563114049
 20
-12.04540690834714
 30
0.0
  0
VERTEX
  5
307
330
2FA
100
AcDbEntity
  8
Graypants_Ohio24
 62
    36
420
  8866048
370
    -3
100
AcDbVertex
100
AcDb2dVertex
 10
2.166332010776747
 20
-12.10111408828702
 30
0.0
  0
VERTEX
  5
308
330
2FA
100
AcDbEntity
  8
Graypants_Ohio24
 62
    36
420
  8866048
370
    -3
100
AcDbVertex
100
AcDb2dVertex
 10
2.140374991530902
 20
-12.15612220018267
 30
0.0
  0
VERTEX
  5
309
330
2FA
100
AcDbEntity
  8
Graypants_Ohio24
 62
    36
420
  8866048
370
    -3
100
AcDbVertex
100
AcDb2dVertex
 10
2.11304376201397
 20
-12.21040637713303
 30
0.0
  0
VERTEX
  5
30A
330
2FA
100
AcDbEntity
  8
Graypants_Ohio24
 62
    36
420
  8866048
370
    -3
100
AcDbVertex
100
AcDb2dVertex
 10
2.084354578863411
 20
-12.26394175223708
 30
0.0
  0
VERTEX
  5
30B
330
2FA
100
AcDbEntity
  8
Graypants_Ohio24
 62
    36
420
  8866048
370
    -3
100
AcDbVertex
100
AcDb2dVertex
 10
2.054323698716682
 20
-12.31670345859378
 30
0.0
  0
VERTEX
  5
30C
330
2FA
100
AcDbEntity
  8
Graypants_Ohio24
 62
    36
420
  8866048
370
    -3
100
AcDbVertex
100
AcDb2dVertex
 10
2.022967378211241
 20
-12.36866662930209
 30
0.0
  0
VERTEX
  5
30D
330
2FA
100
AcDbEntity
  8
Graypants_Ohio24
 62
    36
420
  8866048
370
    -3
100
AcDbVertex
100
AcDb2dVertex
 10
1.990301873984545
 20
-12.41980639746098
 30
0.0
  0
VERTEX
  5
30E
330
2FA
100
AcDbEntity
  8
Graypants_Ohio24
 62
    36
420
  8866048
370
    -3
100
AcDbVertex
100
AcDb2dVertex
 10
1.956343442674054
 20
-12.47009789616941
 30
0.0
  0
VERTEX
  5
30F
330
2FA
100
AcDbEntity
  8
Graypants_Ohio24
 62
    36
420
  8866048
370
    -3
100
AcDbVertex
100
AcDb2dVertex
 10
1.921108340917224
 20
-12.51951625852634
 30
0.0
  0
VERTEX
  5
310
330
2FA
100
AcDbEntity
  8
Graypants_Ohio24
 62
    36
420
  8866048
370
    -3
100
AcDbVertex
100
AcDb2dVertex
 10
1.884612825351514
 20
-12.56803661763075
 30
0.0
  0
VERTEX
  5
311
330
2FA
100
AcDbEntity
  8
Graypants_Ohio24
 62
    36
420
  8866048
370
    -3
100
AcDbVertex
100
AcDb2dVertex
 10
1.846873152614382
 20
-12.61563410658158
 30
0.0
  0
VERTEX
  5
312
330
2FA
100
AcDbEntity
  8
Graypants_Ohio24
 62
    36
420
  8866048
370
    -3
100
AcDbVertex
100
AcDb2dVertex
 10
1.807905579343285
 20
-12.66228385847781
 30
0.0
  0
VERTEX
  5
313
330
2FA
100
AcDbEntity
  8
Graypants_Ohio24
 62
    36
420
  8866048
370
    -3
100
AcDbVertex
100
AcDb2dVertex
 10
1.767726362175681
 20
-12.7079610064184
 30
0.0
  0
VERTEX
  5
314
330
2FA
100
AcDbEntity
  8
Graypants_Ohio24
 62
    36
420
  8866048
370
    -3
100
AcDbVertex
100
AcDb2dVertex
 10
1.726351757749028
 20
-12.75264068350232
 30
0.0
  0
VERTEX
  5
315
330
2FA
100
AcDbEntity
  8
Graypants_Ohio24
 62
    36
420
  8866048
370
    -3
100
AcDbVertex
100
AcDb2dVertex
 10
1.683798022700785
 20
-12.79629802282852
 30
0.0
  0
VERTEX
  5
316
330
2FA
100
AcDbEntity
  8
Graypants_Ohio24
 62
    36
420
  8866048
370
    -3
100
AcDbVertex
100
AcDb2dVertex
 10
1.639650424895041
 20
-12.83931731723025
 30
0.0
  0
VERTEX
  5
317
330
2FA
100
AcDbEntity
  8
Graypants_Ohio24
 62
    36
420
  8866048
370
    -3
100
AcDbVertex
100
AcDb2dVertex
 10
1.594419442740481
 20
-12.88116565624149
 30
0.0
  0
VERTEX
  5
318
330
2FA
100
AcDbEntity
  8
Graypants_Ohio24
 62
    36
420
  8866048
370
    -3
100
AcDbVertex
100
AcDb2dVertex
 10
1.548152110167322
 20
-12.92180279576233
 30
0.0
  0
VERTEX
  5
319
330
2FA
100
AcDbEntity
  8
Graypants_Ohio24
 62
    36
420
  8866048
370
    -3
100
AcDbVertex
100
AcDb2dVertex
 10
1.500897413488488
 20
-12.9611910280423
 30
0.0
  0
VERTEX
  5
31A
330
2FA
100
AcDbEntity
  8
Graypants_Ohio24
 62
    36
420
  8866048
370
    -3
100
AcDbVertex
100
AcDb2dVertex
 10
1.452706119785607
 20
-12.99929529693321
 30
0.0
  0
VERTEX
  5
31B
330
2FA
100
AcDbEntity
  8
Graypants_Ohio24
 62
    36
420
  8866048
370
    -3
100
AcDbVertex
100
AcDb2dVertex
 10
1.403630597426493
 20
-13.03608329920255
 30
0.0
  0
VERTEX
  5
31C
330
2FA
100
AcDbEntity
  8
Graypants_Ohio24
 62
    36
420
  8866048
370
    -3
100
AcDbVertex
100
AcDb2dVertex
 10
1.353724630030968
 20
-13.07152557131369
 30
0.0
  0
VERTEX
  5
31D
330
2FA
100
AcDbEntity
  8
Graypants_Ohio24
 62
    36
420
  8866048
370
    -3
100
AcDbVertex
100
AcDb2dVertex
 10
1.303043225248693
 20
-13.10559556122058
 30
0.0
  0
VERTEX
  5
31E
330
2FA
100
AcDbEntity
  8
Graypants_Ohio24
 62
    36
420
  8866048
370
    -3
100
AcDbVertex
100
AcDb2dVertex
 10
1.251642419742707
 20
-13.13826968486898
 30
0.0
  0
VERTEX
  5
31F
330
2FA
100
AcDbEntity
  8
Graypants_Ohio24
 62
    36
420
  8866048
370
    -3
100
AcDbVertex
100
AcDb2dVertex
 10
1.199579081785303
 20
-13.16952736724288
 30
0.0
  0
VERTEX
  5
320
330
2FA
100
AcDbEntity
  8
Graypants_Ohio24
 62
    36
420
  8866048
370
    -3
100
AcDbVertex
100
AcDb2dVertex
 10
1.146910712868993
 20
-13.19935106793908
 30
0.0
  0
VERTEX
  5
321
330
2FA
100
AcDbEntity
  8
Graypants_Ohio24
 62
    36
420
  8866048
370
    -3
100
AcDbVertex
100
AcDb2dVertex
 10
1.093695249714933
 20
-13.22772629139575
 30
0.0
  0
VERTEX
  5
322
330
2FA
100
AcDbEntity
  8
Graypants_Ohio24
 62
    36
420
  8866048
370
    -3
100
AcDbVertex
100
AcDb2dVertex
 10
1.039990868025122
 20
-13.25464158203734
 30
0.0
  0
VERTEX
  5
323
330
2FA
100
AcDbEntity
  8
Graypants_Ohio24
 62
    36
420
  8866048
370
    -3
100
AcDbVertex
100
AcDb2dVertex
 10
0.9858557892739297
 20
-13.2800885047287
 30
0.0
  0
VERTEX
  5
324
330
2FA
100
AcDbEntity
  8
Graypants_Ohio24
 62
    36
420
  8866048
370
    -3
100
AcDbVertex
100
AcDb2dVertex
 10
0.9313480917701651
 20
-13.30406161105281
 30
0.0
  0
VERTEX
  5
325
330
2FA
100
AcDbEntity
  8
Graypants_Ohio24
 62
    36
420
  8866048
370
    -3
100
AcDbVertex
100
AcDb2dVertex
 10
0.8765255271445394
 20
-13.32655839203831
 30
0.0
  0
VERTEX
  5
326
330
2FA
100
AcDbEntity
  8
Graypants_Ohio24
 62
    36
420
  8866048
370
    -3
100
AcDbVertex
100
AcDb2dVertex
 10
0.8214453433304015
 20
-13.34757921806334
 30
0.0
  0
VERTEX
  5
327
330
2FA
100
AcDbEntity
  8
Graypants_Ohio24
 62
    36
420
  8866048
370
    -3
100
AcDbVertex
100
AcDb2dVertex
 10
0.7661641150098417
 20
-13.36712726675056
 30
0.0
  0
VERTEX
  5
328
330
2FA
100
AcDbEntity
  8
Graypants_Ohio24
 62
    36
420
  8866048
370
    -3
100
AcDbVertex
100
AcDb2dVertex
 10
0.7107375823943357
 20
-13.3852084397436
 30
0.0
  0
VERTEX
  5
329
330
2FA
100
AcDbEntity
  8
Graypants_Ohio24
 62
    36
420
  8866048
370
    -3
100
AcDbVertex
100
AcDb2dVertex
 10
0.6552204991008735
 20
-13.40183126931704
 30
0.0
  0
VERTEX
  5
32A
330
2FA
100
AcDbEntity
  8
Graypants_Ohio24
 62
    36
420
  8866048
370
    -3
100
AcDbVertex
100
AcDb2dVertex
 10
0.5996664897727563
 20
-13.4170068158205
 30
0.0
  0
VERTEX
  5
32B
330
2FA
100
AcDbEntity
  8
Graypants_Ohio24
 62
    36
420
  8866048
370
    -3
100
AcDbVertex
100
AcDb2dVertex
 10
0.5441279179806929
 20
-13.4307485569925
 30
0.0
  0
VERTEX
  5
32C
330
2FA
100
AcDbEntity
  8
Graypants_Ohio24
 62
    36
420
  8866048
370
    -3
100
AcDbVertex
100
AcDb2dVertex
 10
0.4886557648261587
 20
-13.443072270201
 30
0.0
  0
VERTEX
  5
32D
330
2FA
100
AcDbEntity
  8
Graypants_Ohio24
 62
    36
420
  8866048
370
    -3
100
AcDbVertex
100
AcDb2dVertex
 10
0.4332995185567692
 20
-13.45399590867667
 30
0.0
  0
VERTEX
  5
32E
330
2FA
100
AcDbEntity
  8
Graypants_Ohio24
 62
    36
420
  8866048
370
    -3
100
AcDbVertex
100
AcDb2dVertex
 10
0.3781070753941056
 20
-13.46353947280155
 30
0.0
  0
VERTEX
  5
32F
330
2FA
100
AcDbEntity
  8
Graypants_Ohio24
 62
    36
420
  8866048
370
    -3
100
AcDbVertex
100
AcDb2dVertex
 10
0.3231246516693048
 20
-13.47172487750113
 30
0.0
  0
VERTEX
  5
330
330
2FA
100
AcDbEntity
  8
Graypants_Ohio24
 62
    36
420
  8866048
370
    -3
100
AcDbVertex
100
AcDb2dVertex
 10
0.2683967072619472
 20
-13.4785758167628
 30
0.0
  0
VERTEX
  5
331
330
2FA
100
AcDbEntity
  8
Graypants_Ohio24
 62
    36
420
  8866048
370
    -3
100
AcDbVertex
100
AcDb2dVertex
 10
0.2139658802442755
 20
-13.48411762626942
 30
0.0
  0
VERTEX
  5
332
330
2FA
100
AcDbEntity
  8
Graypants_Ohio24
 62
    36
420
  8866048
370
    -3
100
AcDbVertex
100
AcDb2dVertex
 10
0.1598729325463908
 20
-13.48837714509417
 30
0.0
  0
VERTEX
  5
333
330
2FA
100
AcDbEntity
  8
Graypants_Ohio24
 62
    36
420
  8866048
370
    -3
100
AcDbVertex
100
AcDb2dVertex
 10
0.1061567063793683
 20
-13.49138257735295
 30
0.0
  0
VERTEX
  5
334
330
2FA
100
AcDbEntity
  8
Graypants_Ohio24
 62
    36
420
  8866048
370
    -3
100
AcDbVertex
100
AcDb2dVertex
 10
0.0528540910827048
 20
-13.49316335465539
 30
0.0
  0
VERTEX
  5
335
330
2FA
100
AcDbEntity
  8
Graypants_Ohio24
 62
    36
420
  8866048
370
    -3
100
AcDbVertex
100
AcDb2dVertex
 10
0.0000000000003882
 20
-13.49375000013509
 30
0.0
  0
VERTEX
  5
336
330
2FA
100
AcDbEntity
  8
Graypants_Ohio24
 62
    36
420
  8866048
370
    -3
100
AcDbVertex
100
AcDb2dVertex
 10
-0.052854091081939
 20
-13.49316335465538
 30
0.0
  0
VERTEX
  5
337
330
2FA
100
AcDbEntity
  8
Graypants_Ohio24
 62
    36
420
  8866048
370
    -3
100
AcDbVertex
100
AcDb2dVertex
 10
-0.1061567063786117
 20
-13.49138257735292
 30
0.0
  0
VERTEX
  5
338
330
2FA
100
AcDbEntity
  8
Graypants_Ohio24
 62
    36
420
  8866048
370
    -3
100
AcDbVertex
100
AcDb2dVertex
 10
-0.1598729325456422
 20
-13.48837714509413
 30
0.0
  0
VERTEX
  5
339
330
2FA
100
AcDbEntity
  8
Graypants_Ohio24
 62
    36
420
  8866048
370
    -3
100
AcDbVertex
100
AcDb2dVertex
 10
-0.2139658802435339
 20
-13.48411762626936
 30
0.0
  0
VERTEX
  5
33A
330
2FA
100
AcDbEntity
  8
Graypants_Ohio24
 62
    36
420
  8866048
370
    -3
100
AcDbVertex
100
AcDb2dVertex
 10
-0.2683967072612114
 20
-13.47857581676273
 30
0.0
  0
VERTEX
  5
33B
330
2FA
100
AcDbEntity
  8
Graypants_Ohio24
 62
    36
420
  8866048
370
    -3
100
AcDbVertex
100
AcDb2dVertex
 10
-0.323124651668574
 20
-13.47172487750106
 30
0.0
  0
VERTEX
  5
33C
330
2FA
100
AcDbEntity
  8
Graypants_Ohio24
 62
    36
420
  8866048
370
    -3
100
AcDbVertex
100
AcDb2dVertex
 10
-0.3781070753933786
 20
-13.46353947280147
 30
0.0
  0
VERTEX
  5
33D
330
2FA
100
AcDbEntity
  8
Graypants_Ohio24
 62
    36
420
  8866048
370
    -3
100
AcDbVertex
100
AcDb2dVertex
 10
-0.4332995185560453
 20
-13.45399590867658
 30
0.0
  0
VERTEX
  5
33E
330
2FA
100
AcDbEntity
  8
Graypants_Ohio24
 62
    36
420
  8866048
370
    -3
100
AcDbVertex
100
AcDb2dVertex
 10
-0.488655764825437
 20
-13.44307227020091
 30
0.0
  0
VERTEX
  5
33F
330
2FA
100
AcDbEntity
  8
Graypants_Ohio24
 62
    36
420
  8866048
370
    -3
100
AcDbVertex
100
AcDb2dVertex
 10
-0.5441279179799727
 20
-13.43074855699241
 30
0.0
  0
VERTEX
  5
340
330
2FA
100
AcDbEntity
  8
Graypants_Ohio24
 62
    36
420
  8866048
370
    -3
100
AcDbVertex
100
AcDb2dVertex
 10
-0.5996664897720371
 20
-13.4170068158204
 30
0.0
  0
VERTEX
  5
341
330
2FA
100
AcDbEntity
  8
Graypants_Ohio24
 62
    36
420
  8866048
370
    -3
100
AcDbVertex
100
AcDb2dVertex
 10
-0.6552204991001545
 20
-13.40183126931694
 30
0.0
  0
VERTEX
  5
342
330
2FA
100
AcDbEntity
  8
Graypants_Ohio24
 62
    36
420
  8866048
370
    -3
100
AcDbVertex
100
AcDb2dVertex
 10
-0.7107375823936165
 20
-13.38520843974351
 30
0.0
  0
VERTEX
  5
343
330
2FA
100
AcDbEntity
  8
Graypants_Ohio24
 62
    36
420
  8866048
370
    -3
100
AcDbVertex
100
AcDb2dVertex
 10
-0.7661641150091218
 20
-13.36712726675046
 30
0.0
  0
VERTEX
  5
344
330
2FA
100
AcDbEntity
  8
Graypants_Ohio24
 62
    36
420
  8866048
370
    -3
100
AcDbVertex
100
AcDb2dVertex
 10
-0.8214453433296808
 20
-13.34757921806324
 30
0.0
  0
VERTEX
  5
345
330
2FA
100
AcDbEntity
  8
Graypants_Ohio24
 62
    36
420
  8866048
370
    -3
100
AcDbVertex
100
AcDb2dVertex
 10
-0.8765255271438175
 20
-13.32655839203821
 30
0.0
  0
VERTEX
  5
346
330
2FA
100
AcDbEntity
  8
Graypants_Ohio24
 62
    36
420
  8866048
370
    -3
100
AcDbVertex
100
AcDb2dVertex
 10
-0.9313480917694422
 20
-13.30406161105271
 30
0.0
  0
VERTEX
  5
347
330
2FA
100
AcDbEntity
  8
Graypants_Ohio24
 62
    36
420
  8866048
370
    -3
100
AcDbVertex
100
AcDb2dVertex
 10
-0.9858557892732054
 20
-13.28008850472859
 30
0.0
  0
VERTEX
  5
348
330
2FA
100
AcDbEntity
  8
Graypants_Ohio24
 62
    36
420
  8866048
370
    -3
100
AcDbVertex
100
AcDb2dVertex
 10
-1.039990868024397
 20
-13.25464158203724
 30
0.0
  0
VERTEX
  5
349
330
2FA
100
AcDbEntity
  8
Graypants_Ohio24
 62
    36
420
  8866048
370
    -3
100
AcDbVertex
100
AcDb2dVertex
 10
-1.093695249714207
 20
-13.22772629139564
 30
0.0
  0
VERTEX
  5
34A
330
2FA
100
AcDbEntity
  8
Graypants_Ohio24
 62
    36
420
  8866048
370
    -3
100
AcDbVertex
100
AcDb2dVertex
 10
-1.146910712868267
 20
-13.19935106793897
 30
0.0
  0
VERTEX
  5
34B
330
2FA
100
AcDbEntity
  8
Graypants_Ohio24
 62
    36
420
  8866048
370
    -3
100
AcDbVertex
100
AcDb2dVertex
 10
-1.199579081784576
 20
-13.16952736724277
 30
0.0
  0
VERTEX
  5
34C
330
2FA
100
AcDbEntity
  8
Graypants_Ohio24
 62
    36
420
  8866048
370
    -3
100
AcDbVertex
100
AcDb2dVertex
 10
-1.25164241974198
 20
-13.13826968486886
 30
0.0
  0
VERTEX
  5
34D
330
2FA
100
AcDbEntity
  8
Graypants_Ohio24
 62
    36
420
  8866048
370
    -3
100
AcDbVertex
100
AcDb2dVertex
 10
-1.303043225247968
 20
-13.10559556122045
 30
0.0
  0
VERTEX
  5
34E
330
2FA
100
AcDbEntity
  8
Graypants_Ohio24
 62
    36
420
  8866048
370
    -3
100
AcDbVertex
100
AcDb2dVertex
 10
-1.353724630030244
 20
-13.07152557131357
 30
0.0
  0
VERTEX
  5
34F
330
2FA
100
AcDbEntity
  8
Graypants_Ohio24
 62
    36
420
  8866048
370
    -3
100
AcDbVertex
100
AcDb2dVertex
 10
-1.403630597425772
 20
-13.03608329920241
 30
0.0
  0
VERTEX
  5
350
330
2FA
100
AcDbEntity
  8
Graypants_Ohio24
 62
    36
420
  8866048
370
    -3
100
AcDbVertex
100
AcDb2dVertex
 10
-1.452706119784889
 20
-12.99929529693306
 30
0.0
  0
VERTEX
  5
351
330
2FA
100
AcDbEntity
  8
Graypants_Ohio24
 62
    36
420
  8866048
370
    -3
100
AcDbVertex
100
AcDb2dVertex
 10
-1.500897413487776
 20
-12.96119102804214
 30
0.0
  0
VERTEX
  5
352
330
2FA
100
AcDbEntity
  8
Graypants_Ohio24
 62
    36
420
  8866048
370
    -3
100
AcDbVertex
100
AcDb2dVertex
 10
-1.548152110166616
 20
-12.92180279576216
 30
0.0
  0
VERTEX
  5
353
330
2FA
100
AcDbEntity
  8
Graypants_Ohio24
 62
    36
420
  8866048
370
    -3
100
AcDbVertex
100
AcDb2dVertex
 10
-1.594419442739782
 20
-12.8811656562413
 30
0.0
  0
VERTEX
  5
354
330
2FA
100
AcDbEntity
  8
Graypants_Ohio24
 62
    36
420
  8866048
370
    -3
100
AcDbVertex
100
AcDb2dVertex
 10
-1.63965042489435
 20
-12.83931731723005
 30
0.0
  0
VERTEX
  5
355
330
2FA
100
AcDbEntity
  8
Graypants_Ohio24
 62
    36
420
  8866048
370
    -3
100
AcDbVertex
100
AcDb2dVertex
 10
-1.683798022700103
 20
-12.7962980228283
 30
0.0
  0
VERTEX
  5
356
330
2FA
100
AcDbEntity
  8
Graypants_Ohio24
 62
    36
420
  8866048
370
    -3
100
AcDbVertex
100
AcDb2dVertex
 10
-1.726351757748327
 20
-12.75264068350213
 30
0.0
  0
VERTEX
  5
357
330
2FA
100
AcDbEntity
  8
Graypants_Ohio24
 62
    36
420
  8866048
370
    -3
100
AcDbVertex
100
AcDb2dVertex
 10
-1.767726362174962
 20
-12.70796100641825
 30
0.0
  0
VERTEX
  5
358
330
2FA
100
AcDbEntity
  8
Graypants_Ohio24
 62
    36
420
  8866048
370
    -3
100
AcDbVertex
100
AcDb2dVertex
 10
-1.80790557934255
 20
-12.66228385847769
 30
0.0
  0
VERTEX
  5
359
330
2FA
100
AcDbEntity
  8
Graypants_Ohio24
 62
    36
420
  8866048
370
    -3
100
AcDbVertex
100
AcDb2dVertex
 10
-1.846873152613633
 20
-12.61563410658149
 30
0.0
  0
VERTEX
  5
35A
330
2FA
100
AcDbEntity
  8
Graypants_Ohio24
 62
    36
420
  8866048
370
    -3
100
AcDbVertex
100
AcDb2dVertex
 10
-1.884612825350754
 20
-12.56803661763068
 30
0.0
  0
VERTEX
  5
35B
330
2FA
100
AcDbEntity
  8
Graypants_Ohio24
 62
    36
420
  8866048
370
    -3
100
AcDbVertex
100
AcDb2dVertex
 10
-1.921108340916453
 20
-12.51951625852629
 30
0.0
  0
VERTEX
  5
35C
330
2FA
100
AcDbEntity
  8
Graypants_Ohio24
 62
    36
420
  8866048
370
    -3
100
AcDbVertex
100
AcDb2dVertex
 10
-1.956343442673273
 20
-12.47009789616937
 30
0.0
  0
VERTEX
  5
35D
330
2FA
100
AcDbEntity
  8
Graypants_Ohio24
 62
    36
420
  8866048
370
    -3
100
AcDbVertex
100
AcDb2dVertex
 10
-1.990301873983755
 20
-12.41980639746096
 30
0.0
  0
VERTEX
  5
35E
330
2FA
100
AcDbEntity
  8
Graypants_Ohio24
 62
    36
420
  8866048
370
    -3
100
AcDbVertex
100
AcDb2dVertex
 10
-2.022967378210442
 20
-12.36866662930208
 30
0.0
  0
VERTEX
  5
35F
330
2FA
100
AcDbEntity
  8
Graypants_Ohio24
 62
    36
420
  8866048
370
    -3
100
AcDbVertex
100
AcDb2dVertex
 10
-2.054323698715874
 20
-12.31670345859377
 30
0.0
  0
VERTEX
  5
360
330
2FA
100
AcDbEntity
  8
Graypants_Ohio24
 62
    36
420
  8866048
370
    -3
100
AcDbVertex
100
AcDb2dVertex
 10
-2.084354578862594
 20
-12.26394175223708
 30
0.0
  0
VERTEX
  5
361
330
2FA
100
AcDbEntity
  8
Graypants_Ohio24
 62
    36
420
  8866048
370
    -3
100
AcDbVertex
100
AcDb2dVertex
 10
-2.113043762013144
 20
-12.21040637713303
 30
0.0
  0
VERTEX
  5
362
330
2FA
100
AcDbEntity
  8
Graypants_Ohio24
 62
    36
420
  8866048
370
    -3
100
AcDbVertex
100
AcDb2dVertex
 10
-2.140374991530066
 20
-12.15612220018267
 30
0.0
  0
VERTEX
  5
363
330
2FA
100
AcDbEntity
  8
Graypants_Ohio24
 62
    36
420
  8866048
370
    -3
100
AcDbVertex
100
AcDb2dVertex
 10
-2.1663320107759
 20
-12.10111408828703
 30
0.0
  0
VERTEX
  5
364
330
2FA
100
AcDbEntity
  8
Graypants_Ohio24
 62
    36
420
  8866048
370
    -3
100
AcDbVertex
100
AcDb2dVertex
 10
-2.190898563113191
 20
-12.04540690834714
 30
0.0
  0
VERTEX
  5
365
330
2FA
100
AcDbEntity
  8
Graypants_Ohio24
 62
    36
420
  8866048
370
    -3
100
AcDbVertex
100
AcDb2dVertex
 10
-2.214058391904478
 20
-11.98902552726405
 30
0.0
  0
VERTEX
  5
366
330
2FA
100
AcDbEntity
  8
Graypants_Ohio24
 62
    36
420
  8866048
370
    -3
100
AcDbVertex
100
AcDb2dVertex
 10
-2.234655682281503
 20
-11.93509682658718
 30
0.0
  0
VERTEX
  5
367
330
2FA
100
AcDbEntity
  8
Graypants_Ohio24
 62
    36
420
  8866048
370
    -3
100
AcDbVertex
100
AcDb2dVertex
 10
-2.253934972536947
 20
-11.88069834289128
 30
0.0
  0
VERTEX
  5
368
330
2FA
100
AcDbEntity
  8
Graypants_Ohio24
 62
    36
420
  8866048
370
    -3
100
AcDbVertex
100
AcDb2dVertex
 10
-2.271888462617688
 20
-11.82585431762913
 30
0.0
  0
VERTEX
  5
369
330
2FA
100
AcDbEntity
  8
Graypants_Ohio24
 62
    36
420
  8866048
370
    -3
100
AcDbVertex
100
AcDb2dVertex
 10
-2.288508352470603
 20
-11.7705889922535
 30
0.0
  0
VERTEX
  5
36A
330
2FA
100
AcDbEntity
  8
Graypants_Ohio24
 62
    36
420
  8866048
370
    -3
100
AcDbVertex
100
AcDb2dVertex
 10
-2.303786842042571
 20
-11.71492660821716
 30
0.0
  0
VERTEX
  5
36B
330
2FA
100
AcDbEntity
  8
Graypants_Ohio24
 62
    36
420
  8866048
370
    -3
100
AcDbVertex
100
AcDb2dVertex
 10
-2.31771613128047
 20
-11.65889140697288
 30
0.0
  0
VERTEX
  5
36C
330
2FA
100
AcDbEntity
  8
Graypants_Ohio24
 62
    36
420
  8866048
370
    -3
100
AcDbVertex
100
AcDb2dVertex
 10
-2.330288420131178
 20
-11.60250762997343
 30
0.0
  0
VERTEX
  5
36D
330
2FA
100
AcDbEntity
  8
Graypants_Ohio24
 62
    36
420
  8866048
370
    -3
100
AcDbVertex
100
AcDb2dVertex
 10
-2.341495908541572
 20
-11.54579951867158
 30
0.0
  0
VERTEX
  5
36E
330
2FA
100
AcDbEntity
  8
Graypants_Ohio24
 62
    36
420
  8866048
370
    -3
100
AcDbVertex
100
AcDb2dVertex
 10
-2.353860400291388
 20
-11.4726288360028
 30
0.0
  0
VERTEX
  5
36F
330
2FA
100
AcDbEntity
  8
Graypants_Ohio24
 62
    36
420
  8866048
370
    -3
100
AcDbVertex
100
AcDb2dVertex
 10
-2.363938912477385
 20
-11.39910840992325
 30
0.0
  0
VERTEX
  5
370
330
2FA
100
AcDbEntity
  8
Graypants_Ohio24
 62
    36
420
  8866048
370
    -3
100
AcDbVertex
100
AcDb2dVertex
 10
-2.37158150603117
 20
-11.32686586201501
 30
0.0
  0
VERTEX
  5
371
330
2FA
100
AcDbEntity
  8
Graypants_Ohio24
 62
    36
420
  8866048
370
    -3
100
AcDbVertex
100
AcDb2dVertex
 10
-2.37701686919379
 20
-11.25442380384575
 30
0.0
  0
VERTEX
  5
372
330
2FA
100
AcDbEntity
  8
Graypants_Ohio24
 62
    36
420
  8866048
370
    -3
100
AcDbVertex
100
AcDb2dVertex
 10
-2.380191482030886
 20
-11.18349346013181
 30
0.0
  0
VERTEX
  5
373
330
2FA
100
AcDbEntity
  8
Graypants_Ohio24
 62
    36
420
  8866048
370
    -3
100
AcDbVertex
100
AcDb2dVertex
 10
-2.381249999999569
 20
-11.11250000011091
 30
0.0
  0
SEQEND
  5
374
330
2FA
100
AcDbEntity
  8
Graypants_Ohio24
 62
    36
420
  8866048
370
    -3
  0
CIRCLE
  5
375
330
1F
100
AcDbEntity
  8
Graypants_Ohio24
 62
    36
420
  8866048
370
    -3
100
AcDbCircle
 10
-9.525000000000489
 20
0.0000000000015412
 30
0.0
 40
2.920999999999992
210
0.0
220
0.0
230
-1.0
  0
LINE
  5
376
330
1F
100
AcDbEntity
  8
Graypants_Ohio24
 62
    36
420
  8866048
370
    -3
100
AcDbLine
 10
4.762500000000613
 20
2.921000000001646
 30
0.0
 11
9.525000000000544
 21
2.921000000001419
 31
0.0
  0
LINE
  5
377
330
1F
100
AcDbEntity
  8
Graypants_Ohio24
 62
    36
420
  8866048
370
    -3
100
AcDbLine
 10
9.52500087223666
 20
-2.920999999998452
 30
0.0
 11
4.7625000000005
 21
-2.920999999998452
 31
0.0
  0
LINE
  5
378
330
1F
100
AcDbEntity
  8
Graypants_Ohio24
 62
    36
420
  8866048
370
    -3
100
AcDbLine
 10
-0.7937500000003865
 20
-1.591095235036386
 30
0.0
 11
0.7937495763616198
 21
-1.591095235036158
 31
0.0
  0
ARC
  5
379
330
1F
100
AcDbEntity
  8
Graypants_Ohio24
 62
    36
420
  8866048
370
    -3
100
AcDbCircle
 10
0.7937500000001121
 20
-0.0035952350362092
 30
0.0
 40
1.587500000000005
100
AcDbArc
 50
269.9999847101118
 51
90.0000000000147
  0
LINE
  5
37A
330
1F
100
AcDbEntity
  8
Graypants_Ohio24
 62
    36
420
  8866048
370
    -3
100
AcDbLine
 10
0.7937499999997044
 20
1.583904764963796
 30
0.0
 11
-0.7937495964828258
 21
1.583904764963569
 31
0.0
  0
ARC
  5
37B
330
1F
100
AcDbEntity
  8
Graypants_Ohio24
 62
    36
420
  8866048
370
    -3
100
AcDbCircle
 10
-0.7937500000003817
 20
-0.0035952350363826
 30
0.0
 40
1.587500000000003
100
AcDbArc
 50
89.99998543631312
 51
269.9999999999998
  0
LINE
  5
37C
330
1F
100
AcDbEntity
  8
Graypants_Ohio24
 62
    36
420
  8866048
370
    -3
100
AcDbLine
 10
-0.7937497309886794
 20
0.7901547649637508
 30
0.0
 11
0.7923383320617177
 21
0.7901547649637508
 31
0.0
  0
LINE
  5
37D
330
1F
100
AcDbEntity
  8
Graypants_Ohio24
 62
    36
420
  8866048
370
    -3
100
AcDbLine
 10
0.7937497175743147
 20
-0.7973452350363401
 30
0.0
 11
-0.7937500000003865
 21
-0.7973452350363401
 31
0.0
  0
ARC
  5
37E
330
1F
100
AcDbEntity
  8
Graypants_Ohio24
 62
    36
420
  8866048
370
    -3
100
AcDbCircle
 10
-0.7937500000001523
 20
0.0000000000038541
 30
0.0
 40
0.7937500000000526
210
0.0
220
0.0
230
-1.0
100
AcDbArc
 50
1.016929197863929
 51
359.000019211729
  0
CIRCLE
  5
37F
330
1F
100
AcDbEntity
  8
Graypants_Ohio24
 62
    36
420
  8866048
370
    -3
100
AcDbCircle
 10
0.7937499999998181
 20
0.0000000000014837
 30
0.0
 40
0.7939999999999827
210
0.0
220
0.0
230
-1.0
  0
LINE
  5
380
330
1F
100
AcDbEntity
  8
Graypants_Ohio24
 62
    36
420
  8866048
370
    -3
100
AcDbLine
 10
2.698750000000132
 20
0.7938683991503752
 30
0.0
 11
3.174130253255498
 21
0.7938684138309839
 31
0.0
  0
LINE
  5
381
330
1F
100
AcDbEntity
  8
Graypants_Ohio24
 62
    36
420
  8866048
370
    -3
100
AcDbLine
 10
-2.698750000000132
 20
-0.793868740805459
 30
0.0
 11
-3.174130533244806
 21
-0.7938687261246229
 31
0.0
  0
POLYLINE
  5
382
330
1F
100
AcDbEntity
  8
Graypants_Ohio24
 62
    36
420
  8866048
370
    -3
100
AcDb2dPolyline
 66
     1
 10
0.0
 20
0.0
 30
0.0
  0
VERTEX
  5
383
330
382
100
AcDbEntity
  8
Graypants_Ohio24
 62
    36
420
  8866048
370
    -3
100
AcDbVertex
100
AcDb2dVertex
 10
-3.17417424442624
 20
-0.7938754075184932
 30
0.0
  0
VERTEX
  5
384
330
382
100
AcDbEntity
  8
Graypants_Ohio24
 62
    36
420
  8866048
370
    -3
100
AcDbVertex
100
AcDb2dVertex
 10
-3.174173656807109
 20
-0.7938770766014304
 30
0.0
  0
VERTEX
  5
385
330
382
100
AcDbEntity
  8
Graypants_Ohio24
 62
    36
420
  8866048
370
    -3
100
AcDbVertex
100
AcDb2dVertex
 10
-3.174171914786825
 20
-0.793878922066595
 30
0.0
  0
VERTEX
  5
386
330
382
100
AcDbEntity
  8
Graypants_Ohio24
 62
    36
420
  8866048
370
    -3
100
AcDbVertex
100
AcDb2dVertex
 10
-3.174169049454478
 20
-0.7938809411630252
 30
0.0
  0
VERTEX
  5
387
330
382
100
AcDbEntity
  8
Graypants_Ohio24
 62
    36
420
  8866048
370
    -3
100
AcDbVertex
100
AcDb2dVertex
 10
-3.174165091899157
 20
-0.7938831311397588
 30
0.0
  0
VERTEX
  5
388
330
382
100
AcDbEntity
  8
Graypants_Ohio24
 62
    36
420
  8866048
370
    -3
100
AcDbVertex
100
AcDb2dVertex
 10
-3.174160073209952
 20
-0.7938854892458339
 30
0.0
  0
VERTEX
  5
389
330
382
100
AcDbEntity
  8
Graypants_Ohio24
 62
    36
420
  8866048
370
    -3
100
AcDbVertex
100
AcDb2dVertex
 10
-3.174154024475951
 20
-0.7938880127302885
 30
0.0
  0
VERTEX
  5
38A
330
382
100
AcDbEntity
  8
Graypants_Ohio24
 62
    36
420
  8866048
370
    -3
100
AcDbVertex
100
AcDb2dVertex
 10
-3.174146976786245
 20
-0.7938906988421608
 30
0.0
  0
VERTEX
  5
38B
330
382
100
AcDbEntity
  8
Graypants_Ohio24
 62
    36
420
  8866048
370
    -3
100
AcDbVertex
100
AcDb2dVertex
 10
-3.174138961229922
 20
-0.7938935448304887
 30
0.0
  0
VERTEX
  5
38C
330
382
100
AcDbEntity
  8
Graypants_Ohio24
 62
    36
420
  8866048
370
    -3
100
AcDbVertex
100
AcDb2dVertex
 10
-3.174120150873787
 20
-0.7938997054326635
 30
0.0
  0
VERTEX
  5
38D
330
382
100
AcDbEntity
  8
Graypants_Ohio24
 62
    36
420
  8866048
370
    -3
100
AcDbVertex
100
AcDb2dVertex
 10
-3.174097842120258
 20
-0.7939064725291174
 30
0.0
  0
VERTEX
  5
38E
330
382
100
AcDbEntity
  8
Graypants_Ohio24
 62
    36
420
  8866048
370
    -3
100
AcDbVertex
100
AcDb2dVertex
 10
-3.173557466965241
 20
-0.7940525694691922
 30
0.0
  0
VERTEX
  5
38F
330
382
100
AcDbEntity
  8
Graypants_Ohio24
 62
    36
420
  8866048
370
    -3
100
AcDbVertex
100
AcDb2dVertex
 10
-3.173468069594138
 20
-0.7940792710146577
 30
0.0
  0
VERTEX
  5
390
330
382
100
AcDbEntity
  8
Graypants_Ohio24
 62
    36
420
  8866048
370
    -3
100
AcDbVertex
100
AcDb2dVertex
 10
-3.173381591098104
 20
-0.7941069020139336
 30
0.0
  0
VERTEX
  5
391
330
382
100
AcDbEntity
  8
Graypants_Ohio24
 62
    36
420
  8866048
370
    -3
100
AcDbVertex
100
AcDb2dVertex
 10
-3.173300021178862
 20
-0.7941352864054546
 30
0.0
  0
VERTEX
  5
392
330
382
100
AcDbEntity
  8
Graypants_Ohio24
 62
    36
420
  8866048
370
    -3
100
AcDbVertex
100
AcDb2dVertex
 10
-3.173261698717327
 20
-0.7941497061040679
 30
0.0
  0
VERTEX
  5
393
330
382
100
AcDbEntity
  8
Graypants_Ohio24
 62
    36
420
  8866048
370
    -3
100
AcDbVertex
100
AcDb2dVertex
 10
-3.173225349538135
 20
-0.7941642481276553
 30
0.0
  0
VERTEX
  5
394
330
382
100
AcDbEntity
  8
Graypants_Ohio24
 62
    36
420
  8866048
370
    -3
100
AcDbVertex
100
AcDb2dVertex
 10
-3.173191222354003
 20
-0.7941788904685213
 30
0.0
  0
VERTEX
  5
395
330
382
100
AcDbEntity
  8
Graypants_Ohio24
 62
    36
420
  8866048
370
    -3
100
AcDbVertex
100
AcDb2dVertex
 10
-3.173159565877644
 20
-0.7941936111189702
 30
0.0
  0
VERTEX
  5
396
330
382
100
AcDbEntity
  8
Graypants_Ohio24
 62
    36
420
  8866048
370
    -3
100
AcDbVertex
100
AcDb2dVertex
 10
-3.173144741877604
 20
-0.7942009939328835
 30
0.0
  0
VERTEX
  5
397
330
382
100
AcDbEntity
  8
Graypants_Ohio24
 62
    36
420
  8866048
370
    -3
100
AcDbVertex
100
AcDb2dVertex
 10
-3.173130628821776
 20
-0.7942083880713064
 30
0.0
  0
VERTEX
  5
398
330
382
100
AcDbEntity
  8
Graypants_Ohio24
 62
    36
420
  8866048
370
    -3
100
AcDbVertex
100
AcDb2dVertex
 10
-3.173117257799249
 20
-0.7942157907832774
 30
0.0
  0
VERTEX
  5
399
330
382
100
AcDbEntity
  8
Graypants_Ohio24
 62
    36
420
  8866048
370
    -3
100
AcDbVertex
100
AcDb2dVertex
 10
-3.173104659899112
 20
-0.7942231993178342
 30
0.0
  0
VERTEX
  5
39A
330
382
100
AcDbEntity
  8
Graypants_Ohio24
 62
    36
420
  8866048
370
    -3
100
AcDbVertex
100
AcDb2dVertex
 10
-3.173092866210455
 20
-0.794230610924015
 30
0.0
  0
VERTEX
  5
39B
330
382
100
AcDbEntity
  8
Graypants_Ohio24
 62
    36
420
  8866048
370
    -3
100
AcDbVertex
100
AcDb2dVertex
 10
-3.173081907822368
 20
-0.7942380228508579
 30
0.0
  0
VERTEX
  5
39C
330
382
100
AcDbEntity
  8
Graypants_Ohio24
 62
    36
420
  8866048
370
    -3
100
AcDbVertex
100
AcDb2dVertex
 10
-3.173071815823939
 20
-0.7942454323474007
 30
0.0
  0
VERTEX
  5
39D
330
382
100
AcDbEntity
  8
Graypants_Ohio24
 62
    36
420
  8866048
370
    -3
100
AcDbVertex
100
AcDb2dVertex
 10
-3.173062621304259
 20
-0.7942528366626818
 30
0.0
  0
VERTEX
  5
39E
330
382
100
AcDbEntity
  8
Graypants_Ohio24
 62
    36
420
  8866048
370
    -3
100
AcDbVertex
100
AcDb2dVertex
 10
-3.173054355352417
 20
-0.7942602330457389
 30
0.0
  0
VERTEX
  5
39F
330
382
100
AcDbEntity
  8
Graypants_Ohio24
 62
    36
420
  8866048
370
    -3
100
AcDbVertex
100
AcDb2dVertex
 10
-3.173047049057502
 20
-0.7942676187456101
 30
0.0
  0
VERTEX
  5
3A0
330
382
100
AcDbEntity
  8
Graypants_Ohio24
 62
    36
420
  8866048
370
    -3
100
AcDbVertex
100
AcDb2dVertex
 10
-3.173040733508603
 20
-0.7942749910113338
 30
0.0
  0
VERTEX
  5
3A1
330
382
100
AcDbEntity
  8
Graypants_Ohio24
 62
    36
420
  8866048
370
    -3
100
AcDbVertex
100
AcDb2dVertex
 10
-3.17303543979481
 20
-0.7942823470919476
 30
0.0
  0
VERTEX
  5
3A2
330
382
100
AcDbEntity
  8
Graypants_Ohio24
 62
    36
420
  8866048
370
    -3
100
AcDbVertex
100
AcDb2dVertex
 10
-3.173031199005212
 20
-0.7942896842364897
 30
0.0
  0
VERTEX
  5
3A3
330
382
100
AcDbEntity
  8
Graypants_Ohio24
 62
    36
420
  8866048
370
    -3
100
AcDbVertex
100
AcDb2dVertex
 10
-3.1730280422289
 20
-0.7942969996939981
 30
0.0
  0
VERTEX
  5
3A4
330
382
100
AcDbEntity
  8
Graypants_Ohio24
 62
    36
420
  8866048
370
    -3
100
AcDbVertex
100
AcDb2dVertex
 10
-3.173026000554961
 20
-0.7943042907135109
 30
0.0
  0
VERTEX
  5
3A5
330
382
100
AcDbEntity
  8
Graypants_Ohio24
 62
    36
420
  8866048
370
    -3
100
AcDbVertex
100
AcDb2dVertex
 10
-3.173025105072486
 20
-0.7943115545440662
 30
0.0
  0
VERTEX
  5
3A6
330
382
100
AcDbEntity
  8
Graypants_Ohio24
 62
    36
420
  8866048
370
    -3
100
AcDbVertex
100
AcDb2dVertex
 10
-3.173025386870564
 20
-0.7943187884347019
 30
0.0
  0
VERTEX
  5
3A7
330
382
100
AcDbEntity
  8
Graypants_Ohio24
 62
    36
420
  8866048
370
    -3
100
AcDbVertex
100
AcDb2dVertex
 10
-3.173026877038284
 20
-0.7943259896344562
 30
0.0
  0
VERTEX
  5
3A8
330
382
100
AcDbEntity
  8
Graypants_Ohio24
 62
    36
420
  8866048
370
    -3
100
AcDbVertex
100
AcDb2dVertex
 10
-3.173029606664736
 20
-0.794333155392367
 30
0.0
  0
VERTEX
  5
3A9
330
382
100
AcDbEntity
  8
Graypants_Ohio24
 62
    36
420
  8866048
370
    -3
100
AcDbVertex
100
AcDb2dVertex
 10
-3.173033606839009
 20
-0.7943402829574724
 30
0.0
  0
VERTEX
  5
3AA
330
382
100
AcDbEntity
  8
Graypants_Ohio24
 62
    36
420
  8866048
370
    -3
100
AcDbVertex
100
AcDb2dVertex
 10
-3.173038908650192
 20
-0.7943473695788104
 30
0.0
  0
VERTEX
  5
3AB
330
382
100
AcDbEntity
  8
Graypants_Ohio24
 62
    36
420
  8866048
370
    -3
100
AcDbVertex
100
AcDb2dVertex
 10
-3.173045543187376
 20
-0.794354412505419
 30
0.0
  0
VERTEX
  5
3AC
330
382
100
AcDbEntity
  8
Graypants_Ohio24
 62
    36
420
  8866048
370
    -3
100
AcDbVertex
100
AcDb2dVertex
 10
-3.173053541539649
 20
-0.7943614089863364
 30
0.0
  0
VERTEX
  5
3AD
330
382
100
AcDbEntity
  8
Graypants_Ohio24
 62
    36
420
  8866048
370
    -3
100
AcDbVertex
100
AcDb2dVertex
 10
-3.173062934796101
 20
-0.7943683562706007
 30
0.0
  0
VERTEX
  5
3AE
330
382
100
AcDbEntity
  8
Graypants_Ohio24
 62
    36
420
  8866048
370
    -3
100
AcDbVertex
100
AcDb2dVertex
 10
-3.173073754045821
 20
-0.7943752516072496
 30
0.0
  0
VERTEX
  5
3AF
330
382
100
AcDbEntity
  8
Graypants_Ohio24
 62
    36
420
  8866048
370
    -3
100
AcDbVertex
100
AcDb2dVertex
 10
-3.173086030377898
 20
-0.7943820922453214
 30
0.0
  0
VERTEX
  5
3B0
330
382
100
AcDbEntity
  8
Graypants_Ohio24
 62
    36
420
  8866048
370
    -3
100
AcDbVertex
100
AcDb2dVertex
 10
-3.173099794881423
 20
-0.7943888754338541
 30
0.0
  0
VERTEX
  5
3B1
330
382
100
AcDbEntity
  8
Graypants_Ohio24
 62
    36
420
  8866048
370
    -3
100
AcDbVertex
100
AcDb2dVertex
 10
-3.173115078645484
 20
-0.7943955984218857
 30
0.0
  0
VERTEX
  5
3B2
330
382
100
AcDbEntity
  8
Graypants_Ohio24
 62
    36
420
  8866048
370
    -3
100
AcDbVertex
100
AcDb2dVertex
 10
-3.173131912759171
 20
-0.7944022584584542
 30
0.0
  0
VERTEX
  5
3B3
330
382
100
AcDbEntity
  8
Graypants_Ohio24
 62
    36
420
  8866048
370
    -3
100
AcDbVertex
100
AcDb2dVertex
 10
-3.173150328311573
 20
-0.7944088527925978
 30
0.0
  0
VERTEX
  5
3B4
330
382
100
AcDbEntity
  8
Graypants_Ohio24
 62
    36
420
  8866048
370
    -3
100
AcDbVertex
100
AcDb2dVertex
 10
-3.17317035639178
 20
-0.7944153786733543
 30
0.0
  0
VERTEX
  5
3B5
330
382
100
AcDbEntity
  8
Graypants_Ohio24
 62
    36
420
  8866048
370
    -3
100
AcDbVertex
100
AcDb2dVertex
 10
-3.173192028088881
 20
-0.794421833349762
 30
0.0
  0
VERTEX
  5
3B6
330
382
100
AcDbEntity
  8
Graypants_Ohio24
 62
    36
420
  8866048
370
    -3
100
AcDbVertex
100
AcDb2dVertex
 10
-3.173215374491965
 20
-0.7944282140708588
 30
0.0
  0
VERTEX
  5
3B7
330
382
100
AcDbEntity
  8
Graypants_Ohio24
 62
    36
420
  8866048
370
    -3
100
AcDbVertex
100
AcDb2dVertex
 10
-3.173240426690123
 20
-0.7944345180856829
 30
0.0
  0
VERTEX
  5
3B8
330
382
100
AcDbEntity
  8
Graypants_Ohio24
 62
    36
420
  8866048
370
    -3
100
AcDbVertex
100
AcDb2dVertex
 10
-3.173295772828014
 20
-0.7944468849926645
 30
0.0
  0
VERTEX
  5
3B9
330
382
100
AcDbEntity
  8
Graypants_Ohio24
 62
    36
420
  8866048
370
    -3
100
AcDbVertex
100
AcDb2dVertex
 10
-3.17335831521527
 20
-0.7944589120630112
 30
0.0
  0
VERTEX
  5
3BA
330
382
100
AcDbEntity
  8
Graypants_Ohio24
 62
    36
420
  8866048
370
    -3
100
AcDbVertex
100
AcDb2dVertex
 10
-3.173428302564605
 20
-0.7944705772890276
 30
0.0
  0
VERTEX
  5
3BB
330
382
100
AcDbEntity
  8
Graypants_Ohio24
 62
    36
420
  8866048
370
    -3
100
AcDbVertex
100
AcDb2dVertex
 10
-3.173505983588735
 20
-0.7944818586630177
 30
0.0
  0
VERTEX
  5
3BC
330
382
100
AcDbEntity
  8
Graypants_Ohio24
 62
    36
420
  8866048
370
    -3
100
AcDbVertex
100
AcDb2dVertex
 10
-3.173591607000375
 20
-0.7944927341772858
 30
0.0
  0
VERTEX
  5
3BD
330
382
100
AcDbEntity
  8
Graypants_Ohio24
 62
    36
420
  8866048
370
    -3
100
AcDbVertex
100
AcDb2dVertex
 10
-3.173787675837048
 20
-0.794513179595874
 30
0.0
  0
VERTEX
  5
3BE
330
382
100
AcDbEntity
  8
Graypants_Ohio24
 62
    36
420
  8866048
370
    -3
100
AcDbVertex
100
AcDb2dVertex
 10
-3.174018498776345
 20
-0.7945317374832267
 30
0.0
  0
VERTEX
  5
3BF
330
382
100
AcDbEntity
  8
Graypants_Ohio24
 62
    36
420
  8866048
370
    -3
100
AcDbVertex
100
AcDb2dVertex
 10
-3.1745923657697
 20
-0.7945624864179641
 30
0.0
  0
VERTEX
  5
3C0
330
382
100
AcDbEntity
  8
Graypants_Ohio24
 62
    36
420
  8866048
370
    -3
100
AcDbVertex
100
AcDb2dVertex
 10
-3.175329125594219
 20
-0.7945835724889754
 30
0.0
  0
VERTEX
  5
3C1
330
382
100
AcDbEntity
  8
Graypants_Ohio24
 62
    36
420
  8866048
370
    -3
100
AcDbVertex
100
AcDb2dVertex
 10
-3.177354994191855
 20
-0.7945911220697268
 30
0.0
  0
VERTEX
  5
3C2
330
382
100
AcDbEntity
  8
Graypants_Ohio24
 62
    36
420
  8866048
370
    -3
100
AcDbVertex
100
AcDb2dVertex
 10
-3.180223445479471
 20
-0.7945431182852974
 30
0.0
  0
VERTEX
  5
3C3
330
382
100
AcDbEntity
  8
Graypants_Ohio24
 62
    36
420
  8866048
370
    -3
100
AcDbVertex
100
AcDb2dVertex
 10
-3.188997459765515
 20
-0.7942353788601615
 30
0.0
  0
VERTEX
  5
3C4
330
382
100
AcDbEntity
  8
Graypants_Ohio24
 62
    36
420
  8866048
370
    -3
100
AcDbVertex
100
AcDb2dVertex
 10
-3.22225948066695
 20
-0.7924574702596375
 30
0.0
  0
VERTEX
  5
3C5
330
382
100
AcDbEntity
  8
Graypants_Ohio24
 62
    36
420
  8866048
370
    -3
100
AcDbVertex
100
AcDb2dVertex
 10
-3.246672138163609
 20
-0.7906216754794371
 30
0.0
  0
VERTEX
  5
3C6
330
382
100
AcDbEntity
  8
Graypants_Ohio24
 62
    36
420
  8866048
370
    -3
100
AcDbVertex
100
AcDb2dVertex
 10
-3.271010926914687
 20
-0.7880346609383346
 30
0.0
  0
VERTEX
  5
3C7
330
382
100
AcDbEntity
  8
Graypants_Ohio24
 62
    36
420
  8866048
370
    -3
100
AcDbVertex
100
AcDb2dVertex
 10
-3.295258515478975
 20
-0.7846985282504377
 30
0.0
  0
VERTEX
  5
3C8
330
382
100
AcDbEntity
  8
Graypants_Ohio24
 62
    36
420
  8866048
370
    -3
100
AcDbVertex
100
AcDb2dVertex
 10
-3.319397572415261
 20
-0.7806153790298548
 30
0.0
  0
VERTEX
  5
3C9
330
382
100
AcDbEntity
  8
Graypants_Ohio24
 62
    36
420
  8866048
370
    -3
100
AcDbVertex
100
AcDb2dVertex
 10
-3.338302792739241
 20
-0.7768789876250174
 30
0.0
  0
VERTEX
  5
3CA
330
382
100
AcDbEntity
  8
Graypants_Ohio24
 62
    36
420
  8866048
370
    -3
100
AcDbVertex
100
AcDb2dVertex
 10
-3.357099882856919
 20
-0.7726875949834584
 30
0.0
  0
VERTEX
  5
3CB
330
382
100
AcDbEntity
  8
Graypants_Ohio24
 62
    36
420
  8866048
370
    -3
100
AcDbVertex
100
AcDb2dVertex
 10
-3.375780761305833
 20
-0.768043801816696
 30
0.0
  0
VERTEX
  5
3CC
330
382
100
AcDbEntity
  8
Graypants_Ohio24
 62
    36
420
  8866048
370
    -3
100
AcDbVertex
100
AcDb2dVertex
 10
-3.39433734662352
 20
-0.7629502088362485
 30
0.0
  0
VERTEX
  5
3CD
330
382
100
AcDbEntity
  8
Graypants_Ohio24
 62
    36
420
  8866048
370
    -3
100
AcDbVertex
100
AcDb2dVertex
 10
-3.412761557347517
 20
-0.7574094167536343
 30
0.0
  0
VERTEX
  5
3CE
330
382
100
AcDbEntity
  8
Graypants_Ohio24
 62
    36
420
  8866048
370
    -3
100
AcDbVertex
100
AcDb2dVertex
 10
-3.431045312015359
 20
-0.7514240262803713
 30
0.0
  0
VERTEX
  5
3CF
330
382
100
AcDbEntity
  8
Graypants_Ohio24
 62
    36
420
  8866048
370
    -3
100
AcDbVertex
100
AcDb2dVertex
 10
-3.449180529164586
 20
-0.744996638127978
 30
0.0
  0
VERTEX
  5
3D0
330
382
100
AcDbEntity
  8
Graypants_Ohio24
 62
    36
420
  8866048
370
    -3
100
AcDbVertex
100
AcDb2dVertex
 10
-3.467159127332734
 20
-0.7381298530079725
 30
0.0
  0
VERTEX
  5
3D1
330
382
100
AcDbEntity
  8
Graypants_Ohio24
 62
    36
420
  8866048
370
    -3
100
AcDbVertex
100
AcDb2dVertex
 10
-3.485955463561576
 20
-0.7304087318301219
 30
0.0
  0
VERTEX
  5
3D2
330
382
100
AcDbEntity
  8
Graypants_Ohio24
 62
    36
420
  8866048
370
    -3
100
AcDbVertex
100
AcDb2dVertex
 10
-3.504527027381048
 20
-0.7222186334129448
 30
0.0
  0
VERTEX
  5
3D3
330
382
100
AcDbEntity
  8
Graypants_Ohio24
 62
    36
420
  8866048
370
    -3
100
AcDbVertex
100
AcDb2dVertex
 10
-3.522865529063604
 20
-0.7135649779587946
 30
0.0
  0
VERTEX
  5
3D4
330
382
100
AcDbEntity
  8
Graypants_Ohio24
 62
    36
420
  8866048
370
    -3
100
AcDbVertex
100
AcDb2dVertex
 10
-3.540962678881695
 20
-0.7044531856700241
 30
0.0
  0
VERTEX
  5
3D5
330
382
100
AcDbEntity
  8
Graypants_Ohio24
 62
    36
420
  8866048
370
    -3
100
AcDbVertex
100
AcDb2dVertex
 10
-3.558810187107775
 20
-0.6948886767489867
 30
0.0
  0
VERTEX
  5
3D6
330
382
100
AcDbEntity
  8
Graypants_Ohio24
 62
    36
420
  8866048
370
    -3
100
AcDbVertex
100
AcDb2dVertex
 10
-3.576399764014297
 20
-0.6848768713980355
 30
0.0
  0
VERTEX
  5
3D7
330
382
100
AcDbEntity
  8
Graypants_Ohio24
 62
    36
420
  8866048
370
    -3
100
AcDbVertex
100
AcDb2dVertex
 10
-3.593723119873713
 20
-0.6744231898195235
 30
0.0
  0
VERTEX
  5
3D8
330
382
100
AcDbEntity
  8
Graypants_Ohio24
 62
    36
420
  8866048
370
    -3
100
AcDbVertex
100
AcDb2dVertex
 10
-3.610771964958477
 20
-0.663533052215804
 30
0.0
  0
VERTEX
  5
3D9
330
382
100
AcDbEntity
  8
Graypants_Ohio24
 62
    36
420
  8866048
370
    -3
100
AcDbVertex
100
AcDb2dVertex
 10
-3.627538009541041
 20
-0.6522118787892301
 30
0.0
  0
VERTEX
  5
3DA
330
382
100
AcDbEntity
  8
Graypants_Ohio24
 62
    36
420
  8866048
370
    -3
100
AcDbVertex
100
AcDb2dVertex
 10
-3.644012963893859
 20
-0.6404650897421549
 30
0.0
  0
VERTEX
  5
3DB
330
382
100
AcDbEntity
  8
Graypants_Ohio24
 62
    36
420
  8866048
370
    -3
100
AcDbVertex
100
AcDb2dVertex
 10
-3.660188538289382
 20
-0.6282981052769314
 30
0.0
  0
VERTEX
  5
3DC
330
382
100
AcDbEntity
  8
Graypants_Ohio24
 62
    36
420
  8866048
370
    -3
100
AcDbVertex
100
AcDb2dVertex
 10
-3.676056443000065
 20
-0.6157163455959129
 30
0.0
  0
VERTEX
  5
3DD
330
382
100
AcDbEntity
  8
Graypants_Ohio24
 62
    36
420
  8866048
370
    -3
100
AcDbVertex
100
AcDb2dVertex
 10
-3.691608388298359
 20
-0.6027252309014526
 30
0.0
  0
VERTEX
  5
3DE
330
382
100
AcDbEntity
  8
Graypants_Ohio24
 62
    36
420
  8866048
370
    -3
100
AcDbVertex
100
AcDb2dVertex
 10
-3.706836084456718
 20
-0.5893301813959033
 30
0.0
  0
VERTEX
  5
3DF
330
382
100
AcDbEntity
  8
Graypants_Ohio24
 62
    36
420
  8866048
370
    -3
100
AcDbVertex
100
AcDb2dVertex
 10
-3.721731241747595
 20
-0.5755366172816184
 30
0.0
  0
VERTEX
  5
3E0
330
382
100
AcDbEntity
  8
Graypants_Ohio24
 62
    36
420
  8866048
370
    -3
100
AcDbVertex
100
AcDb2dVertex
 10
-3.736285570443442
 20
-0.561349958760951
 30
0.0
  0
VERTEX
  5
3E1
330
382
100
AcDbEntity
  8
Graypants_Ohio24
 62
    36
420
  8866048
370
    -3
100
AcDbVertex
100
AcDb2dVertex
 10
-3.750627232956534
 20
-0.5466318917044521
 30
0.0
  0
VERTEX
  5
3E2
330
382
100
AcDbEntity
  8
Graypants_Ohio24
 62
    36
420
  8866048
370
    -3
100
AcDbVertex
100
AcDb2dVertex
 10
-3.764578525351703
 20
-0.5315526425160504
 30
0.0
  0
VERTEX
  5
3E3
330
382
100
AcDbEntity
  8
Graypants_Ohio24
 62
    36
420
  8866048
370
    -3
100
AcDbVertex
100
AcDb2dVertex
 10
-3.778126031153699
 20
-0.5161278915175138
 30
0.0
  0
VERTEX
  5
3E4
330
382
100
AcDbEntity
  8
Graypants_Ohio24
 62
    36
420
  8866048
370
    -3
100
AcDbVertex
100
AcDb2dVertex
 10
-3.791257179448952
 20
-0.5003739699221879
 30
0.0
  0
VERTEX
  5
3E5
330
382
100
AcDbEntity
  8
Graypants_Ohio24
 62
    36
420
  8866048
370
    -3
100
AcDbVertex
100
AcDb2dVertex
 10
-3.803960283308303
 20
-0.4843078026217721
 30
0.0
  0
VERTEX
  5
3E6
330
382
100
AcDbEntity
  8
Graypants_Ohio24
 62
    36
420
  8866048
370
    -3
100
AcDbVertex
100
AcDb2dVertex
 10
-3.816224573562587
 20
-0.4679468483498662
 30
0.0
  0
VERTEX
  5
3E7
330
382
100
AcDbEntity
  8
Graypants_Ohio24
 62
    36
420
  8866048
370
    -3
100
AcDbVertex
100
AcDb2dVertex
 10
-3.828040227733205
 20
-0.4513090376612999
 30
0.0
  0
VERTEX
  5
3E8
330
382
100
AcDbEntity
  8
Graypants_Ohio24
 62
    36
420
  8866048
370
    -3
100
AcDbVertex
100
AcDb2dVertex
 10
-3.839398393966837
 20
-0.4344127091818779
 30
0.0
  0
VERTEX
  5
3E9
330
382
100
AcDbEntity
  8
Graypants_Ohio24
 62
    36
420
  8866048
370
    -3
100
AcDbVertex
100
AcDb2dVertex
 10
-3.85029120987172
 20
-0.4172765445931688
 30
0.0
  0
VERTEX
  5
3EA
330
382
100
AcDbEntity
  8
Graypants_Ohio24
 62
    36
420
  8866048
370
    -3
100
AcDbVertex
100
AcDb2dVertex
 10
-3.860711816201546
 20
-0.3999195028212887
 30
0.0
  0
VERTEX
  5
3EB
330
382
100
AcDbEntity
  8
Graypants_Ohio24
 62
    36
420
  8866048
370
    -3
100
AcDbVertex
100
AcDb2dVertex
 10
-3.870654365381492
 20
-0.3823607538973314
 30
0.0
  0
VERTEX
  5
3EC
330
382
100
AcDbEntity
  8
Graypants_Ohio24
 62
    36
420
  8866048
370
    -3
100
AcDbVertex
100
AcDb2dVertex
 10
-3.880114024918171
 20
-0.3646196129503041
 30
0.0
  0
VERTEX
  5
3ED
330
382
100
AcDbEntity
  8
Graypants_Ohio24
 62
    36
420
  8866048
370
    -3
100
AcDbVertex
100
AcDb2dVertex
 10
-3.889086975781061
 20
-0.3467154747814115
 30
0.0
  0
VERTEX
  5
3EE
330
382
100
AcDbEntity
  8
Graypants_Ohio24
 62
    36
420
  8866048
370
    -3
100
AcDbVertex
100
AcDb2dVertex
 10
-3.897570405886341
 20
-0.3286677494515963
 30
0.0
  0
VERTEX
  5
3EF
330
382
100
AcDbEntity
  8
Graypants_Ohio24
 62
    36
420
  8866048
370
    -3
100
AcDbVertex
100
AcDb2dVertex
 10
-3.905562498854664
 20
-0.3104957992928104
 30
0.0
  0
VERTEX
  5
3F0
330
382
100
AcDbEntity
  8
Graypants_Ohio24
 62
    36
420
  8866048
370
    -3
100
AcDbVertex
100
AcDb2dVertex
 10
-3.913062418251563
 20
-0.2922188777280184
 30
0.0
  0
VERTEX
  5
3F1
330
382
100
AcDbEntity
  8
Graypants_Ohio24
 62
    36
420
  8866048
370
    -3
100
AcDbVertex
100
AcDb2dVertex
 10
-3.920070287552754
 20
-0.2738560702559508
 30
0.0
  0
VERTEX
  5
3F2
330
382
100
AcDbEntity
  8
Graypants_Ohio24
 62
    36
420
  8866048
370
    -3
100
AcDbVertex
100
AcDb2dVertex
 10
-3.926587166105968
 20
-0.2554262379246848
 30
0.0
  0
VERTEX
  5
3F3
330
382
100
AcDbEntity
  8
Graypants_Ohio24
 62
    36
420
  8866048
370
    -3
100
AcDbVertex
100
AcDb2dVertex
 10
-3.932615021386087
 20
-0.2369479635838207
 30
0.0
  0
VERTEX
  5
3F4
330
382
100
AcDbEntity
  8
Graypants_Ohio24
 62
    36
420
  8866048
370
    -3
100
AcDbVertex
100
AcDb2dVertex
 10
-3.93815669786102
 20
-0.2184395011689405
 30
0.0
  0
VERTEX
  5
3F5
330
382
100
AcDbEntity
  8
Graypants_Ohio24
 62
    36
420
  8866048
370
    -3
100
AcDbVertex
100
AcDb2dVertex
 10
-3.943215882801885
 20
-0.1999187282347747
 30
0.0
  0
VERTEX
  5
3F6
330
382
100
AcDbEntity
  8
Graypants_Ohio24
 62
    36
420
  8866048
370
    -3
100
AcDbVertex
100
AcDb2dVertex
 10
-3.947797069382731
 20
-0.181403101915648
 30
0.0
  0
VERTEX
  5
3F7
330
382
100
AcDbEntity
  8
Graypants_Ohio24
 62
    36
420
  8866048
370
    -3
100
AcDbVertex
100
AcDb2dVertex
 10
-3.951905517422197
 20
-0.1629096184538799
 30
0.0
  0
VERTEX
  5
3F8
330
382
100
AcDbEntity
  8
Graypants_Ohio24
 62
    36
420
  8866048
370
    -3
100
AcDbVertex
100
AcDb2dVertex
 10
-3.955547212122479
 20
-0.1444547763994055
 30
0.0
  0
VERTEX
  5
3F9
330
382
100
AcDbEntity
  8
Graypants_Ohio24
 62
    36
420
  8866048
370
    -3
100
AcDbVertex
100
AcDb2dVertex
 10
-3.958728821159873
 20
-0.1260545435474395
 30
0.0
  0
VERTEX
  5
3FA
330
382
100
AcDbEntity
  8
Graypants_Ohio24
 62
    36
420
  8866048
370
    -3
100
AcDbVertex
100
AcDb2dVertex
 10
-3.96145765047627
 20
-0.107724327645959
 30
0.0
  0
VERTEX
  5
3FB
330
382
100
AcDbEntity
  8
Graypants_Ohio24
 62
    36
420
  8866048
370
    -3
100
AcDbVertex
100
AcDb2dVertex
 10
-3.963741599112682
 20
-0.0894789508715152
 30
0.0
  0
VERTEX
  5
3FC
330
382
100
AcDbEntity
  8
Graypants_Ohio24
 62
    36
420
  8866048
370
    -3
100
AcDbVertex
100
AcDb2dVertex
 10
-3.965589113414369
 20
-0.0713326280407145
 30
0.0
  0
VERTEX
  5
3FD
330
382
100
AcDbEntity
  8
Graypants_Ohio24
 62
    36
420
  8866048
370
    -3
100
AcDbVertex
100
AcDb2dVertex
 10
-3.967009140923006
 20
-0.0532989484959086
 30
0.0
  0
VERTEX
  5
3FE
330
382
100
AcDbEntity
  8
Graypants_Ohio24
 62
    36
420
  8866048
370
    -3
100
AcDbVertex
100
AcDb2dVertex
 10
-3.96801108425473
 20
-0.0353908615773933
 30
0.0
  0
VERTEX
  5
3FF
330
382
100
AcDbEntity
  8
Graypants_Ohio24
 62
    36
420
  8866048
370
    -3
100
AcDbVertex
100
AcDb2dVertex
 10
-3.968604755244406
 20
-0.0176206655709047
 30
0.0
  0
VERTEX
  5
400
330
382
100
AcDbEntity
  8
Graypants_Ohio24
 62
    36
420
  8866048
370
    -3
100
AcDbVertex
100
AcDb2dVertex
 10
-3.968800329616367
 20
0.00000000000151
 30
0.0
  0
VERTEX
  5
401
330
382
100
AcDbEntity
  8
Graypants_Ohio24
 62
    36
420
  8866048
370
    -3
100
AcDbVertex
100
AcDb2dVertex
 10
-3.968604755244406
 20
0.0176206655739163
 30
0.0
  0
VERTEX
  5
402
330
382
100
AcDbEntity
  8
Graypants_Ohio24
 62
    36
420
  8866048
370
    -3
100
AcDbVertex
100
AcDb2dVertex
 10
-3.96801108425473
 20
0.035390861580397
 30
0.0
  0
VERTEX
  5
403
330
382
100
AcDbEntity
  8
Graypants_Ohio24
 62
    36
420
  8866048
370
    -3
100
AcDbVertex
100
AcDb2dVertex
 10
-3.967009140923006
 20
0.0532989484989053
 30
0.0
  0
VERTEX
  5
404
330
382
100
AcDbEntity
  8
Graypants_Ohio24
 62
    36
420
  8866048
370
    -3
100
AcDbVertex
100
AcDb2dVertex
 10
-3.965589113414369
 20
0.0713326280437049
 30
0.0
  0
VERTEX
  5
405
330
382
100
AcDbEntity
  8
Graypants_Ohio24
 62
    36
420
  8866048
370
    -3
100
AcDbVertex
100
AcDb2dVertex
 10
-3.963741599112682
 20
0.0894789508744999
 30
0.0
  0
VERTEX
  5
406
330
382
100
AcDbEntity
  8
Graypants_Ohio24
 62
    36
420
  8866048
370
    -3
100
AcDbVertex
100
AcDb2dVertex
 10
-3.96145765047627
 20
0.1077243276489391
 30
0.0
  0
VERTEX
  5
407
330
382
100
AcDbEntity
  8
Graypants_Ohio24
 62
    36
420
  8866048
370
    -3
100
AcDbVertex
100
AcDb2dVertex
 10
-3.958728821159873
 20
0.1260545435504157
 30
0.0
  0
VERTEX
  5
408
330
382
100
AcDbEntity
  8
Graypants_Ohio24
 62
    36
420
  8866048
370
    -3
100
AcDbVertex
100
AcDb2dVertex
 10
-3.955547212122479
 20
0.1444547764023786
 30
0.0
  0
VERTEX
  5
409
330
382
100
AcDbEntity
  8
Graypants_Ohio24
 62
    36
420
  8866048
370
    -3
100
AcDbVertex
100
AcDb2dVertex
 10
-3.951905517422197
 20
0.1629096184568509
 30
0.0
  0
VERTEX
  5
40A
330
382
100
AcDbEntity
  8
Graypants_Ohio24
 62
    36
420
  8866048
370
    -3
100
AcDbVertex
100
AcDb2dVertex
 10
-3.947797069382731
 20
0.1814031019186178
 30
0.0
  0
VERTEX
  5
40B
330
382
100
AcDbEntity
  8
Graypants_Ohio24
 62
    36
420
  8866048
370
    -3
100
AcDbVertex
100
AcDb2dVertex
 10
-3.943215882801885
 20
0.1999187282377442
 30
0.0
  0
VERTEX
  5
40C
330
382
100
AcDbEntity
  8
Graypants_Ohio24
 62
    36
420
  8866048
370
    -3
100
AcDbVertex
100
AcDb2dVertex
 10
-3.93815669786102
 20
0.2184395011719106
 30
0.0
  0
VERTEX
  5
40D
330
382
100
AcDbEntity
  8
Graypants_Ohio24
 62
    36
420
  8866048
370
    -3
100
AcDbVertex
100
AcDb2dVertex
 10
-3.932615021386087
 20
0.2369479635867923
 30
0.0
  0
VERTEX
  5
40E
330
382
100
AcDbEntity
  8
Graypants_Ohio24
 62
    36
420
  8866048
370
    -3
100
AcDbVertex
100
AcDb2dVertex
 10
-3.926587166105968
 20
0.255426237927659
 30
0.0
  0
VERTEX
  5
40F
330
382
100
AcDbEntity
  8
Graypants_Ohio24
 62
    36
420
  8866048
370
    -3
100
AcDbVertex
100
AcDb2dVertex
 10
-3.920070287552754
 20
0.2738560702589286
 30
0.0
  0
VERTEX
  5
410
330
382
100
AcDbEntity
  8
Graypants_Ohio24
 62
    36
420
  8866048
370
    -3
100
AcDbVertex
100
AcDb2dVertex
 10
-3.913062418251563
 20
0.2922188777310007
 30
0.0
  0
VERTEX
  5
411
330
382
100
AcDbEntity
  8
Graypants_Ohio24
 62
    36
420
  8866048
370
    -3
100
AcDbVertex
100
AcDb2dVertex
 10
-3.905562498854664
 20
0.3104957992957982
 30
0.0
  0
VERTEX
  5
412
330
382
100
AcDbEntity
  8
Graypants_Ohio24
 62
    36
420
  8866048
370
    -3
100
AcDbVertex
100
AcDb2dVertex
 10
-3.897570405886341
 20
0.3286677494545906
 30
0.0
  0
VERTEX
  5
413
330
382
100
AcDbEntity
  8
Graypants_Ohio24
 62
    36
420
  8866048
370
    -3
100
AcDbVertex
100
AcDb2dVertex
 10
-3.889086975781061
 20
0.3467154747844135
 30
0.0
  0
VERTEX
  5
414
330
382
100
AcDbEntity
  8
Graypants_Ohio24
 62
    36
420
  8866048
370
    -3
100
AcDbVertex
100
AcDb2dVertex
 10
-3.880114024918171
 20
0.3646196129533147
 30
0.0
  0
VERTEX
  5
415
330
382
100
AcDbEntity
  8
Graypants_Ohio24
 62
    36
420
  8866048
370
    -3
100
AcDbVertex
100
AcDb2dVertex
 10
-3.870654365381492
 20
0.3823607539003516
 30
0.0
  0
VERTEX
  5
416
330
382
100
AcDbEntity
  8
Graypants_Ohio24
 62
    36
420
  8866048
370
    -3
100
AcDbVertex
100
AcDb2dVertex
 10
-3.860711816201546
 20
0.3999195028243197
 30
0.0
  0
VERTEX
  5
417
330
382
100
AcDbEntity
  8
Graypants_Ohio24
 62
    36
420
  8866048
370
    -3
100
AcDbVertex
100
AcDb2dVertex
 10
-3.85029120987172
 20
0.4172765445962116
 30
0.0
  0
VERTEX
  5
418
330
382
100
AcDbEntity
  8
Graypants_Ohio24
 62
    36
420
  8866048
370
    -3
100
AcDbVertex
100
AcDb2dVertex
 10
-3.839398393966837
 20
0.4344127091849335
 30
0.0
  0
VERTEX
  5
419
330
382
100
AcDbEntity
  8
Graypants_Ohio24
 62
    36
420
  8866048
370
    -3
100
AcDbVertex
100
AcDb2dVertex
 10
-3.828040227733205
 20
0.4513090376643692
 30
0.0
  0
VERTEX
  5
41A
330
382
100
AcDbEntity
  8
Graypants_Ohio24
 62
    36
420
  8866048
370
    -3
100
AcDbVertex
100
AcDb2dVertex
 10
-3.816224573562587
 20
0.4679468483529504
 30
0.0
  0
VERTEX
  5
41B
330
382
100
AcDbEntity
  8
Graypants_Ohio24
 62
    36
420
  8866048
370
    -3
100
AcDbVertex
100
AcDb2dVertex
 10
-3.803960283308303
 20
0.4843078026248723
 30
0.0
  0
VERTEX
  5
41C
330
382
100
AcDbEntity
  8
Graypants_Ohio24
 62
    36
420
  8866048
370
    -3
100
AcDbVertex
100
AcDb2dVertex
 10
-3.791257179448952
 20
0.5003739699253049
 30
0.0
  0
VERTEX
  5
41D
330
382
100
AcDbEntity
  8
Graypants_Ohio24
 62
    36
420
  8866048
370
    -3
100
AcDbVertex
100
AcDb2dVertex
 10
-3.778126031153699
 20
0.5161278915206489
 30
0.0
  0
VERTEX
  5
41E
330
382
100
AcDbEntity
  8
Graypants_Ohio24
 62
    36
420
  8866048
370
    -3
100
AcDbVertex
100
AcDb2dVertex
 10
-3.764578525351703
 20
0.5315526425192044
 30
0.0
  0
VERTEX
  5
41F
330
382
100
AcDbEntity
  8
Graypants_Ohio24
 62
    36
420
  8866048
370
    -3
100
AcDbVertex
100
AcDb2dVertex
 10
-3.750627232956534
 20
0.5466318917076259
 30
0.0
  0
VERTEX
  5
420
330
382
100
AcDbEntity
  8
Graypants_Ohio24
 62
    36
420
  8866048
370
    -3
100
AcDbVertex
100
AcDb2dVertex
 10
-3.736285570443442
 20
0.5613499587641457
 30
0.0
  0
VERTEX
  5
421
330
382
100
AcDbEntity
  8
Graypants_Ohio24
 62
    36
420
  8866048
370
    -3
100
AcDbVertex
100
AcDb2dVertex
 10
-3.722152045154844
 20
0.5751370166367972
 30
0.0
  0
VERTEX
  5
422
330
382
100
AcDbEntity
  8
Graypants_Ohio24
 62
    36
420
  8866048
370
    -3
100
AcDbVertex
100
AcDb2dVertex
 10
-3.707716744604477
 20
0.5885357345256816
 30
0.0
  0
VERTEX
  5
423
330
382
100
AcDbEntity
  8
Graypants_Ohio24
 62
    36
420
  8866048
370
    -3
100
AcDbVertex
100
AcDb2dVertex
 10
-3.692987856908074
 20
0.6015428764522064
 30
0.0
  0
VERTEX
  5
424
330
382
100
AcDbEntity
  8
Graypants_Ohio24
 62
    36
420
  8866048
370
    -3
100
AcDbVertex
100
AcDb2dVertex
 10
-3.677973570181365
 20
0.6141552064377791
 30
0.0
  0
VERTEX
  5
425
330
382
100
AcDbEntity
  8
Graypants_Ohio24
 62
    36
420
  8866048
370
    -3
100
AcDbVertex
100
AcDb2dVertex
 10
-3.662682072540081
 20
0.6263694885038069
 30
0.0
  0
VERTEX
  5
426
330
382
100
AcDbEntity
  8
Graypants_Ohio24
 62
    36
420
  8866048
370
    -3
100
AcDbVertex
100
AcDb2dVertex
 10
-3.647121552099952
 20
0.6381824866716972
 30
0.0
  0
VERTEX
  5
427
330
382
100
AcDbEntity
  8
Graypants_Ohio24
 62
    36
420
  8866048
370
    -3
100
AcDbVertex
100
AcDb2dVertex
 10
-3.631300196976709
 20
0.6495909649628575
 30
0.0
  0
VERTEX
  5
428
330
382
100
AcDbEntity
  8
Graypants_Ohio24
 62
    36
420
  8866048
370
    -3
100
AcDbVertex
100
AcDb2dVertex
 10
-3.615226195286084
 20
0.660591687398695
 30
0.0
  0
VERTEX
  5
429
330
382
100
AcDbEntity
  8
Graypants_Ohio24
 62
    36
420
  8866048
370
    -3
100
AcDbVertex
100
AcDb2dVertex
 10
-3.598907735143807
 20
0.6711814180006173
 30
0.0
  0
VERTEX
  5
42A
330
382
100
AcDbEntity
  8
Graypants_Ohio24
 62
    36
420
  8866048
370
    -3
100
AcDbVertex
100
AcDb2dVertex
 10
-3.582353004665608
 20
0.6813569207900314
 30
0.0
  0
VERTEX
  5
42B
330
382
100
AcDbEntity
  8
Graypants_Ohio24
 62
    36
420
  8866048
370
    -3
100
AcDbVertex
100
AcDb2dVertex
 10
-3.565570191967218
 20
0.6911149597883449
 30
0.0
  0
VERTEX
  5
42C
330
382
100
AcDbEntity
  8
Graypants_Ohio24
 62
    36
420
  8866048
370
    -3
100
AcDbVertex
100
AcDb2dVertex
 10
-3.548567485164369
 20
0.7004522990169653
 30
0.0
  0
VERTEX
  5
42D
330
382
100
AcDbEntity
  8
Graypants_Ohio24
 62
    36
420
  8866048
370
    -3
100
AcDbVertex
100
AcDb2dVertex
 10
-3.531353072372792
 20
0.7093657024972997
 30
0.0
  0
VERTEX
  5
42E
330
382
100
AcDbEntity
  8
Graypants_Ohio24
 62
    36
420
  8866048
370
    -3
100
AcDbVertex
100
AcDb2dVertex
 10
-3.513935141708215
 20
0.7178519342507557
 30
0.0
  0
VERTEX
  5
42F
330
382
100
AcDbEntity
  8
Graypants_Ohio24
 62
    36
420
  8866048
370
    -3
100
AcDbVertex
100
AcDb2dVertex
 10
-3.496321881286371
 20
0.7259077582987405
 30
0.0
  0
VERTEX
  5
430
330
382
100
AcDbEntity
  8
Graypants_Ohio24
 62
    36
420
  8866048
370
    -3
100
AcDbVertex
100
AcDb2dVertex
 10
-3.478521479222991
 20
0.7335299386626617
 30
0.0
  0
VERTEX
  5
431
330
382
100
AcDbEntity
  8
Graypants_Ohio24
 62
    36
420
  8866048
370
    -3
100
AcDbVertex
100
AcDb2dVertex
 10
-3.460542123633805
 20
0.7407152393639265
 30
0.0
  0
VERTEX
  5
432
330
382
100
AcDbEntity
  8
Graypants_Ohio24
 62
    36
420
  8866048
370
    -3
100
AcDbVertex
100
AcDb2dVertex
 10
-3.442392002634543
 20
0.7474604244239422
 30
0.0
  0
VERTEX
  5
433
330
382
100
AcDbEntity
  8
Graypants_Ohio24
 62
    36
420
  8866048
370
    -3
100
AcDbVertex
100
AcDb2dVertex
 10
-3.424079304340937
 20
0.7537622578641163
 30
0.0
  0
VERTEX
  5
434
330
382
100
AcDbEntity
  8
Graypants_Ohio24
 62
    36
420
  8866048
370
    -3
100
AcDbVertex
100
AcDb2dVertex
 10
-3.405612216868718
 20
0.7596175037058561
 30
0.0
  0
VERTEX
  5
435
330
382
100
AcDbEntity
  8
Graypants_Ohio24
 62
    36
420
  8866048
370
    -3
100
AcDbVertex
100
AcDb2dVertex
 10
-3.386998928333616
 20
0.7650229259705691
 30
0.0
  0
VERTEX
  5
436
330
382
100
AcDbEntity
  8
Graypants_Ohio24
 62
    36
420
  8866048
370
    -3
100
AcDbVertex
100
AcDb2dVertex
 10
-3.368247626851362
 20
0.7699752886796625
 30
0.0
  0
VERTEX
  5
437
330
382
100
AcDbEntity
  8
Graypants_Ohio24
 62
    36
420
  8866048
370
    -3
100
AcDbVertex
100
AcDb2dVertex
 10
-3.349366500537687
 20
0.7744713558545437
 30
0.0
  0
VERTEX
  5
438
330
382
100
AcDbEntity
  8
Graypants_Ohio24
 62
    36
420
  8866048
370
    -3
100
AcDbVertex
100
AcDb2dVertex
 10
-3.330363737508321
 20
0.7785078915166204
 30
0.0
  0
VERTEX
  5
439
330
382
100
AcDbEntity
  8
Graypants_Ohio24
 62
    36
420
  8866048
370
    -3
100
AcDbVertex
100
AcDb2dVertex
 10
-3.311247525878996
 20
0.7820816596872995
 30
0.0
  0
VERTEX
  5
43A
330
382
100
AcDbEntity
  8
Graypants_Ohio24
 62
    36
420
  8866048
370
    -3
100
AcDbVertex
100
AcDb2dVertex
 10
-3.292026053765442
 20
0.7851894243879887
 30
0.0
  0
VERTEX
  5
43B
330
382
100
AcDbEntity
  8
Graypants_Ohio24
 62
    36
420
  8866048
370
    -3
100
AcDbVertex
100
AcDb2dVertex
 10
-3.272707509283389
 20
0.7878279496400951
 30
0.0
  0
VERTEX
  5
43C
330
382
100
AcDbEntity
  8
Graypants_Ohio24
 62
    36
420
  8866048
370
    -3
100
AcDbVertex
100
AcDb2dVertex
 10
-3.25330008054857
 20
0.7899939994650262
 30
0.0
  0
VERTEX
  5
43D
330
382
100
AcDbEntity
  8
Graypants_Ohio24
 62
    36
420
  8866048
370
    -3
100
AcDbVertex
100
AcDb2dVertex
 10
-3.233811955676714
 20
0.7916843378841896
 30
0.0
  0
VERTEX
  5
43E
330
382
100
AcDbEntity
  8
Graypants_Ohio24
 62
    36
420
  8866048
370
    -3
100
AcDbVertex
100
AcDb2dVertex
 10
-3.214251322783552
 20
0.7928957289189922
 30
0.0
  0
VERTEX
  5
43F
330
382
100
AcDbEntity
  8
Graypants_Ohio24
 62
    36
420
  8866048
370
    -3
100
AcDbVertex
100
AcDb2dVertex
 10
-3.194626369984815
 20
0.7936249365908418
 30
0.0
  0
VERTEX
  5
440
330
382
100
AcDbEntity
  8
Graypants_Ohio24
 62
    36
420
  8866048
370
    -3
100
AcDbVertex
100
AcDb2dVertex
 10
-3.174945285396234
 20
0.7938687249211456
 30
0.0
  0
SEQEND
  5
441
330
382
100
AcDbEntity
  8
Graypants_Ohio24
 62
    36
420
  8866048
370
    -3
  0
LINE
  5
442
330
1F
100
AcDbEntity
  8
Graypants_Ohio24
 62
    36
420
  8866048
370
    -3
100
AcDbLine
 10
3.174129677092424
 20
-0.7938684138280165
 30
0.0
 11
2.698750000000132
 21
-0.7938683991474078
 31
0.0
  0
LINE
  5
443
330
1F
100
AcDbEntity
  8
Graypants_Ohio24
 62
    36
420
  8866048
370
    -3
100
AcDbLine
 10
-3.174129956914385
 20
0.793868726128045
 30
0.0
 11
-2.698750000000246
 21
0.7938687408084264
 31
0.0
  0
ARC
  5
444
330
1F
100
AcDbEntity
  8
Graypants_Ohio24
 62
    36
420
  8866048
370
    -3
100
AcDbCircle
 10
-3.174719217511378
 20
-0.0002246202253636
 30
0.0
 40
0.7940930676562503
210
0.0
220
0.0
230
-1.0
100
AcDbArc
 50
90.01636531953139
 51
270.1200792501039
  0
LINE
  5
445
330
1F
100
AcDbEntity
  8
Graypants_Ohio24
 62
    36
420
  8866048
370
    -3
100
AcDbLine
 10
2.361949025143326
 20
11.41565862231971
 30
0.0
 11
2.363938912478402
 21
11.39910840981094
 31
0.0
  0
LINE
  5
446
330
1F
100
AcDbEntity
  8
Graypants_Ohio24
 62
    36
420
  8866048
370
    -3
100
AcDbLine
 10
-0.8056477089571672
 20
-0.7938689142142663
 30
0.0
 11
-0.8876014650629713
 21
-0.7938688954563928
 31
0.0
  0
LINE
  5
447
330
1F
100
AcDbEntity
  8
Graypants_Ohio24
 62
    36
420
  8866048
370
    -3
100
AcDbLine
 10
-1.499999999998749
 20
216.5000000000007
 30
0.0
 11
-1.500000000007731
 21
130.1383630135733
 31
0.0
  0
LINE
  5
448
330
1F
100
AcDbEntity
  8
Graypants_Ohio24
 62
    36
420
  8866048
370
    -3
100
AcDbLine
 10
-188.2445004521109
 20
-106.9509609565744
 30
0.0
 11
-113.4531286943476
 21
-63.77014283593575
 31
0.0
  0
LINE
  5
449
330
1F
100
AcDbEntity
  8
Graypants_Ohio24
 62
    36
420
  8866048
370
    -3
100
AcDbLine
 10
188.2444987941485
 20
-106.9509638747566
 30
0.0
 11
113.4531277057763
 21
-63.77014459469819
 31
0.0
  0
LINE
  5
44A
330
1F
100
AcDbEntity
  8
Graypants_Ohio24
 62
    36
420
  8866048
370
    -3
100
AcDbLine
 10
186.7444987668157
 20
-109.5490400703286
 30
0.0
 11
111.9531276784433
 21
-66.36822079027024
 31
0.0
  0
LINE
  5
44B
330
1F
100
AcDbEntity
  8
Graypants_Ohio24
 62
    36
420
  8866048
370
    -3
100
AcDbLine
 10
1.500000000001364
 20
216.5000000000005
 30
0.0
 11
1.499999999992269
 21
130.1383630135729
 31
0.0
  0
LINE
  5
44C
330
1F
100
AcDbEntity
  8
Graypants_Ohio24
 62
    36
420
  8866048
370
    -3
100
AcDbLine
 10
-186.7445004650533
 20
-109.5490371753999
 30
0.0
 11
-111.95312870729
 21
-66.36821905476154
 31
0.0
  0
CIRCLE
  5
44D
330
1F
100
AcDbEntity
  8
Graypants_Ohio24
 62
    36
420
  8866048
370
    -3
100
AcDbCircle
 10
-0.0000000000004522
 20
0.0000000000011355
 30
0.0
 40
222.2009581900129
210
0.0
220
0.0
230
-1.0
  0
ARC
  5
44E
330
1F
100
AcDbEntity
  8
Graypants_Ohio24
 62
    36
420
  8866048
370
    -3
100
AcDbCircle
 10
-32.60073888398571
 20
-18.82204491314465
 30
0.0
 40
3.175000000002532
100
AcDbArc
 50
149.9999993972243
 51
181.8071434221145
  0
ARC
  5
44F
330
1F
100
AcDbEntity
  8
Graypants_Ohio24
 62
    36
420
  8866048
370
    -3
100
AcDbCircle
 10
-32.60073888398817
 20
-18.82204491314355
 30
0.0
 40
3.175000000000229
100
AcDbArc
 50
238.1928645456002
 51
269.9999993972149
  0
CIRCLE
  5
451
330
1F
100
AcDbEntity
  8
Graypants_Ohio24
  6
Hidden
 62
    36
420
  8866048
370
    -3
100
AcDbCircle
 10
0.0000000000001156
 20
0.0000000000014872
 30
0.0
 40
57.14999999999998
  0
ARC
  5
452
330
1F
100
AcDbEntity
  8
Graypants_Ohio24
 62
    36
420
  8866048
370
    -3
100
AcDbCircle
 10
0.0000003960380894
 20
37.64409051225086
 30
0.0
 40
3.175000000000166
100
AcDbArc
 50
29.99999939721699
 51
61.8071475475129
  0
ARC
  5
453
330
1F
100
AcDbEntity
  8
Graypants_Ohio24
 62
    36
420
  8866048
370
    -3
100
AcDbCircle
 10
0.0000003960377875
 20
37.64409051225119
 30
0.0
 40
3.174999999999688
100
AcDbArc
 50
118.1928686709653
 51
149.9999993972143
  0
ARC
  5
454
330
1F
100
AcDbEntity
  8
Graypants_Ohio24
 62
    36
420
  8866048
370
    -3
100
AcDbCircle
 10
32.60073848794931
 20
-18.82204559910177
 30
0.0
 40
3.17500000000042
100
AcDbArc
 50
269.9999993972148
 51
301.8071388354348
  0
ARC
  5
455
330
1F
100
AcDbEntity
  8
Graypants_Ohio24
 62
    36
420
  8866048
370
    -3
100
AcDbCircle
 10
32.6007384879497
 20
-18.82204559910199
 30
0.0
 40
3.174999999999828
100
AcDbArc
 50
358.1928599588844
 51
29.99999939721568
  0
LINE
  5
456
330
1F
100
AcDbEntity
  8
Graypants_Ohio24
  6
Continuous
 62
    36
420
  8866048
370
    -3
100
AcDbLine
 10
1.499999999982947
 20
39.99724306548274
 30
0.0
 11
1.499999999980105
 21
12.96192165776012
 31
0.0
  0
LINE
  5
457
330
1F
100
AcDbEntity
  8
Graypants_Ohio24
  6
Continuous
 62
    36
420
  8866048
370
    -3
100
AcDbLine
 10
-1.500000000017167
 20
39.99724306548297
 30
0.0
 11
-1.500000000020009
 21
12.9619216577272
 31
0.0
  0
ARC
  5
458
330
1F
100
AcDbEntity
  8
Graypants_Ohio24
 62
    36
420
  8866048
370
    -3
100
AcDbCircle
 10
0.0000000000004924
 20
0.000000000001538
 30
0.0
 40
12.50000000000006
100
AcDbArc
 50
279.4186376744747
 51
80.5813552881578
  0
ARC
  5
459
330
1F
100
AcDbEntity
  8
Graypants_Ohio24
 62
    36
420
  8866048
370
    -3
100
AcDbCircle
 10
0.0000000000006455
 20
0.0000000000015353
 30
0.0
 40
12.50000000000006
100
AcDbArc
 50
99.41864332408748
 51
260.5813623255216
  0
ARC
  5
45A
330
1F
100
AcDbEntity
  8
Graypants_Ohio24
 62
    36
420
  8866048
370
    -3
100
AcDbCircle
 10
-0.0000000000005003
 20
0.0000000000016098
 30
0.0
 40
7.937500000000046
210
0.0
220
0.0
230
-1.0
100
AcDbArc
 50
287.4576031237203
 51
72.54239687627755
  0
ARC
  5
45B
330
1F
100
AcDbEntity
  8
Graypants_Ohio24
 62
    36
420
  8866048
370
    -3
100
AcDbCircle
 10
-0.0000000000005854
 20
0.000000000001812
 30
0.0
 40
7.937499999999872
210
0.0
220
0.0
230
-1.0
100
AcDbArc
 50
107.457603123722
 51
158.4076751284325
  0
ARC
  5
45C
330
1F
100
AcDbEntity
  8
Graypants_Ohio24
 62
    36
420
  8866048
370
    -3
100
AcDbCircle
 10
-0.0000000000011845
 20
0.0000000000005557
 30
0.0
 40
7.937499999998892
210
0.0
220
0.0
230
-1.0
100
AcDbArc
 50
201.5923248715657
 51
252.5423968762792
  0
LINE
  5
45D
330
1F
100
AcDbEntity
  8
Graypants_Ohio24
 62
    36
420
  8866048
370
    -3
100
AcDbLine
 10
4.7625000000005
 20
-2.920999999998452
 30
0.0
 11
2.381250000000591
 21
-2.920999999998452
 31
0.0
  0
LINE
  5
45E
330
1F
100
AcDbEntity
  8
Graypants_Ohio24
 62
    36
420
  8866048
370
    -3
100
AcDbLine
 10
2.381250000000591
 20
2.921000000001647
 30
0.0
 11
4.762500000000728
 21
2.921000000001647
 31
0.0
  0
LINE
  5
45F
330
1F
100
AcDbEntity
  8
Graypants_Ohio24
 62
    36
420
  8866048
370
    -3
100
AcDbLine
 10
2.381250000000591
 20
11.11250206415139
 30
0.0
 11
2.381250000000591
 21
0.7938684731496273
 31
0.0
  0
LINE
  5
460
330
1F
100
AcDbEntity
  8
Graypants_Ohio24
 62
    36
420
  8866048
370
    -3
100
AcDbLine
 10
2.381250000000591
 20
-0.7938683955598874
 30
0.0
 11
2.381250000000364
 21
-11.11249999999836
 31
0.0
  0
ARC
  5
461
330
1F
100
AcDbEntity
  8
Graypants_Ohio24
 62
    36
420
  8866048
370
    -3
100
AcDbCircle
 10
-0.0000000000019987
 20
0.0000000000025211
 30
0.0
 40
2.921000000001601
210
0.0
220
0.0
230
-1.0
100
AcDbArc
 50
324.6088627204961
 51
344.2297983193078
  0
ARC
  5
462
330
1F
100
AcDbEntity
  8
Graypants_Ohio24
 62
    36
420
  8866048
370
    -3
100
AcDbCircle
 10
0.0000000000005125
 20
0.0000000000024685
 30
0.0
 40
2.92099999999866
210
0.0
220
0.0
230
-1.0
100
AcDbArc
 50
15.77020168066564
 51
35.39113727951101
  0
LINE
  5
463
330
1F
100
AcDbEntity
  8
Graypants_Ohio24
 62
    36
420
  8866048
370
    -3
100
AcDbLine
 10
-2.381249999999454
 20
11.11250206415139
 30
0.0
 11
-2.381249999999341
 21
0.7938687447605043
 31
0.0
  0
LINE
  5
464
330
1F
100
AcDbEntity
  8
Graypants_Ohio24
 62
    36
420
  8866048
370
    -3
100
AcDbLine
 10
-2.381249999999454
 20
-0.793868744757613
 30
0.0
 11
-2.381249999999568
 21
-11.11249999999836
 31
0.0
  0
LINE
  5
465
330
1F
100
AcDbEntity
  8
Graypants_Ohio24
 62
    36
420
  8866048
370
    -3
100
AcDbLine
 10
2.703152862342108
 20
0.7938684565831466
 30
0.0
 11
2.166414514039161
 21
0.7938684831968024
 31
0.0
  0
LINE
  5
466
330
1F
100
AcDbEntity
  8
Graypants_Ohio24
 62
    36
420
  8866048
370
    -3
100
AcDbLine
 10
-2.698750000000246
 20
0.7938687408084264
 30
0.0
 11
-2.166414357816052
 21
0.7938687521019966
 31
0.0
  0
LINE
  5
467
330
1F
100
AcDbEntity
  8
Graypants_Ohio24
 62
    36
420
  8866048
370
    -3
100
AcDbLine
 10
-2.170566624868343
 20
-0.7938687519199216
 30
0.0
 11
-2.698750000000132
 21
-0.793868740805459
 31
0.0
  0
LINE
  5
468
330
1F
100
AcDbEntity
  8
Graypants_Ohio24
 62
    36
420
  8866048
370
    -3
100
AcDbLine
 10
2.698750000000132
 20
-0.7938683991474078
 30
0.0
 11
2.170566833145131
 21
-0.7938683890581137
 31
0.0
  0
ENDSEC
  0
SECTION
  2
OBJECTS
  0
DICTIONARY
  5
C
330
0
100
AcDbDictionary
281
     1
  3
ACAD_DETAILVIEWSTYLE
350
4A4
  3
ACAD_GROUP
350
D
  3
ACAD_LAYOUT
350
1A
  3
ACAD_MATERIAL
350
43
  3
ACAD_MLEADERSTYLE
350
6B
  3
ACAD_MLINESTYLE
350
17
  3
ACAD_PLOTSETTINGS
350
19
  3
ACAD_PLOTSTYLENAME
350
E
  3
ACAD_SCALELIST
350
47
  3
ACAD_SECTIONVIEWSTYLE
350
4A5
  3
ACAD_TABLESTYLE
350
69
  3
ACAD_VISUALSTYLE
350
2A
  3
AcDbVariableDictionary
350
469
  3
ACDB_RECOMPOSE_DATA
350
4A1
  0
SUN
  5
6D
330
29
100
AcDbSun
 90
        1
290
     0
 63
     7
421
 16777215
 40
1.0
291
     1
 91
  2455826
 92
 54000000
292
     0
 70
     2
 71
   256
280
     1
  0
DICTIONARY
  5
4A4
102
{ACAD_REACTORS
330
C
102
}
330
C
100
AcDbDictionary
281
     1
  0
DICTIONARY
  5
D
102
{ACAD_REACTORS
330
C
102
}
330
C
100
AcDbDictionary
281
     1
  0
DICTIONARY
  5
1A
102
{ACAD_REACTORS
330
C
102
}
330
C
100
AcDbDictionary
281
     1
  3
Layout1
350
1E
  3
Layout2
350
26
  3
Model
350
22
  0
DICTIONARY
  5
43
102
{ACAD_REACTORS
330
C
102
}
330
C
100
AcDbDictionary
281
     1
  3
ByBlock
350
45
  3
ByLayer
350
44
  3
Global
350
46
  0
DICTIONARY
  5
6B
102
{ACAD_REACTORS
330
C
102
}
330
C
100
AcDbDictionary
281
     1
  3
Standard
350
6C
  0
DICTIONARY
  5
17
102
{ACAD_REACTORS
330
C
102
}
330
C
100
AcDbDictionary
281
     1
  3
Standard
350
18
  0
DICTIONARY
  5
19
102
{ACAD_REACTORS
330
C
102
}
330
C
100
AcDbDictionary
281
     1
  0
ACDBDICTIONARYWDFLT
  5
E
102
{ACAD_REACTORS
330
C
102
}
330
C
100
AcDbDictionary
281
     1
  3
Normal
350
F
100
AcDbDictionaryWithDefault
340
F
  0
DICTIONARY
  5
47
102
{ACAD_REACTORS
330
C
102
}
330
C
100
AcDbDictionary
281
     1
  3
A0
350
48
  3
A1
350
49
  3
A2
350
4A
  3
A3
350
4B
  3
A4
350
4C
  3
A5
350
4D
  3
A6
350
4E
  3
A7
350
4F
  3
A8
350
50
  3
A9
350
51
  3
B0
350
52
  3
B1
350
53
  3
B2
350
54
  3
B3
350
55
  3
B4
350
56
  3
B5
350
57
  3
B6
350
58
  3
B7
350
59
  3
B8
350
5A
  3
B9
350
5B
  3
C0
350
5C
  3
C1
350
5D
  3
C2
350
5E
  3
C3
350
5F
  3
C4
350
60
  3
C5
350
61
  3
C6
350
62
  3
C7
350
63
  3
C8
350
64
  3
C9
350
65
  3
D0
350
66
  3
D1
350
67
  3
D2
350
68
  0
DICTIONARY
  5
4A5
102
{ACAD_REACTORS
330
C
102
}
330
C
100
AcDbDictionary
281
     1
  0
DICTIONARY
  5
69
102
{ACAD_REACTORS
330
C
102
}
330
C
100
AcDbDictionary
281
     1
  3
Standard
350
6A
  0
DICTIONARY
  5
2A
102
{ACAD_REACTORS
330
C
102
}
330
C
100
AcDbDictionary
281
     1
  3
2dWireframe
350
2F
  3
Basic
350
32
  3
Brighten
350
36
  3
ColorChange
350
3A
  3
Conceptual
350
34
  3
Dim
350
35
  3
EdgeColorOff
350
3D
  3
Facepattern
350
39
  3
Flat
350
2B
  3
FlatWithEdges
350
2C
  3
Gouraud
350
2D
  3
GouraudWithEdges
350
2E
  3
Hidden
350
31
  3
JitterOff
350
3B
  3
Linepattern
350
38
  3
OverhangOff
350
3C
  3
Realistic
350
33
  3
Shaded
350
42
  3
Shaded with edges
350
41
  3
Shades of Gray
350
3E
  3
Sketchy
350
3F
  3
Thicken
350
37
  3
Wireframe
350
30
  3
X-Ray
350
40
  0
DICTIONARY
  5
469
102
{ACAD_REACTORS
330
C
102
}
330
C
100
AcDbDictionary
281
     1
  3
CANNOSCALE
350
46A
  3
CMLEADERSTYLE
350
4A3
  3
CTABLESTYLE
350
4A2
  3
XCLIPFRAME
350
46B
  0
XRECORD
  5
4A1
102
{ACAD_REACTORS
330
C
102
}
330
C
100
AcDbXrecord
280
     1
 90
        1
330
6A
  0
LAYOUT
  5
1E
102
{ACAD_REACTORS
330
1A
102
}
330
1A
100
AcDbPlotSettings
  1

  2
none_device
  4

  6

 40
0.0
 41
0.0
 42
0.0
 43
0.0
 44
0.0
 45
0.0
 46
0.0
 47
0.0
 48
0.0
 49
0.0
140
0.0
141
0.0
142
1.0
143
1.0
 70
   688
 72
     0
 73
     0
 74
     5
  7

 75
    16
 76
     0
 77
     2
 78
   300
147
1.0
148
0.0
149
0.0
100
AcDbLayout
  1
Layout1
 70
     1
 71
     1
 10
0.0
 20
0.0
 11
12.0
 21
9.0
 12
0.0
 22
0.0
 32
0.0
 14
1.000000000000000E+20
 24
1.000000000000000E+20
 34
1.000000000000000E+20
 15
-1.000000000000000E+20
 25
-1.000000000000000E+20
 35
-1.000000000000000E+20
146
0.0
 13
0.0
 23
0.0
 33
0.0
 16
1.0
 26
0.0
 36
0.0
 17
0.0
 27
1.0
 37
0.0
 76
     0
330
1B
  0
LAYOUT
  5
26
102
{ACAD_REACTORS
330
1A
102
}
330
1A
100
AcDbPlotSettings
  1

  2
none_device
  4

  6

 40
0.0
 41
0.0
 42
0.0
 43
0.0
 44
0.0
 45
0.0
 46
0.0
 47
0.0
 48
0.0
 49
0.0
140
0.0
141
0.0
142
1.0
143
1.0
 70
   688
 72
     0
 73
     0
 74
     5
  7

 75
    16
 76
     0
 77
     2
 78
   300
147
1.0
148
0.0
149
0.0
100
AcDbLayout
  1
Layout2
 70
     1
 71
     2
 10
0.0
 20
0.0
 11
0.0
 21
0.0
 12
0.0
 22
0.0
 32
0.0
 14
0.0
 24
0.0
 34
0.0
 15
0.0
 25
0.0
 35
0.0
146
0.0
 13
0.0
 23
0.0
 33
0.0
 16
1.0
 26
0.0
 36
0.0
 17
0.0
 27
1.0
 37
0.0
 76
     0
330
23
  0
LAYOUT
  5
22
102
{ACAD_REACTORS
330
1A
102
}
330
1A
100
AcDbPlotSettings
  1

  2
none_device
  4
Letter_(8.50_x_11.00_Inches)
  6

 40
6.35
 41
6.35
 42
6.35000508
 43
6.35000508
 44
215.9
 45
279.4
 46
0.0
 47
0.0
 48
0.0
 49
0.0
140
0.0
141
0.0
142
1.0
143
1.0
 70
  1712
 72
     0
 73
     0
 74
     0
  7

 75
     0
 76
     0
 77
     2
 78
   300
147
1.0
148
0.0
149
0.0
100
AcDbLayout
  1
Model
 70
     1
 71
     0
 10
0.0
 20
0.0
 11
12.0
 21
9.0
 12
3804.693056528511
 22
1444.863951419895
 32
0.0
 14
1.000000000000000E+20
 24
1.000000000000000E+20
 34
1.000000000000000E+20
 15
-1.000000000000000E+20
 25
-1.000000000000000E+20
 35
-1.000000000000000E+20
146
0.0
 13
0.0
 23
0.0
 33
0.0
 16
1.0
 26
0.0
 36
0.0
 17
0.0
 27
1.0
 37
0.0
 76
     0
330
1F
331
29
  0
MATERIAL
  5
45
102
{ACAD_REACTORS
330
43
102
}
330
43
100
AcDbMaterial
  1
ByBlock
 72
     1
 94
      127
  0
MATERIAL
  5
44
102
{ACAD_REACTORS
330
43
102
}
330
43
100
AcDbMaterial
  1
ByLayer
 72
     1
 94
      127
  0
MATERIAL
  5
46
102
{ACAD_REACTORS
330
43
102
}
330
43
100
AcDbMaterial
  1
Global
 72
     1
 94
      127
  0
MLEADERSTYLE
  5
6C
102
{ACAD_REACTORS
330
6B
102
}
102
{ACAD_XDICTIONARY
360
49F
102
}
330
6B
100
AcDbMLeaderStyle
170
     2
171
     1
172
     0
 90
        2
 40
0.0
 41
0.0
173
     1
 91
-1056964608
340
14
 92
       -2
290
     1
 42
0.09
291
     1
 43
0.36
  3
Standard
341
0
 44
0.18
300

342
11
174
     1
178
     6
175
     1
176
     0
 93
-1056964608
 45
0.18
292
     0
297
     0
 46
0.18
343
0
 94
-1056964608
 47
1.0
 49
1.0
140
1.0
293
     1
141
0.0
294
     1
177
     0
142
1.0
295
     0
296
     0
143
0.125
1001
ACAD_MLEADERVER
1070
     2
  0
MLINESTYLE
  5
18
102
{ACAD_REACTORS
330
17
102
}
330
17
100
AcDbMlineStyle
  2
Standard
 70
     0
  3

 62
   256
 51
90.0
 52
90.0
 71
     2
 49
0.5
 62
   256
  6
BYLAYER
 49
-0.5
 62
   256
  6
BYLAYER
  0
ACDBPLACEHOLDER
  5
F
102
{ACAD_REACTORS
330
E
102
}
330
E
  0
SCALE
  5
48
102
{ACAD_REACTORS
330
47
102
}
330
47
100
AcDbScale
 70
     0
300
1:1
140
1.0
141
1.0
290
     1
  0
SCALE
  5
49
102
{ACAD_REACTORS
330
47
102
}
330
47
100
AcDbScale
 70
     0
300
1:2
140
1.0
141
2.0
290
     0
  0
SCALE
  5
4A
102
{ACAD_REACTORS
330
47
102
}
330
47
100
AcDbScale
 70
     0
300
1:4
140
1.0
141
4.0
290
     0
  0
SCALE
  5
4B
102
{ACAD_REACTORS
330
47
102
}
330
47
100
AcDbScale
 70
     0
300
1:5
140
1.0
141
5.0
290
     0
  0
SCALE
  5
4C
102
{ACAD_REACTORS
330
47
102
}
330
47
100
AcDbScale
 70
     0
300
1:8
140
1.0
141
8.0
290
     0
  0
SCALE
  5
4D
102
{ACAD_REACTORS
330
47
102
}
330
47
100
AcDbScale
 70
     0
300
1:10
140
1.0
141
10.0
290
     0
  0
SCALE
  5
4E
102
{ACAD_REACTORS
330
47
102
}
330
47
100
AcDbScale
 70
     0
300
1:16
140
1.0
141
16.0
290
     0
  0
SCALE
  5
4F
102
{ACAD_REACTORS
330
47
102
}
330
47
100
AcDbScale
 70
     0
300
1:20
140
1.0
141
20.0
290
     0
  0
SCALE
  5
50
102
{ACAD_REACTORS
330
47
102
}
330
47
100
AcDbScale
 70
     0
300
1:30
140
1.0
141
30.0
290
     0
  0
SCALE
  5
51
102
{ACAD_REACTORS
330
47
102
}
330
47
100
AcDbScale
 70
     0
300
1:40
140
1.0
141
40.0
290
     0
  0
SCALE
  5
52
102
{ACAD_REACTORS
330
47
102
}
330
47
100
AcDbScale
 70
     0
300
1:50
140
1.0
141
50.0
290
     0
  0
SCALE
  5
53
102
{ACAD_REACTORS
330
47
102
}
330
47
100
AcDbScale
 70
     0
300
1:100
140
1.0
141
100.0
290
     0
  0
SCALE
  5
54
102
{ACAD_REACTORS
330
47
102
}
330
47
100
AcDbScale
 70
     0
300
2:1
140
2.0
141
1.0
290
     0
  0
SCALE
  5
55
102
{ACAD_REACTORS
330
47
102
}
330
47
100
AcDbScale
 70
     0
300
4:1
140
4.0
141
1.0
290
     0
  0
SCALE
  5
56
102
{ACAD_REACTORS
330
47
102
}
330
47
100
AcDbScale
 70
     0
300
8:1
140
8.0
141
1.0
290
     0
  0
SCALE
  5
57
102
{ACAD_REACTORS
330
47
102
}
330
47
100
AcDbScale
 70
     0
300
10:1
140
10.0
141
1.0
290
     0
  0
SCALE
  5
58
102
{ACAD_REACTORS
330
47
102
}
330
47
100
AcDbScale
 70
     0
300
100:1
140
100.0
141
1.0
290
     0
  0
SCALE
  5
59
102
{ACAD_REACTORS
330
47
102
}
330
47
100
AcDbScale
 70
     0
300
1/128" = 1'-0"
140
0.0078125
141
12.0
290
     0
  0
SCALE
  5
5A
102
{ACAD_REACTORS
330
47
102
}
330
47
100
AcDbScale
 70
     0
300
1/64" = 1'-0"
140
0.015625
141
12.0
290
     0
  0
SCALE
  5
5B
102
{ACAD_REACTORS
330
47
102
}
330
47
100
AcDbScale
 70
     0
300
1/32" = 1'-0"
140
0.03125
141
12.0
290
     0
  0
SCALE
  5
5C
102
{ACAD_REACTORS
330
47
102
}
330
47
100
AcDbScale
 70
     0
300
1/16" = 1'-0"
140
0.0625
141
12.0
290
     0
  0
SCALE
  5
5D
102
{ACAD_REACTORS
330
47
102
}
330
47
100
AcDbScale
 70
     0
300
3/32" = 1'-0"
140
0.09375
141
12.0
290
     0
  0
SCALE
  5
5E
102
{ACAD_REACTORS
330
47
102
}
330
47
100
AcDbScale
 70
     0
300
1/8" = 1'-0"
140
0.125
141
12.0
290
     0
  0
SCALE
  5
5F
102
{ACAD_REACTORS
330
47
102
}
330
47
100
AcDbScale
 70
     0
300
3/16" = 1'-0"
140
0.1875
141
12.0
290
     0
  0
SCALE
  5
60
102
{ACAD_REACTORS
330
47
102
}
330
47
100
AcDbScale
 70
     0
300
1/4" = 1'-0"
140
0.25
141
12.0
290
     0
  0
SCALE
  5
61
102
{ACAD_REACTORS
330
47
102
}
330
47
100
AcDbScale
 70
     0
300
3/8" = 1'-0"
140
0.375
141
12.0
290
     0
  0
SCALE
  5
62
102
{ACAD_REACTORS
330
47
102
}
330
47
100
AcDbScale
 70
     0
300
1/2" = 1'-0"
140
0.5
141
12.0
290
     0
  0
SCALE
  5
63
102
{ACAD_REACTORS
330
47
102
}
330
47
100
AcDbScale
 70
     0
300
3/4" = 1'-0"
140
0.75
141
12.0
290
     0
  0
SCALE
  5
64
102
{ACAD_REACTORS
330
47
102
}
330
47
100
AcDbScale
 70
     0
300
1" = 1'-0"
140
1.0
141
12.0
290
     0
  0
SCALE
  5
65
102
{ACAD_REACTORS
330
47
102
}
330
47
100
AcDbScale
 70
     0
300
1-1/2" = 1'-0"
140
1.5
141
12.0
290
     0
  0
SCALE
  5
66
102
{ACAD_REACTORS
330
47
102
}
330
47
100
AcDbScale
 70
     0
300
3" = 1'-0"
140
3.0
141
12.0
290
     0
  0
SCALE
  5
67
102
{ACAD_REACTORS
330
47
102
}
330
47
100
AcDbScale
 70
     0
300
6" = 1'-0"
140
6.0
141
12.0
290
     0
  0
SCALE
  5
68
102
{ACAD_REACTORS
330
47
102
}
330
47
100
AcDbScale
 70
     0
300
1'-0" = 1'-0"
140
12.0
141
12.0
290
     0
  0
TABLESTYLE
  5
6A
102
{ACAD_REACTORS
330
69
102
}
102
{ACAD_XDICTIONARY
360
49C
102
}
330
69
100
AcDbTableStyle
  3
Standard
 70
     0
 71
     0
 40
0.06
 41
0.06
280
     0
281
     0
  7
Standard
140
0.18
170
     2
 62
     0
 63
   257
283
     0
 90
        4
 91
        0
  1

274
    -2
284
     1
 64
     0
275
    -2
285
     1
 65
     0
276
    -2
286
     1
 66
     0
277
    -2
287
     1
 67
     0
278
    -2
288
     1
 68
     0
279
    -2
289
     1
 69
     0
  7
Standard
140
0.25
170
     5
 62
     0
 63
   257
283
     0
 90
        4
 91
        0
  1

274
    -2
284
     1
 64
     0
275
    -2
285
     1
 65
     0
276
    -2
286
     1
 66
     0
277
    -2
287
     1
 67
     0
278
    -2
288
     1
 68
     0
279
    -2
289
     1
 69
     0
  7
Standard
140
0.18
170
     5
 62
     0
 63
   257
283
     0
 90
        4
 91
        0
  1

274
    -2
284
     1
 64
     0
275
    -2
285
     1
 65
     0
276
    -2
286
     1
 66
     0
277
    -2
287
     1
 67
     0
278
    -2
288
     1
 68
     0
279
    -2
289
     1
 69
     0
  0
VISUALSTYLE
  5
2F
102
{ACAD_REACTORS
330
2A
102
}
102
{ACAD_XDICTIONARY
360
474
102
}
330
2A
100
AcDbVisualStyle
  2
2dWireframe
 70
     4
 71
     0
 72
     2
 73
     0
 90
        0
 40
0.6
 41
30.0
 62
     5
 63
     7
421
 16777215
 74
     1
 91
        4
 64
     7
 65
   257
 75
     1
175
     1
 42
1.0
 92
        0
 66
   257
 43
1.0
 76
     1
 77
     6
 78
     2
 67
     7
 79
     5
170
     0
171
     0
290
     0
174
     0
 93
        1
 44
0.0
173
     0
291
     0
 45
0.0
  0
VISUALSTYLE
  5
32
102
{ACAD_REACTORS
330
2A
102
}
102
{ACAD_XDICTIONARY
360
47A
102
}
330
2A
100
AcDbVisualStyle
  2
Basic
 70
     7
 71
     1
 72
     0
 73
     1
 90
        0
 40
0.6
 41
30.0
 62
     5
 63
     7
421
 16777215
 74
     0
 91
        4
 64
     7
 65
   257
 75
     1
175
     1
 42
1.0
 92
        8
 66
     7
 43
1.0
 76
     1
 77
     6
 78
     2
 67
     7
 79
     5
170
     0
171
     0
290
     0
174
     0
 93
        1
 44
0.0
173
     0
291
     1
 45
0.0
  0
VISUALSTYLE
  5
36
102
{ACAD_REACTORS
330
2A
102
}
102
{ACAD_XDICTIONARY
360
482
102
}
330
2A
100
AcDbVisualStyle
  2
Brighten
 70
    12
 71
     2
 72
     2
 73
     0
 90
        0
 40
0.6
 41
30.0
 62
     5
 63
     7
421
 16777215
 74
     1
 91
        4
 64
     7
 65
   257
 75
     1
175
     1
 42
1.0
 92
        8
 66
     7
 43
1.0
 76
     1
 77
     6
 78
     2
 67
     7
 79
     5
170
     0
171
     0
290
     0
174
     0
 93
        1
 44
50.0
173
     0
291
     1
 45
0.0
  0
VISUALSTYLE
  5
3A
102
{ACAD_REACTORS
330
2A
102
}
102
{ACAD_XDICTIONARY
360
48A
102
}
330
2A
100
AcDbVisualStyle
  2
ColorChange
 70
    16
 71
     2
 72
     2
 73
     3
 90
        0
 40
0.6
 41
30.0
 62
     5
 63
     8
421
  8421504
 74
     1
 91
        4
 64
     7
 65
   257
 75
     1
175
     1
 42
1.0
 92
        8
 66
     8
424
  8421504
 43
1.0
 76
     1
 77
     6
 78
     2
 67
     7
 79
     5
170
     0
171
     0
290
     0
174
     0
 93
        1
 44
0.0
173
     0
291
     1
 45
0.0
  0
VISUALSTYLE
  5
34
102
{ACAD_REACTORS
330
2A
102
}
102
{ACAD_XDICTIONARY
360
47E
102
}
330
2A
100
AcDbVisualStyle
  2
Conceptual
 70
     9
 71
     3
 72
     2
 73
     0
 90
        0
 40
0.6
 41
30.0
 62
     5
 63
     7
421
 16777215
 74
     2
 91
        2
 64
     7
 65
   257
 75
     1
175
     1
 42
179.0
 92
        8
 66
     7
 43
1.0
 76
     1
 77
     6
 78
     2
 67
     7
 79
     3
170
     0
171
     0
290
     0
174
     0
 93
        1
 44
0.0
173
     0
291
     0
 45
0.0
  0
VISUALSTYLE
  5
35
102
{ACAD_REACTORS
330
2A
102
}
102
{ACAD_XDICTIONARY
360
480
102
}
330
2A
100
AcDbVisualStyle
  2
Dim
 70
    11
 71
     2
 72
     2
 73
     0
 90
        0
 40
0.6
 41
30.0
 62
     5
 63
     7
421
 16777215
 74
     1
 91
        4
 64
     7
 65
   257
 75
     1
175
     1
 42
1.0
 92
        8
 66
     7
 43
1.0
 76
     1
 77
     6
 78
     2
 67
     7
 79
     5
170
     0
171
     0
290
     0
174
     0
 93
        1
 44
-50.0
173
     0
291
     1
 45
0.0
  0
VISUALSTYLE
  5
3D
102
{ACAD_REACTORS
330
2A
102
}
102
{ACAD_XDICTIONARY
360
490
102
}
330
2A
100
AcDbVisualStyle
  2
EdgeColorOff
 70
    22
 71
     2
 72
     2
 73
     0
 90
        0
 40
0.6
 41
30.0
 62
     5
 63
     7
421
 16777215
 74
     1
 91
        4
 64
     7
 65
   257
 75
     1
175
     1
 42
1.0
 92
        8
 66
     7
 43
1.0
 76
     1
 77
     6
 78
     2
 67
     7
 79
     5
170
     0
171
     0
290
     0
174
     0
 93
        1
 44
0.0
173
     0
291
     1
 45
0.0
  0
VISUALSTYLE
  5
39
102
{ACAD_REACTORS
330
2A
102
}
102
{ACAD_XDICTIONARY
360
488
102
}
330
2A
100
AcDbVisualStyle
  2
Facepattern
 70
    15
 71
     2
 72
     2
 73
     0
 90
        0
 40
0.6
 41
30.0
 62
     5
 63
     7
421
 16777215
 74
     1
 91
        4
 64
     7
 65
   257
 75
     1
175
     1
 42
1.0
 92
        8
 66
     7
 43
1.0
 76
     1
 77
     6
 78
     2
 67
     7
 79
     5
170
     0
171
     0
290
     0
174
     0
 93
        1
 44
0.0
173
     0
291
     1
 45
0.0
  0
VISUALSTYLE
  5
2B
102
{ACAD_REACTORS
330
2A
102
}
102
{ACAD_XDICTIONARY
360
46C
102
}
330
2A
100
AcDbVisualStyle
  2
Flat
 70
     0
 71
     2
 72
     1
 73
     1
 90
        2
 40
0.6
 41
30.0
 62
     5
 63
     7
421
 16777215
 74
     0
 91
        0
 64
     7
 65
   257
 75
     1
175
     1
 42
1.0
 92
        8
 66
     7
 43
1.0
 76
     1
 77
     6
 78
     2
 67
     7
 79
     5
170
     0
171
     0
290
     0
174
     0
 93
       13
 44
0.0
173
     0
291
     1
 45
0.0
  0
VISUALSTYLE
  5
2C
102
{ACAD_REACTORS
330
2A
102
}
102
{ACAD_XDICTIONARY
360
46E
102
}
330
2A
100
AcDbVisualStyle
  2
FlatWithEdges
 70
     1
 71
     2
 72
     1
 73
     1
 90
        2
 40
0.6
 41
30.0
 62
     5
 63
     7
421
 16777215
 74
     1
 91
        0
 64
     7
 65
   257
 75
     1
175
     1
 42
1.0
 92
        0
 66
   257
 43
1.0
 76
     1
 77
     6
 78
     2
 67
     7
 79
     5
170
     0
171
     0
290
     0
174
     0
 93
       13
 44
0.0
173
     0
291
     1
 45
0.0
  0
VISUALSTYLE
  5
2D
102
{ACAD_REACTORS
330
2A
102
}
102
{ACAD_XDICTIONARY
360
470
102
}
330
2A
100
AcDbVisualStyle
  2
Gouraud
 70
     2
 71
     2
 72
     2
 73
     1
 90
        2
 40
0.6
 41
30.0
 62
     5
 63
     7
421
 16777215
 74
     0
 91
        0
 64
     7
 65
   257
 75
     1
175
     1
 42
1.0
 92
        0
 66
     7
 43
1.0
 76
     1
 77
     6
 78
     2
 67
     7
 79
     5
170
     0
171
     0
290
     0
174
     0
 93
       13
 44
0.0
173
     0
291
     1
 45
0.0
  0
VISUALSTYLE
  5
2E
102
{ACAD_REACTORS
330
2A
102
}
102
{ACAD_XDICTIONARY
360
472
102
}
330
2A
100
AcDbVisualStyle
  2
GouraudWithEdges
 70
     3
 71
     2
 72
     2
 73
     1
 90
        2
 40
0.6
 41
30.0
 62
     5
 63
     7
421
 16777215
 74
     1
 91
        0
 64
     7
 65
   257
 75
     1
175
     1
 42
1.0
 92
        0
 66
   257
 43
1.0
 76
     1
 77
     6
 78
     2
 67
     7
 79
     5
170
     0
171
     0
290
     0
174
     0
 93
       13
 44
0.0
173
     0
291
     1
 45
0.0
  0
VISUALSTYLE
  5
31
102
{ACAD_REACTORS
330
2A
102
}
102
{ACAD_XDICTIONARY
360
478
102
}
330
2A
100
AcDbVisualStyle
  2
Hidden
 70
     6
 71
     1
 72
     2
 73
     2
 90
        0
 40
0.6
 41
30.0
 62
     5
 63
     7
421
 16777215
 74
     2
 91
        2
 64
     7
 65
   257
 75
     2
175
     1
 42
40.0
 92
        0
 66
   257
 43
1.0
 76
     1
 77
     6
 78
     2
 67
     7
 79
     3
170
     0
171
     0
290
     0
174
     0
 93
        1
 44
0.0
173
     0
291
     0
 45
0.0
  0
VISUALSTYLE
  5
3B
102
{ACAD_REACTORS
330
2A
102
}
102
{ACAD_XDICTIONARY
360
48C
102
}
330
2A
100
AcDbVisualStyle
  2
JitterOff
 70
    20
 71
     2
 72
     2
 73
     0
 90
        0
 40
0.6
 41
30.0
 62
     5
 63
     7
421
 16777215
 74
     1
 91
        4
 64
     7
 65
   257
 75
     1
175
     1
 42
1.0
 92
       10
 66
     7
 43
1.0
 76
     1
 77
     6
 78
     2
 67
     7
 79
     5
170
     0
171
     0
290
     0
174
     0
 93
        1
 44
0.0
173
     0
291
     1
 45
0.0
  0
VISUALSTYLE
  5
38
102
{ACAD_REACTORS
330
2A
102
}
102
{ACAD_XDICTIONARY
360
486
102
}
330
2A
100
AcDbVisualStyle
  2
Linepattern
 70
    14
 71
     2
 72
     2
 73
     0
 90
        0
 40
0.6
 41
30.0
 62
     5
 63
     7
421
 16777215
 74
     1
 91
        4
 64
     7
 65
   257
 75
     7
175
     7
 42
1.0
 92
        8
 66
     7
 43
1.0
 76
     1
 77
     6
 78
     2
 67
     7
 79
     5
170
     0
171
     0
290
     0
174
     0
 93
        1
 44
0.0
173
     0
291
     1
 45
0.0
  0
VISUALSTYLE
  5
3C
102
{ACAD_REACTORS
330
2A
102
}
102
{ACAD_XDICTIONARY
360
48E
102
}
330
2A
100
AcDbVisualStyle
  2
OverhangOff
 70
    21
 71
     2
 72
     2
 73
     0
 90
        0
 40
0.6
 41
30.0
 62
     5
 63
     7
421
 16777215
 74
     1
 91
        4
 64
     7
 65
   257
 75
     1
175
     1
 42
1.0
 92
        9
 66
     7
 43
1.0
 76
     1
 77
     6
 78
     2
 67
     7
 79
     5
170
     0
171
     0
290
     0
174
     0
 93
        1
 44
0.0
173
     0
291
     1
 45
0.0
  0
VISUALSTYLE
  5
33
102
{ACAD_REACTORS
330
2A
102
}
102
{ACAD_XDICTIONARY
360
47C
102
}
330
2A
100
AcDbVisualStyle
  2
Realistic
 70
     8
 71
     2
 72
     3
 73
     0
 90
        2
 40
0.6
 41
30.0
 62
     5
 63
     7
421
 16777215
 74
     0
 91
        0
 64
     7
 65
   257
 75
     1
175
     1
 42
1.0
 92
        8
 66
   257
 43
1.0
 76
     1
 77
     6
 78
     2
 67
     7
 79
     3
170
     0
171
     0
290
     0
174
     0
 93
       13
 44
0.0
173
     0
291
     0
 45
0.0
  0
VISUALSTYLE
  5
42
102
{ACAD_REACTORS
330
2A
102
}
102
{ACAD_XDICTIONARY
360
49A
102
}
330
2A
100
AcDbVisualStyle
  2
Shaded
 70
    27
 71
     2
 72
     2
 73
     1
 90
        2
 40
0.6
 41
30.0
 62
     5
 63
     7
421
 16777215
 74
     0
 91
        4
 64
     7
 65
   257
 75
     1
175
     1
 42
1.0
 92
        8
 66
   257
 43
1.0
 76
     1
 77
     6
 78
     2
 67
     8
425
  7895160
 79
     3
170
     0
171
     0
290
     0
174
     0
 93
        5
 44
0.0
173
     0
291
     0
 45
0.0
  0
VISUALSTYLE
  5
41
102
{ACAD_REACTORS
330
2A
102
}
102
{ACAD_XDICTIONARY
360
498
102
}
330
2A
100
AcDbVisualStyle
  2
Shaded with edges
 70
    26
 71
     2
 72
     2
 73
     1
 90
        2
 40
0.6
 41
30.0
 62
     5
 63
     7
421
 16777215
 74
     1
 91
       10
 64
     7
 65
   257
 75
     2
175
     1
 42
1.0
 92
        8
 66
   257
 43
1.0
 76
     1
 77
     6
 78
     2
 67
     7
 79
     3
170
     0
171
     0
290
     0
174
     0
 93
        5
 44
0.0
173
     0
291
     0
 45
0.0
  0
VISUALSTYLE
  5
3E
102
{ACAD_REACTORS
330
2A
102
}
102
{ACAD_XDICTIONARY
360
492
102
}
330
2A
100
AcDbVisualStyle
  2
Shades of Gray
 70
    23
 71
     2
 72
     2
 73
     3
 90
        0
 40
0.6
 41
30.0
 62
     5
 63
     7
421
 16777215
 74
     2
 91
        2
 64
     7
 65
     7
 75
     1
175
     1
 42
40.0
 92
        8
 66
     7
 43
1.0
 76
     1
 77
     6
 78
     2
 67
     7
 79
     3
170
     0
171
     0
290
     0
174
     0
 93
        1
 44
0.0
173
     0
291
     0
 45
0.0
  0
VISUALSTYLE
  5
3F
102
{ACAD_REACTORS
330
2A
102
}
102
{ACAD_XDICTIONARY
360
494
102
}
330
2A
100
AcDbVisualStyle
  2
Sketchy
 70
    24
 71
     1
 72
     2
 73
     2
 90
        0
 40
0.6
 41
30.0
 62
     5
 63
     7
421
 16777215
 74
     2
 91
        2
 64
     7
 65
     7
 75
     1
175
     1
 42
40.0
 92
       11
 66
     7
 43
1.0
 76
     1
 77
     6
 78
     2
 67
     7
 79
     6
170
     0
171
     0
290
     0
174
     0
 93
        1
 44
0.0
173
     0
291
     0
 45
0.0
  0
VISUALSTYLE
  5
37
102
{ACAD_REACTORS
330
2A
102
}
102
{ACAD_XDICTIONARY
360
484
102
}
330
2A
100
AcDbVisualStyle
  2
Thicken
 70
    13
 71
     2
 72
     2
 73
     0
 90
        0
 40
0.6
 41
30.0
 62
     5
 63
     7
421
 16777215
 74
     1
 91
        4
 64
     7
 65
   257
 75
     1
175
     1
 42
1.0
 92
       12
 66
     7
 43
1.0
 76
     1
 77
     6
 78
     2
 67
     7
 79
     5
170
     0
171
     0
290
     0
174
     0
 93
        1
 44
0.0
173
     0
291
     1
 45
0.0
  0
VISUALSTYLE
  5
30
102
{ACAD_REACTORS
330
2A
102
}
102
{ACAD_XDICTIONARY
360
476
102
}
330
2A
100
AcDbVisualStyle
  2
Wireframe
 70
     5
 71
     0
 72
     2
 73
     0
 90
        0
 40
0.6
 41
30.0
 62
     5
 63
     7
421
 16777215
 74
     1
 91
        4
 64
     7
 65
   257
 75
     1
175
     1
 42
1.0
 92
        0
 66
   257
 43
1.0
 76
     1
 77
     6
 78
     2
 67
     7
 79
     3
170
     0
171
     0
290
     0
174
     0
 93
        1
 44
0.0
173
     0
291
     0
 45
0.0
  0
VISUALSTYLE
  5
40
102
{ACAD_REACTORS
330
2A
102
}
102
{ACAD_XDICTIONARY
360
496
102
}
330
2A
100
AcDbVisualStyle
  2
X-Ray
 70
    25
 71
     2
 72
     2
 73
     1
 90
        1
 40
0.5
 41
30.0
 62
     5
 63
     7
421
 16777215
 74
     1
 91
        0
 64
     7
 65
   257
 75
     1
175
     1
 42
1.0
 92
        8
 66
     7
 43
1.0
 76
     1
 77
     6
 78
     2
 67
     7
 79
     3
170
     0
171
     0
290
     0
174
     0
 93
       13
 44
0.0
173
     0
291
     0
 45
0.0
  0
DICTIONARYVAR
  5
46A
102
{ACAD_REACTORS
330
469
102
}
330
469
100
DictionaryVariables
280
     0
  1
1:1
  0
DICTIONARYVAR
  5
4A3
102
{ACAD_REACTORS
330
469
102
}
330
469
100
DictionaryVariables
280
     0
  1
Standard
  0
DICTIONARYVAR
  5
4A2
102
{ACAD_REACTORS
330
469
102
}
330
469
100
DictionaryVariables
280
     0
  1
Standard
  0
DICTIONARYVAR
  5
46B
102
{ACAD_REACTORS
330
469
102
}
330
469
100
DictionaryVariables
280
     0
  1
2
  0
DICTIONARY
  5
49F
330
6C
100
AcDbDictionary
280
     1
281
     1
  3
ACAD_XREC_ROUNDTRIP
360
4A0
  0
DICTIONARY
  5
49C
330
6A
100
AcDbDictionary
280
     1
281
     1
  3
ACAD_ROUNDTRIP_2008_TABLESTYLE_CELLSTYLEMAP
360
49D
  0
DICTIONARY
  5
474
330
2F
100
AcDbDictionary
280
     1
281
     1
  3
ACAD_XREC_ROUNDTRIP
360
475
  0
DICTIONARY
  5
47A
330
32
100
AcDbDictionary
280
     1
281
     1
  3
ACAD_XREC_ROUNDTRIP
360
47B
  0
DICTIONARY
  5
482
330
36
100
AcDbDictionary
280
     1
281
     1
  3
ACAD_XREC_ROUNDTRIP
360
483
  0
DICTIONARY
  5
48A
330
3A
100
AcDbDictionary
280
     1
281
     1
  3
ACAD_XREC_ROUNDTRIP
360
48B
  0
DICTIONARY
  5
47E
330
34
100
AcDbDictionary
280
     1
281
     1
  3
ACAD_XREC_ROUNDTRIP
360
47F
  0
DICTIONARY
  5
480
330
35
100
AcDbDictionary
280
     1
281
     1
  3
ACAD_XREC_ROUNDTRIP
360
481
  0
DICTIONARY
  5
490
330
3D
100
AcDbDictionary
280
     1
281
     1
  3
ACAD_XREC_ROUNDTRIP
360
491
  0
DICTIONARY
  5
488
330
39
100
AcDbDictionary
280
     1
281
     1
  3
ACAD_XREC_ROUNDTRIP
360
489
  0
DICTIONARY
  5
46C
330
2B
100
AcDbDictionary
280
     1
281
     1
  3
ACAD_XREC_ROUNDTRIP
360
46D
  0
DICTIONARY
  5
46E
330
2C
100
AcDbDictionary
280
     1
281
     1
  3
ACAD_XREC_ROUNDTRIP
360
46F
  0
DICTIONARY
  5
470
330
2D
100
AcDbDictionary
280
     1
281
     1
  3
ACAD_XREC_ROUNDTRIP
360
471
  0
DICTIONARY
  5
472
330
2E
100
AcDbDictionary
280
     1
281
     1
  3
ACAD_XREC_ROUNDTRIP
360
473
  0
DICTIONARY
  5
478
330
31
100
AcDbDictionary
280
     1
281
     1
  3
ACAD_XREC_ROUNDTRIP
360
479
  0
DICTIONARY
  5
48C
330
3B
100
AcDbDictionary
280
     1
281
     1
  3
ACAD_XREC_ROUNDTRIP
360
48D
  0
DICTIONARY
  5
486
330
38
100
AcDbDictionary
280
     1
281
     1
  3
ACAD_XREC_ROUNDTRIP
360
487
  0
DICTIONARY
  5
48E
330
3C
100
AcDbDictionary
280
     1
281
     1
  3
ACAD_XREC_ROUNDTRIP
360
48F
  0
DICTIONARY
  5
47C
330
33
100
AcDbDictionary
280
     1
281
     1
  3
ACAD_XREC_ROUNDTRIP
360
47D
  0
DICTIONARY
  5
49A
330
42
100
AcDbDictionary
280
     1
281
     1
  3
ACAD_XREC_ROUNDTRIP
360
49B
  0
DICTIONARY
  5
498
330
41
100
AcDbDictionary
280
     1
281
     1
  3
ACAD_XREC_ROUNDTRIP
360
499
  0
DICTIONARY
  5
492
330
3E
100
AcDbDictionary
280
     1
281
     1
  3
ACAD_XREC_ROUNDTRIP
360
493
  0
DICTIONARY
  5
494
330
3F
100
AcDbDictionary
280
     1
281
     1
  3
ACAD_XREC_ROUNDTRIP
360
495
  0
DICTIONARY
  5
484
330
37
100
AcDbDictionary
280
     1
281
     1
  3
ACAD_XREC_ROUNDTRIP
360
485
  0
DICTIONARY
  5
476
330
30
100
AcDbDictionary
280
     1
281
     1
  3
ACAD_XREC_ROUNDTRIP
360
477
  0
DICTIONARY
  5
496
330
40
100
AcDbDictionary
280
     1
281
     1
  3
ACAD_XREC_ROUNDTRIP
360
497
  0
XRECORD
  5
4A0
102
{ACAD_REACTORS
330
49F
102
}
330
49F
100
AcDbXrecord
280
     1
102
ACAD_ROUNDTRIP_2010_MLEADER_STYLE
  0
CELLSTYLEMAP
  5
49D
102
{ACAD_REACTORS
330
49C
102
}
330
49C
100
AcDbCellStyleMap
 90
        3
300
CELLSTYLE
  1
TABLEFORMAT_BEGIN
 90
        5
170
     1
 91
        0
 92
    32768
 62
   257
 93
        1
300
CONTENTFORMAT
  1
CONTENTFORMAT_BEGIN
 90
        0
 91
        0
 92
        4
 93
        0
300

 40
0.0
140
1.0
 94
        5
 62
     0
340
11
144
0.25
309
CONTENTFORMAT_END
171
     1
301
MARGIN
  1
CELLMARGIN_BEGIN
 40
0.06
 40
0.06
 40
0.06
 40
0.06
 40
0.06
 40
0.06
309
CELLMARGIN_END
 94
        6
 95
        1
302
GRIDFORMAT
  1
GRIDFORMAT_BEGIN
 90
        0
 91
        1
 62
     0
 92
       -2
340
14
 93
        0
 40
0.045
309
GRIDFORMAT_END
 95
        2
302
GRIDFORMAT
  1
GRIDFORMAT_BEGIN
 90
        0
 91
        1
 62
     0
 92
       -2
340
14
 93
        0
 40
0.045
309
GRIDFORMAT_END
 95
        4
302
GRIDFORMAT
  1
GRIDFORMAT_BEGIN
 90
        0
 91
        1
 62
     0
 92
       -2
340
14
 93
        0
 40
0.045
309
GRIDFORMAT_END
 95
        8
302
GRIDFORMAT
  1
GRIDFORMAT_BEGIN
 90
        0
 91
        1
 62
     0
 92
       -2
340
14
 93
        0
 40
0.045
309
GRIDFORMAT_END
 95
       16
302
GRIDFORMAT
  1
GRIDFORMAT_BEGIN
 90
        0
 91
        1
 62
     0
 92
       -2
340
14
 93
        0
 40
0.045
309
GRIDFORMAT_END
 95
       32
302
GRIDFORMAT
  1
GRIDFORMAT_BEGIN
 90
        0
 91
        1
 62
     0
 92
       -2
340
14
 93
        0
 40
0.045
309
GRIDFORMAT_END
309
TABLEFORMAT_END
  1
CELLSTYLE_BEGIN
 90
        1
 91
        1
300
_TITLE
309
CELLSTYLE_END
300
CELLSTYLE
  1
TABLEFORMAT_BEGIN
 90
        5
170
     1
 91
        0
 92
        0
 62
   257
 93
        1
300
CONTENTFORMAT
  1
CONTENTFORMAT_BEGIN
 90
        0
 91
        0
 92
        4
 93
        0
300

 40
0.0
140
1.0
 94
        5
 62
     0
340
11
144
0.18
309
CONTENTFORMAT_END
171
     1
301
MARGIN
  1
CELLMARGIN_BEGIN
 40
0.06
 40
0.06
 40
0.06
 40
0.06
 40
0.06
 40
0.06
309
CELLMARGIN_END
 94
        6
 95
        1
302
GRIDFORMAT
  1
GRIDFORMAT_BEGIN
 90
        0
 91
        1
 62
     0
 92
       -2
340
14
 93
        0
 40
0.045
309
GRIDFORMAT_END
 95
        2
302
GRIDFORMAT
  1
GRIDFORMAT_BEGIN
 90
        0
 91
        1
 62
     0
 92
       -2
340
14
 93
        0
 40
0.045
309
GRIDFORMAT_END
 95
        4
302
GRIDFORMAT
  1
GRIDFORMAT_BEGIN
 90
        0
 91
        1
 62
     0
 92
       -2
340
14
 93
        0
 40
0.045
309
GRIDFORMAT_END
 95
        8
302
GRIDFORMAT
  1
GRIDFORMAT_BEGIN
 90
        0
 91
        1
 62
     0
 92
       -2
340
14
 93
        0
 40
0.045
309
GRIDFORMAT_END
 95
       16
302
GRIDFORMAT
  1
GRIDFORMAT_BEGIN
 90
        0
 91
        1
 62
     0
 92
       -2
340
14
 93
        0
 40
0.045
309
GRIDFORMAT_END
 95
       32
302
GRIDFORMAT
  1
GRIDFORMAT_BEGIN
 90
        0
 91
        1
 62
     0
 92
       -2
340
14
 93
        0
 40
0.045
309
GRIDFORMAT_END
309
TABLEFORMAT_END
  1
CELLSTYLE_BEGIN
 90
        2
 91
        1
300
_HEADER
309
CELLSTYLE_END
300
CELLSTYLE
  1
TABLEFORMAT_BEGIN
 90
        5
170
     1
 91
        0
 92
        0
 62
   257
 93
        1
300
CONTENTFORMAT
  1
CONTENTFORMAT_BEGIN
 90
        0
 91
        0
 92
        4
 93
        0
300

 40
0.0
140
1.0
 94
        2
 62
     0
340
11
144
0.18
309
CONTENTFORMAT_END
171
     1
301
MARGIN
  1
CELLMARGIN_BEGIN
 40
0.06
 40
0.06
 40
0.06
 40
0.06
 40
0.06
 40
0.06
309
CELLMARGIN_END
 94
        6
 95
        1
302
GRIDFORMAT
  1
GRIDFORMAT_BEGIN
 90
        0
 91
        1
 62
     0
 92
       -2
340
14
 93
        0
 40
0.045
309
GRIDFORMAT_END
 95
        2
302
GRIDFORMAT
  1
GRIDFORMAT_BEGIN
 90
        0
 91
        1
 62
     0
 92
       -2
340
14
 93
        0
 40
0.045
309
GRIDFORMAT_END
 95
        4
302
GRIDFORMAT
  1
GRIDFORMAT_BEGIN
 90
        0
 91
        1
 62
     0
 92
       -2
340
14
 93
        0
 40
0.045
309
GRIDFORMAT_END
 95
        8
302
GRIDFORMAT
  1
GRIDFORMAT_BEGIN
 90
        0
 91
        1
 62
     0
 92
       -2
340
14
 93
        0
 40
0.045
309
GRIDFORMAT_END
 95
       16
302
GRIDFORMAT
  1
GRIDFORMAT_BEGIN
 90
        0
 91
        1
 62
     0
 92
       -2
340
14
 93
        0
 40
0.045
309
GRIDFORMAT_END
 95
       32
302
GRIDFORMAT
  1
GRIDFORMAT_BEGIN
 90
        0
 91
        1
 62
     0
 92
       -2
340
14
 93
        0
 40
0.045
309
GRIDFORMAT_END
309
TABLEFORMAT_END
  1
CELLSTYLE_BEGIN
 90
        3
 91
        2
300
_DATA
309
CELLSTYLE_END
  0
XRECORD
  5
475
102
{ACAD_REACTORS
330
474
102
}
330
474
100
AcDbXrecord
280
     1
102
RTVSPropertyOp0
 70
     1
102
RTVSPropertyOp1
 70
     1
102
RTVSPropertyOp2
 70
     1
102
RTVSPropertyOp3
 70
     1
102
RTVSPropertyOp4
 70
     1
102
RTVSPropertyOp5
 70
     1
102
RTVSPropertyOp6
 70
     1
102
RTVSPropertyOp7
 70
     1
102
RTVSPropertyOp8
 70
     1
102
RTVSPropertyOp9
 70
     1
102
RTVSPropertyOp10
 70
     1
102
RTVSPropertyOp11
 70
     1
102
RTVSPropertyOp12
 70
     1
102
RTVSPropertyOp13
 70
     1
102
RTVSPropertyOp14
 70
     1
102
RTVSPropertyOp15
 70
     1
102
RTVSPropertyOp16
 70
     1
102
RTVSPropertyOp17
 70
     1
102
RTVSPropertyOp18
 70
     1
102
RTVSPropertyOp19
 70
     1
102
RTVSPropertyOp20
 70
     1
102
RTVSPropertyOp21
 70
     1
102
RTVSPropertyOp22
 70
     1
102
RTVSPropertyOp23
 70
     1
102
RTVSPropertyOp24
 70
     1
102
RTVSPropertyOp25
 70
     1
102
RTVSPropertyOp26
 70
     1
102
RTVSPropertyOp27
 70
     1
102
RTVSPropertyOp28
 70
     1
102
RTVSPropertyOp29
 70
     1
102
RTVSPropertyOp30
 70
     1
102
RTVSPropertyOp31
 70
     1
102
RTVSPropertyOp32
 70
     1
102
RTVSPropertyOp33
 70
     1
102
RTVSPropertyOp34
 70
     1
102
RTVSPropertyOp35
 70
     1
102
RTVSPropertyOp36
 70
     1
102
RTVSPropertyOp37
 70
     1
102
RTVSPropertyOp38
 70
     1
102
RTVSPropertyOp39
 70
     1
102
RTVSPropertyOp40
 70
     1
102
RTVSPropertyOp41
 70
     1
102
RTVSPropertyOp42
 70
     1
102
RTVSPropertyOp43
 70
     1
102
RTVSPropertyOp44
 70
     1
102
RTVSPropertyOp45
 70
     1
102
RTVSPropertyOp46
 70
     1
102
RTVSPropertyOp47
 70
     1
102
RTVSPropertyOp48
 70
     1
102
RTVSPropertyOp49
 70
     1
102
RTVSPropertyOp50
 70
     1
102
RTVSPropertyOp51
 70
     0
102
RTVSPropertyOp52
 70
     0
102
RTVSPropertyOp53
 70
     1
102
RTVSPropertyOp54
 70
     1
102
RTVSPropertyOp55
 70
     1
102
RTVSPropertyOp56
 70
     1
102
RTVSPropertyOp57
 70
     1
102
RTVSPost2010Prop28
280
     1
102
RTVSPost2010PropOp28
 70
     1
102
RTVSPost2010Prop29
280
     1
102
RTVSPost2010PropOp29
 70
     1
102
RTVSPost2010Prop30
280
     0
102
RTVSPost2010PropOp30
 70
     1
102
RTVSPost2010Prop31
280
     0
102
RTVSPost2010PropOp31
 70
     1
102
RTVSPost2010Prop32
280
     0
102
RTVSPost2010PropOp32
 70
     1
102
RTVSPost2010Prop33
280
     0
102
RTVSPost2010PropOp33
 70
     1
102
RTVSPost2010Prop34
280
     0
102
RTVSPost2010PropOp34
 70
     1
102
RTVSPost2010Prop35
280
     0
102
RTVSPost2010PropOp35
 70
     1
102
RTVSPost2010Prop36
280
     0
102
RTVSPost2010PropOp36
 70
     1
102
RTVSPost2010Prop37
 90
       50
102
RTVSPost2010PropOp37
 70
     1
102
RTVSPost2010Prop38
140
0.0
102
RTVSPost2010PropOp38
 70
     1
102
RTVSPost2010Prop39
140
1.0
102
RTVSPost2010PropOp39
 70
     1
102
RTVSPost2010Prop40
 90
        0
102
RTVSPost2010PropOp40
 70
     1
102
RTVSPost2010Prop41ColorIndex
 90
      178
102
RTVSPost2010Prop41ColorRGB
 90
        0
102
RTVSPost2010PropOp41
 70
     1
102
RTVSPost2010Prop42
 90
       50
102
RTVSPost2010PropOp42
 70
     1
102
RTVSPost2010Prop43
 90
        3
102
RTVSPost2010PropOp43
 70
     1
102
RTVSPost2010Prop44ColorIndex
 90
        5
102
RTVSPost2010Prop44ColorRGB
 90
      255
102
RTVSPost2010PropOp44
 70
     1
102
RTVSPost2010Prop45
280
     0
102
RTVSPost2010PropOp45
 70
     1
102
RTVSPost2010Prop46
 90
       50
102
RTVSPost2010PropOp46
 70
     1
102
RTVSPost2010Prop47
 90
       50
102
RTVSPost2010PropOp47
 70
     1
102
RTVSPost2010Prop48
 90
       50
102
RTVSPost2010PropOp48
 70
     1
102
RTVSPost2010Prop49
280
     0
102
RTVSPost2010PropOp49
 70
     1
102
RTVSPost2010Prop50
 90
       50
102
RTVSPost2010PropOp50
 70
     1
102
RTVSPost2010Prop51ColorIndex
 90
      256
102
RTVSPost2010Prop51ColorRGB
 90
-16777216
102
RTVSPost2010PropOp51
 70
     0
102
RTVSPost2010Prop52
140
1.0
102
RTVSPost2010PropOp52
 70
     0
102
RTVSPost2010Prop53
 90
        2
102
RTVSPost2010PropOp53
 70
     1
102
RTVSPost2010Prop54
  1
strokes_ogs.tif
102
RTVSPost2010PropOp54
 70
     1
102
RTVSPost2010Prop55
280
     0
102
RTVSPost2010PropOp55
 70
     1
102
RTVSPost2010Prop56
140
1.0
102
RTVSPost2010PropOp56
 70
     1
102
RTVSPost2010Prop57
140
1.0
102
RTVSPost2010PropOp57
 70
     1
  0
XRECORD
  5
47B
102
{ACAD_REACTORS
330
47A
102
}
330
47A
100
AcDbXrecord
280
     1
102
RTVSPropertyOp0
 70
     1
102
RTVSPropertyOp1
 70
     1
102
RTVSPropertyOp2
 70
     1
102
RTVSPropertyOp3
 70
     1
102
RTVSPropertyOp4
 70
     1
102
RTVSPropertyOp5
 70
     1
102
RTVSPropertyOp6
 70
     1
102
RTVSPropertyOp7
 70
     1
102
RTVSPropertyOp8
 70
     1
102
RTVSPropertyOp9
 70
     1
102
RTVSPropertyOp10
 70
     1
102
RTVSPropertyOp11
 70
     1
102
RTVSPropertyOp12
 70
     1
102
RTVSPropertyOp13
 70
     1
102
RTVSPropertyOp14
 70
     1
102
RTVSPropertyOp15
 70
     1
102
RTVSPropertyOp16
 70
     1
102
RTVSPropertyOp17
 70
     1
102
RTVSPropertyOp18
 70
     1
102
RTVSPropertyOp19
 70
     1
102
RTVSPropertyOp20
 70
     1
102
RTVSPropertyOp21
 70
     1
102
RTVSPropertyOp22
 70
     1
102
RTVSPropertyOp23
 70
     1
102
RTVSPropertyOp24
 70
     1
102
RTVSPropertyOp25
 70
     1
102
RTVSPropertyOp26
 70
     1
102
RTVSPropertyOp27
 70
     1
102
RTVSPropertyOp28
 70
     1
102
RTVSPropertyOp29
 70
     1
102
RTVSPropertyOp30
 70
     1
102
RTVSPropertyOp31
 70
     1
102
RTVSPropertyOp32
 70
     1
102
RTVSPropertyOp33
 70
     1
102
RTVSPropertyOp34
 70
     1
102
RTVSPropertyOp35
 70
     1
102
RTVSPropertyOp36
 70
     1
102
RTVSPropertyOp37
 70
     1
102
RTVSPropertyOp38
 70
     1
102
RTVSPropertyOp39
 70
     1
102
RTVSPropertyOp40
 70
     1
102
RTVSPropertyOp41
 70
     1
102
RTVSPropertyOp42
 70
     1
102
RTVSPropertyOp43
 70
     1
102
RTVSPropertyOp44
 70
     1
102
RTVSPropertyOp45
 70
     1
102
RTVSPropertyOp46
 70
     1
102
RTVSPropertyOp47
 70
     1
102
RTVSPropertyOp48
 70
     1
102
RTVSPropertyOp49
 70
     1
102
RTVSPropertyOp50
 70
     1
102
RTVSPropertyOp51
 70
     0
102
RTVSPropertyOp52
 70
     0
102
RTVSPropertyOp53
 70
     1
102
RTVSPropertyOp54
 70
     1
102
RTVSPropertyOp55
 70
     1
102
RTVSPropertyOp56
 70
     1
102
RTVSPropertyOp57
 70
     1
102
RTVSPost2010Prop28
280
     0
102
RTVSPost2010PropOp28
 70
     1
102
RTVSPost2010Prop29
280
     1
102
RTVSPost2010PropOp29
 70
     1
102
RTVSPost2010Prop30
280
     1
102
RTVSPost2010PropOp30
 70
     1
102
RTVSPost2010Prop31
280
     0
102
RTVSPost2010PropOp31
 70
     1
102
RTVSPost2010Prop32
280
     0
102
RTVSPost2010PropOp32
 70
     1
102
RTVSPost2010Prop33
280
     0
102
RTVSPost2010PropOp33
 70
     1
102
RTVSPost2010Prop34
280
     0
102
RTVSPost2010PropOp34
 70
     1
102
RTVSPost2010Prop35
280
     0
102
RTVSPost2010PropOp35
 70
     1
102
RTVSPost2010Prop36
280
     0
102
RTVSPost2010PropOp36
 70
     1
102
RTVSPost2010Prop37
 90
       50
102
RTVSPost2010PropOp37
 70
     1
102
RTVSPost2010Prop38
140
0.0
102
RTVSPost2010PropOp38
 70
     1
102
RTVSPost2010Prop39
140
1.0
102
RTVSPost2010PropOp39
 70
     1
102
RTVSPost2010Prop40
 90
        0
102
RTVSPost2010PropOp40
 70
     1
102
RTVSPost2010Prop41ColorIndex
 90
      178
102
RTVSPost2010Prop41ColorRGB
 90
        0
102
RTVSPost2010PropOp41
 70
     1
102
RTVSPost2010Prop42
 90
       50
102
RTVSPost2010PropOp42
 70
     1
102
RTVSPost2010Prop43
 90
        3
102
RTVSPost2010PropOp43
 70
     1
102
RTVSPost2010Prop44ColorIndex
 90
        5
102
RTVSPost2010Prop44ColorRGB
 90
      255
102
RTVSPost2010PropOp44
 70
     1
102
RTVSPost2010Prop45
280
     0
102
RTVSPost2010PropOp45
 70
     1
102
RTVSPost2010Prop46
 90
       50
102
RTVSPost2010PropOp46
 70
     1
102
RTVSPost2010Prop47
 90
       50
102
RTVSPost2010PropOp47
 70
     1
102
RTVSPost2010Prop48
 90
       50
102
RTVSPost2010PropOp48
 70
     1
102
RTVSPost2010Prop49
280
     0
102
RTVSPost2010PropOp49
 70
     1
102
RTVSPost2010Prop50
 90
       50
102
RTVSPost2010PropOp50
 70
     1
102
RTVSPost2010Prop51ColorIndex
 90
      256
102
RTVSPost2010Prop51ColorRGB
 90
-16777216
102
RTVSPost2010PropOp51
 70
     0
102
RTVSPost2010Prop52
140
1.0
102
RTVSPost2010PropOp52
 70
     0
102
RTVSPost2010Prop53
 90
        2
102
RTVSPost2010PropOp53
 70
     1
102
RTVSPost2010Prop54
  1
strokes_ogs.tif
102
RTVSPost2010PropOp54
 70
     1
102
RTVSPost2010Prop55
280
     0
102
RTVSPost2010PropOp55
 70
     1
102
RTVSPost2010Prop56
140
1.0
102
RTVSPost2010PropOp56
 70
     1
102
RTVSPost2010Prop57
140
1.0
102
RTVSPost2010PropOp57
 70
     1
  0
XRECORD
  5
483
102
{ACAD_REACTORS
330
482
102
}
330
482
100
AcDbXrecord
280
     1
102
RTVSPropertyOp0
 70
     1
102
RTVSPropertyOp1
 70
     1
102
RTVSPropertyOp2
 70
     1
102
RTVSPropertyOp3
 70
     1
102
RTVSPropertyOp4
 70
     1
102
RTVSPropertyOp5
 70
     1
102
RTVSPropertyOp6
 70
     1
102
RTVSPropertyOp7
 70
     1
102
RTVSPropertyOp8
 70
     1
102
RTVSPropertyOp9
 70
     1
102
RTVSPropertyOp10
 70
     1
102
RTVSPropertyOp11
 70
     1
102
RTVSPropertyOp12
 70
     1
102
RTVSPropertyOp13
 70
     1
102
RTVSPropertyOp14
 70
     1
102
RTVSPropertyOp15
 70
     1
102
RTVSPropertyOp16
 70
     1
102
RTVSPropertyOp17
 70
     1
102
RTVSPropertyOp18
 70
     1
102
RTVSPropertyOp19
 70
     1
102
RTVSPropertyOp20
 70
     1
102
RTVSPropertyOp21
 70
     1
102
RTVSPropertyOp22
 70
     1
102
RTVSPropertyOp23
 70
     1
102
RTVSPropertyOp24
 70
     1
102
RTVSPropertyOp25
 70
     1
102
RTVSPropertyOp26
 70
     1
102
RTVSPropertyOp27
 70
     1
102
RTVSPropertyOp28
 70
     1
102
RTVSPropertyOp29
 70
     1
102
RTVSPropertyOp30
 70
     1
102
RTVSPropertyOp31
 70
     1
102
RTVSPropertyOp32
 70
     1
102
RTVSPropertyOp33
 70
     1
102
RTVSPropertyOp34
 70
     1
102
RTVSPropertyOp35
 70
     1
102
RTVSPropertyOp36
 70
     1
102
RTVSPropertyOp37
 70
     1
102
RTVSPropertyOp38
 70
     1
102
RTVSPropertyOp39
 70
     1
102
RTVSPropertyOp40
 70
     1
102
RTVSPropertyOp41
 70
     1
102
RTVSPropertyOp42
 70
     1
102
RTVSPropertyOp43
 70
     1
102
RTVSPropertyOp44
 70
     1
102
RTVSPropertyOp45
 70
     1
102
RTVSPropertyOp46
 70
     1
102
RTVSPropertyOp47
 70
     1
102
RTVSPropertyOp48
 70
     1
102
RTVSPropertyOp49
 70
     1
102
RTVSPropertyOp50
 70
     1
102
RTVSPropertyOp51
 70
     0
102
RTVSPropertyOp52
 70
     0
102
RTVSPropertyOp53
 70
     1
102
RTVSPropertyOp54
 70
     1
102
RTVSPropertyOp55
 70
     1
102
RTVSPropertyOp56
 70
     1
102
RTVSPropertyOp57
 70
     1
102
RTVSPost2010Prop28
280
     0
102
RTVSPost2010PropOp28
 70
     1
102
RTVSPost2010Prop29
280
     1
102
RTVSPost2010PropOp29
 70
     1
102
RTVSPost2010Prop30
280
     1
102
RTVSPost2010PropOp30
 70
     1
102
RTVSPost2010Prop31
280
     0
102
RTVSPost2010PropOp31
 70
     1
102
RTVSPost2010Prop32
280
     0
102
RTVSPost2010PropOp32
 70
     1
102
RTVSPost2010Prop33
280
     0
102
RTVSPost2010PropOp33
 70
     1
102
RTVSPost2010Prop34
280
     0
102
RTVSPost2010PropOp34
 70
     1
102
RTVSPost2010Prop35
280
     0
102
RTVSPost2010PropOp35
 70
     1
102
RTVSPost2010Prop36
280
     0
102
RTVSPost2010PropOp36
 70
     1
102
RTVSPost2010Prop37
 90
       50
102
RTVSPost2010PropOp37
 70
     1
102
RTVSPost2010Prop38
140
0.0
102
RTVSPost2010PropOp38
 70
     1
102
RTVSPost2010Prop39
140
1.0
102
RTVSPost2010PropOp39
 70
     1
102
RTVSPost2010Prop40
 90
        0
102
RTVSPost2010PropOp40
 70
     1
102
RTVSPost2010Prop41ColorIndex
 90
      178
102
RTVSPost2010Prop41ColorRGB
 90
        0
102
RTVSPost2010PropOp41
 70
     1
102
RTVSPost2010Prop42
 90
       50
102
RTVSPost2010PropOp42
 70
     1
102
RTVSPost2010Prop43
 90
        3
102
RTVSPost2010PropOp43
 70
     1
102
RTVSPost2010Prop44ColorIndex
 90
        5
102
RTVSPost2010Prop44ColorRGB
 90
      255
102
RTVSPost2010PropOp44
 70
     1
102
RTVSPost2010Prop45
280
     0
102
RTVSPost2010PropOp45
 70
     1
102
RTVSPost2010Prop46
 90
       50
102
RTVSPost2010PropOp46
 70
     1
102
RTVSPost2010Prop47
 90
       50
102
RTVSPost2010PropOp47
 70
     1
102
RTVSPost2010Prop48
 90
       50
102
RTVSPost2010PropOp48
 70
     1
102
RTVSPost2010Prop49
280
     0
102
RTVSPost2010PropOp49
 70
     1
102
RTVSPost2010Prop50
 90
       50
102
RTVSPost2010PropOp50
 70
     1
102
RTVSPost2010Prop51ColorIndex
 90
      256
102
RTVSPost2010Prop51ColorRGB
 90
-16777216
102
RTVSPost2010PropOp51
 70
     0
102
RTVSPost2010Prop52
140
1.0
102
RTVSPost2010PropOp52
 70
     0
102
RTVSPost2010Prop53
 90
        2
102
RTVSPost2010PropOp53
 70
     1
102
RTVSPost2010Prop54
  1
strokes_ogs.tif
102
RTVSPost2010PropOp54
 70
     1
102
RTVSPost2010Prop55
280
     0
102
RTVSPost2010PropOp55
 70
     1
102
RTVSPost2010Prop56
140
1.0
102
RTVSPost2010PropOp56
 70
     1
102
RTVSPost2010Prop57
140
1.0
102
RTVSPost2010PropOp57
 70
     1
  0
XRECORD
  5
48B
102
{ACAD_REACTORS
330
48A
102
}
330
48A
100
AcDbXrecord
280
     1
102
RTVSPropertyOp0
 70
     1
102
RTVSPropertyOp1
 70
     1
102
RTVSPropertyOp2
 70
     1
102
RTVSPropertyOp3
 70
     1
102
RTVSPropertyOp4
 70
     1
102
RTVSPropertyOp5
 70
     1
102
RTVSPropertyOp6
 70
     1
102
RTVSPropertyOp7
 70
     1
102
RTVSPropertyOp8
 70
     1
102
RTVSPropertyOp9
 70
     1
102
RTVSPropertyOp10
 70
     1
102
RTVSPropertyOp11
 70
     1
102
RTVSPropertyOp12
 70
     1
102
RTVSPropertyOp13
 70
     1
102
RTVSPropertyOp14
 70
     1
102
RTVSPropertyOp15
 70
     1
102
RTVSPropertyOp16
 70
     1
102
RTVSPropertyOp17
 70
     1
102
RTVSPropertyOp18
 70
     1
102
RTVSPropertyOp19
 70
     1
102
RTVSPropertyOp20
 70
     1
102
RTVSPropertyOp21
 70
     1
102
RTVSPropertyOp22
 70
     1
102
RTVSPropertyOp23
 70
     1
102
RTVSPropertyOp24
 70
     1
102
RTVSPropertyOp25
 70
     1
102
RTVSPropertyOp26
 70
     1
102
RTVSPropertyOp27
 70
     1
102
RTVSPropertyOp28
 70
     1
102
RTVSPropertyOp29
 70
     1
102
RTVSPropertyOp30
 70
     1
102
RTVSPropertyOp31
 70
     1
102
RTVSPropertyOp32
 70
     1
102
RTVSPropertyOp33
 70
     1
102
RTVSPropertyOp34
 70
     1
102
RTVSPropertyOp35
 70
     1
102
RTVSPropertyOp36
 70
     1
102
RTVSPropertyOp37
 70
     1
102
RTVSPropertyOp38
 70
     1
102
RTVSPropertyOp39
 70
     1
102
RTVSPropertyOp40
 70
     1
102
RTVSPropertyOp41
 70
     1
102
RTVSPropertyOp42
 70
     1
102
RTVSPropertyOp43
 70
     1
102
RTVSPropertyOp44
 70
     1
102
RTVSPropertyOp45
 70
     1
102
RTVSPropertyOp46
 70
     1
102
RTVSPropertyOp47
 70
     1
102
RTVSPropertyOp48
 70
     1
102
RTVSPropertyOp49
 70
     1
102
RTVSPropertyOp50
 70
     1
102
RTVSPropertyOp51
 70
     0
102
RTVSPropertyOp52
 70
     0
102
RTVSPropertyOp53
 70
     1
102
RTVSPropertyOp54
 70
     1
102
RTVSPropertyOp55
 70
     1
102
RTVSPropertyOp56
 70
     1
102
RTVSPropertyOp57
 70
     1
102
RTVSPost2010Prop28
280
     0
102
RTVSPost2010PropOp28
 70
     1
102
RTVSPost2010Prop29
280
     1
102
RTVSPost2010PropOp29
 70
     1
102
RTVSPost2010Prop30
280
     1
102
RTVSPost2010PropOp30
 70
     1
102
RTVSPost2010Prop31
280
     0
102
RTVSPost2010PropOp31
 70
     1
102
RTVSPost2010Prop32
280
     0
102
RTVSPost2010PropOp32
 70
     1
102
RTVSPost2010Prop33
280
     0
102
RTVSPost2010PropOp33
 70
     1
102
RTVSPost2010Prop34
280
     0
102
RTVSPost2010PropOp34
 70
     1
102
RTVSPost2010Prop35
280
     0
102
RTVSPost2010PropOp35
 70
     1
102
RTVSPost2010Prop36
280
     0
102
RTVSPost2010PropOp36
 70
     1
102
RTVSPost2010Prop37
 90
       50
102
RTVSPost2010PropOp37
 70
     1
102
RTVSPost2010Prop38
140
0.0
102
RTVSPost2010PropOp38
 70
     1
102
RTVSPost2010Prop39
140
1.0
102
RTVSPost2010PropOp39
 70
     1
102
RTVSPost2010Prop40
 90
        0
102
RTVSPost2010PropOp40
 70
     1
102
RTVSPost2010Prop41ColorIndex
 90
      178
102
RTVSPost2010Prop41ColorRGB
 90
        0
102
RTVSPost2010PropOp41
 70
     1
102
RTVSPost2010Prop42
 90
       50
102
RTVSPost2010PropOp42
 70
     1
102
RTVSPost2010Prop43
 90
        3
102
RTVSPost2010PropOp43
 70
     1
102
RTVSPost2010Prop44ColorIndex
 90
        5
102
RTVSPost2010Prop44ColorRGB
 90
      255
102
RTVSPost2010PropOp44
 70
     1
102
RTVSPost2010Prop45
280
     0
102
RTVSPost2010PropOp45
 70
     1
102
RTVSPost2010Prop46
 90
       50
102
RTVSPost2010PropOp46
 70
     1
102
RTVSPost2010Prop47
 90
       50
102
RTVSPost2010PropOp47
 70
     1
102
RTVSPost2010Prop48
 90
       50
102
RTVSPost2010PropOp48
 70
     1
102
RTVSPost2010Prop49
280
     0
102
RTVSPost2010PropOp49
 70
     1
102
RTVSPost2010Prop50
 90
       50
102
RTVSPost2010PropOp50
 70
     1
102
RTVSPost2010Prop51ColorIndex
 90
      256
102
RTVSPost2010Prop51ColorRGB
 90
-16777216
102
RTVSPost2010PropOp51
 70
     0
102
RTVSPost2010Prop52
140
1.0
102
RTVSPost2010PropOp52
 70
     0
102
RTVSPost2010Prop53
 90
        2
102
RTVSPost2010PropOp53
 70
     1
102
RTVSPost2010Prop54
  1
strokes_ogs.tif
102
RTVSPost2010PropOp54
 70
     1
102
RTVSPost2010Prop55
280
     0
102
RTVSPost2010PropOp55
 70
     1
102
RTVSPost2010Prop56
140
1.0
102
RTVSPost2010PropOp56
 70
     1
102
RTVSPost2010Prop57
140
1.0
102
RTVSPost2010PropOp57
 70
     1
  0
XRECORD
  5
47F
102
{ACAD_REACTORS
330
47E
102
}
330
47E
100
AcDbXrecord
280
     1
102
RTVSPropertyOp0
 70
     1
102
RTVSPropertyOp1
 70
     1
102
RTVSPropertyOp2
 70
     1
102
RTVSPropertyOp3
 70
     1
102
RTVSPropertyOp4
 70
     1
102
RTVSPropertyOp5
 70
     1
102
RTVSPropertyOp6
 70
     1
102
RTVSPropertyOp7
 70
     1
102
RTVSPropertyOp8
 70
     1
102
RTVSPropertyOp9
 70
     1
102
RTVSPropertyOp10
 70
     1
102
RTVSPropertyOp11
 70
     1
102
RTVSPropertyOp12
 70
     1
102
RTVSPropertyOp13
 70
     1
102
RTVSPropertyOp14
 70
     1
102
RTVSPropertyOp15
 70
     1
102
RTVSPropertyOp16
 70
     1
102
RTVSPropertyOp17
 70
     1
102
RTVSPropertyOp18
 70
     1
102
RTVSPropertyOp19
 70
     1
102
RTVSPropertyOp20
 70
     1
102
RTVSPropertyOp21
 70
     1
102
RTVSPropertyOp22
 70
     1
102
RTVSPropertyOp23
 70
     1
102
RTVSPropertyOp24
 70
     1
102
RTVSPropertyOp25
 70
     1
102
RTVSPropertyOp26
 70
     1
102
RTVSPropertyOp27
 70
     1
102
RTVSPropertyOp28
 70
     1
102
RTVSPropertyOp29
 70
     1
102
RTVSPropertyOp30
 70
     1
102
RTVSPropertyOp31
 70
     1
102
RTVSPropertyOp32
 70
     1
102
RTVSPropertyOp33
 70
     1
102
RTVSPropertyOp34
 70
     1
102
RTVSPropertyOp35
 70
     1
102
RTVSPropertyOp36
 70
     1
102
RTVSPropertyOp37
 70
     1
102
RTVSPropertyOp38
 70
     1
102
RTVSPropertyOp39
 70
     1
102
RTVSPropertyOp40
 70
     1
102
RTVSPropertyOp41
 70
     1
102
RTVSPropertyOp42
 70
     1
102
RTVSPropertyOp43
 70
     1
102
RTVSPropertyOp44
 70
     1
102
RTVSPropertyOp45
 70
     1
102
RTVSPropertyOp46
 70
     1
102
RTVSPropertyOp47
 70
     1
102
RTVSPropertyOp48
 70
     1
102
RTVSPropertyOp49
 70
     1
102
RTVSPropertyOp50
 70
     1
102
RTVSPropertyOp51
 70
     0
102
RTVSPropertyOp52
 70
     0
102
RTVSPropertyOp53
 70
     1
102
RTVSPropertyOp54
 70
     1
102
RTVSPropertyOp55
 70
     1
102
RTVSPropertyOp56
 70
     1
102
RTVSPropertyOp57
 70
     1
102
RTVSPost2010Prop28
280
     0
102
RTVSPost2010PropOp28
 70
     1
102
RTVSPost2010Prop29
280
     1
102
RTVSPost2010PropOp29
 70
     1
102
RTVSPost2010Prop30
280
     1
102
RTVSPost2010PropOp30
 70
     1
102
RTVSPost2010Prop31
280
     0
102
RTVSPost2010PropOp31
 70
     1
102
RTVSPost2010Prop32
280
     0
102
RTVSPost2010PropOp32
 70
     1
102
RTVSPost2010Prop33
280
     0
102
RTVSPost2010PropOp33
 70
     1
102
RTVSPost2010Prop34
280
     0
102
RTVSPost2010PropOp34
 70
     1
102
RTVSPost2010Prop35
280
     0
102
RTVSPost2010PropOp35
 70
     1
102
RTVSPost2010Prop36
280
     0
102
RTVSPost2010PropOp36
 70
     1
102
RTVSPost2010Prop37
 90
       50
102
RTVSPost2010PropOp37
 70
     1
102
RTVSPost2010Prop38
140
0.0
102
RTVSPost2010PropOp38
 70
     1
102
RTVSPost2010Prop39
140
1.0
102
RTVSPost2010PropOp39
 70
     1
102
RTVSPost2010Prop40
 90
        0
102
RTVSPost2010PropOp40
 70
     1
102
RTVSPost2010Prop41ColorIndex
 90
      178
102
RTVSPost2010Prop41ColorRGB
 90
        0
102
RTVSPost2010PropOp41
 70
     1
102
RTVSPost2010Prop42
 90
       50
102
RTVSPost2010PropOp42
 70
     1
102
RTVSPost2010Prop43
 90
        3
102
RTVSPost2010PropOp43
 70
     1
102
RTVSPost2010Prop44ColorIndex
 90
        5
102
RTVSPost2010Prop44ColorRGB
 90
      255
102
RTVSPost2010PropOp44
 70
     1
102
RTVSPost2010Prop45
280
     0
102
RTVSPost2010PropOp45
 70
     1
102
RTVSPost2010Prop46
 90
       50
102
RTVSPost2010PropOp46
 70
     1
102
RTVSPost2010Prop47
 90
       50
102
RTVSPost2010PropOp47
 70
     1
102
RTVSPost2010Prop48
 90
       50
102
RTVSPost2010PropOp48
 70
     1
102
RTVSPost2010Prop49
280
     0
102
RTVSPost2010PropOp49
 70
     1
102
RTVSPost2010Prop50
 90
       50
102
RTVSPost2010PropOp50
 70
     1
102
RTVSPost2010Prop51ColorIndex
 90
      256
102
RTVSPost2010Prop51ColorRGB
 90
-16777216
102
RTVSPost2010PropOp51
 70
     0
102
RTVSPost2010Prop52
140
1.0
102
RTVSPost2010PropOp52
 70
     0
102
RTVSPost2010Prop53
 90
        2
102
RTVSPost2010PropOp53
 70
     1
102
RTVSPost2010Prop54
  1
strokes_ogs.tif
102
RTVSPost2010PropOp54
 70
     1
102
RTVSPost2010Prop55
280
     0
102
RTVSPost2010PropOp55
 70
     1
102
RTVSPost2010Prop56
140
1.0
102
RTVSPost2010PropOp56
 70
     1
102
RTVSPost2010Prop57
140
1.0
102
RTVSPost2010PropOp57
 70
     1
  0
XRECORD
  5
481
102
{ACAD_REACTORS
330
480
102
}
330
480
100
AcDbXrecord
280
     1
102
RTVSPropertyOp0
 70
     1
102
RTVSPropertyOp1
 70
     1
102
RTVSPropertyOp2
 70
     1
102
RTVSPropertyOp3
 70
     1
102
RTVSPropertyOp4
 70
     1
102
RTVSPropertyOp5
 70
     1
102
RTVSPropertyOp6
 70
     1
102
RTVSPropertyOp7
 70
     1
102
RTVSPropertyOp8
 70
     1
102
RTVSPropertyOp9
 70
     1
102
RTVSPropertyOp10
 70
     1
102
RTVSPropertyOp11
 70
     1
102
RTVSPropertyOp12
 70
     1
102
RTVSPropertyOp13
 70
     1
102
RTVSPropertyOp14
 70
     1
102
RTVSPropertyOp15
 70
     1
102
RTVSPropertyOp16
 70
     1
102
RTVSPropertyOp17
 70
     1
102
RTVSPropertyOp18
 70
     1
102
RTVSPropertyOp19
 70
     1
102
RTVSPropertyOp20
 70
     1
102
RTVSPropertyOp21
 70
     1
102
RTVSPropertyOp22
 70
     1
102
RTVSPropertyOp23
 70
     1
102
RTVSPropertyOp24
 70
     1
102
RTVSPropertyOp25
 70
     1
102
RTVSPropertyOp26
 70
     1
102
RTVSPropertyOp27
 70
     1
102
RTVSPropertyOp28
 70
     1
102
RTVSPropertyOp29
 70
     1
102
RTVSPropertyOp30
 70
     1
102
RTVSPropertyOp31
 70
     1
102
RTVSPropertyOp32
 70
     1
102
RTVSPropertyOp33
 70
     1
102
RTVSPropertyOp34
 70
     1
102
RTVSPropertyOp35
 70
     1
102
RTVSPropertyOp36
 70
     1
102
RTVSPropertyOp37
 70
     1
102
RTVSPropertyOp38
 70
     1
102
RTVSPropertyOp39
 70
     1
102
RTVSPropertyOp40
 70
     1
102
RTVSPropertyOp41
 70
     1
102
RTVSPropertyOp42
 70
     1
102
RTVSPropertyOp43
 70
     1
102
RTVSPropertyOp44
 70
     1
102
RTVSPropertyOp45
 70
     1
102
RTVSPropertyOp46
 70
     1
102
RTVSPropertyOp47
 70
     1
102
RTVSPropertyOp48
 70
     1
102
RTVSPropertyOp49
 70
     1
102
RTVSPropertyOp50
 70
     1
102
RTVSPropertyOp51
 70
     0
102
RTVSPropertyOp52
 70
     0
102
RTVSPropertyOp53
 70
     1
102
RTVSPropertyOp54
 70
     1
102
RTVSPropertyOp55
 70
     1
102
RTVSPropertyOp56
 70
     1
102
RTVSPropertyOp57
 70
     1
102
RTVSPost2010Prop28
280
     0
102
RTVSPost2010PropOp28
 70
     1
102
RTVSPost2010Prop29
280
     1
102
RTVSPost2010PropOp29
 70
     1
102
RTVSPost2010Prop30
280
     1
102
RTVSPost2010PropOp30
 70
     1
102
RTVSPost2010Prop31
280
     0
102
RTVSPost2010PropOp31
 70
     1
102
RTVSPost2010Prop32
280
     0
102
RTVSPost2010PropOp32
 70
     1
102
RTVSPost2010Prop33
280
     0
102
RTVSPost2010PropOp33
 70
     1
102
RTVSPost2010Prop34
280
     0
102
RTVSPost2010PropOp34
 70
     1
102
RTVSPost2010Prop35
280
     0
102
RTVSPost2010PropOp35
 70
     1
102
RTVSPost2010Prop36
280
     0
102
RTVSPost2010PropOp36
 70
     1
102
RTVSPost2010Prop37
 90
       50
102
RTVSPost2010PropOp37
 70
     1
102
RTVSPost2010Prop38
140
0.0
102
RTVSPost2010PropOp38
 70
     1
102
RTVSPost2010Prop39
140
1.0
102
RTVSPost2010PropOp39
 70
     1
102
RTVSPost2010Prop40
 90
        0
102
RTVSPost2010PropOp40
 70
     1
102
RTVSPost2010Prop41ColorIndex
 90
      178
102
RTVSPost2010Prop41ColorRGB
 90
        0
102
RTVSPost2010PropOp41
 70
     1
102
RTVSPost2010Prop42
 90
       50
102
RTVSPost2010PropOp42
 70
     1
102
RTVSPost2010Prop43
 90
        3
102
RTVSPost2010PropOp43
 70
     1
102
RTVSPost2010Prop44ColorIndex
 90
        5
102
RTVSPost2010Prop44ColorRGB
 90
      255
102
RTVSPost2010PropOp44
 70
     1
102
RTVSPost2010Prop45
280
     0
102
RTVSPost2010PropOp45
 70
     1
102
RTVSPost2010Prop46
 90
       50
102
RTVSPost2010PropOp46
 70
     1
102
RTVSPost2010Prop47
 90
       50
102
RTVSPost2010PropOp47
 70
     1
102
RTVSPost2010Prop48
 90
       50
102
RTVSPost2010PropOp48
 70
     1
102
RTVSPost2010Prop49
280
     0
102
RTVSPost2010PropOp49
 70
     1
102
RTVSPost2010Prop50
 90
       50
102
RTVSPost2010PropOp50
 70
     1
102
RTVSPost2010Prop51ColorIndex
 90
      256
102
RTVSPost2010Prop51ColorRGB
 90
-16777216
102
RTVSPost2010PropOp51
 70
     0
102
RTVSPost2010Prop52
140
1.0
102
RTVSPost2010PropOp52
 70
     0
102
RTVSPost2010Prop53
 90
        2
102
RTVSPost2010PropOp53
 70
     1
102
RTVSPost2010Prop54
  1
strokes_ogs.tif
102
RTVSPost2010PropOp54
 70
     1
102
RTVSPost2010Prop55
280
     0
102
RTVSPost2010PropOp55
 70
     1
102
RTVSPost2010Prop56
140
1.0
102
RTVSPost2010PropOp56
 70
     1
102
RTVSPost2010Prop57
140
1.0
102
RTVSPost2010PropOp57
 70
     1
  0
XRECORD
  5
491
102
{ACAD_REACTORS
330
490
102
}
330
490
100
AcDbXrecord
280
     1
102
RTVSPropertyOp0
 70
     0
102
RTVSPropertyOp1
 70
     0
102
RTVSPropertyOp2
 70
     0
102
RTVSPropertyOp3
 70
     0
102
RTVSPropertyOp4
 70
     0
102
RTVSPropertyOp5
 70
     0
102
RTVSPropertyOp6
 70
     0
102
RTVSPropertyOp7
 70
     0
102
RTVSPropertyOp8
 70
     0
102
RTVSPropertyOp9
 70
     0
102
RTVSPropertyOp10
 70
     0
102
RTVSPropertyOp11
 70
     0
102
RTVSPropertyOp12
 70
     0
102
RTVSPropertyOp13
 70
     0
102
RTVSPropertyOp14
 70
     2
102
RTVSPropertyOp15
 70
     0
102
RTVSPropertyOp16
 70
     0
102
RTVSPropertyOp17
 70
     0
102
RTVSPropertyOp18
 70
     0
102
RTVSPropertyOp19
 70
     0
102
RTVSPropertyOp20
 70
     0
102
RTVSPropertyOp21
 70
     0
102
RTVSPropertyOp22
 70
     0
102
RTVSPropertyOp23
 70
     0
102
RTVSPropertyOp24
 70
     0
102
RTVSPropertyOp25
 70
     0
102
RTVSPropertyOp26
 70
     0
102
RTVSPropertyOp27
 70
     0
102
RTVSPropertyOp28
 70
     0
102
RTVSPropertyOp29
 70
     0
102
RTVSPropertyOp30
 70
     0
102
RTVSPropertyOp31
 70
     0
102
RTVSPropertyOp32
 70
     0
102
RTVSPropertyOp33
 70
     0
102
RTVSPropertyOp34
 70
     0
102
RTVSPropertyOp35
 70
     0
102
RTVSPropertyOp36
 70
     0
102
RTVSPropertyOp37
 70
     0
102
RTVSPropertyOp38
 70
     0
102
RTVSPropertyOp39
 70
     0
102
RTVSPropertyOp40
 70
     0
102
RTVSPropertyOp41
 70
     0
102
RTVSPropertyOp42
 70
     0
102
RTVSPropertyOp43
 70
     0
102
RTVSPropertyOp44
 70
     0
102
RTVSPropertyOp45
 70
     0
102
RTVSPropertyOp46
 70
     0
102
RTVSPropertyOp47
 70
     0
102
RTVSPropertyOp48
 70
     0
102
RTVSPropertyOp49
 70
     0
102
RTVSPropertyOp50
 70
     0
102
RTVSPropertyOp51
 70
     0
102
RTVSPropertyOp52
 70
     0
102
RTVSPropertyOp53
 70
     0
102
RTVSPropertyOp54
 70
     0
102
RTVSPropertyOp55
 70
     0
102
RTVSPropertyOp56
 70
     0
102
RTVSPropertyOp57
 70
     0
102
RTVSPost2010Prop28
280
     0
102
RTVSPost2010PropOp28
 70
     0
102
RTVSPost2010Prop29
280
     1
102
RTVSPost2010PropOp29
 70
     0
102
RTVSPost2010Prop30
280
     1
102
RTVSPost2010PropOp30
 70
     0
102
RTVSPost2010Prop31
280
     0
102
RTVSPost2010PropOp31
 70
     0
102
RTVSPost2010Prop32
280
     0
102
RTVSPost2010PropOp32
 70
     0
102
RTVSPost2010Prop33
280
     0
102
RTVSPost2010PropOp33
 70
     0
102
RTVSPost2010Prop34
280
     0
102
RTVSPost2010PropOp34
 70
     0
102
RTVSPost2010Prop35
280
     0
102
RTVSPost2010PropOp35
 70
     0
102
RTVSPost2010Prop36
280
     0
102
RTVSPost2010PropOp36
 70
     0
102
RTVSPost2010Prop37
 90
       50
102
RTVSPost2010PropOp37
 70
     0
102
RTVSPost2010Prop38
140
0.0
102
RTVSPost2010PropOp38
 70
     0
102
RTVSPost2010Prop39
140
1.0
102
RTVSPost2010PropOp39
 70
     0
102
RTVSPost2010Prop40
 90
        0
102
RTVSPost2010PropOp40
 70
     0
102
RTVSPost2010Prop41ColorIndex
 90
      178
102
RTVSPost2010Prop41ColorRGB
 90
        0
102
RTVSPost2010PropOp41
 70
     0
102
RTVSPost2010Prop42
 90
       50
102
RTVSPost2010PropOp42
 70
     0
102
RTVSPost2010Prop43
 90
        3
102
RTVSPost2010PropOp43
 70
     0
102
RTVSPost2010Prop44ColorIndex
 90
        5
102
RTVSPost2010Prop44ColorRGB
 90
      255
102
RTVSPost2010PropOp44
 70
     0
102
RTVSPost2010Prop45
280
     0
102
RTVSPost2010PropOp45
 70
     0
102
RTVSPost2010Prop46
 90
       50
102
RTVSPost2010PropOp46
 70
     0
102
RTVSPost2010Prop47
 90
       50
102
RTVSPost2010PropOp47
 70
     0
102
RTVSPost2010Prop48
 90
       50
102
RTVSPost2010PropOp48
 70
     0
102
RTVSPost2010Prop49
280
     0
102
RTVSPost2010PropOp49
 70
     0
102
RTVSPost2010Prop50
 90
       50
102
RTVSPost2010PropOp50
 70
     0
102
RTVSPost2010Prop51ColorIndex
 90
      256
102
RTVSPost2010Prop51ColorRGB
 90
-16777216
102
RTVSPost2010PropOp51
 70
     0
102
RTVSPost2010Prop52
140
1.0
102
RTVSPost2010PropOp52
 70
     0
102
RTVSPost2010Prop53
 90
        2
102
RTVSPost2010PropOp53
 70
     0
102
RTVSPost2010Prop54
  1
strokes_ogs.tif
102
RTVSPost2010PropOp54
 70
     0
102
RTVSPost2010Prop55
280
     0
102
RTVSPost2010PropOp55
 70
     0
102
RTVSPost2010Prop56
140
1.0
102
RTVSPost2010PropOp56
 70
     0
102
RTVSPost2010Prop57
140
1.0
102
RTVSPost2010PropOp57
 70
     0
  0
XRECORD
  5
489
102
{ACAD_REACTORS
330
488
102
}
330
488
100
AcDbXrecord
280
     1
102
RTVSPropertyOp0
 70
     1
102
RTVSPropertyOp1
 70
     1
102
RTVSPropertyOp2
 70
     1
102
RTVSPropertyOp3
 70
     1
102
RTVSPropertyOp4
 70
     1
102
RTVSPropertyOp5
 70
     1
102
RTVSPropertyOp6
 70
     1
102
RTVSPropertyOp7
 70
     1
102
RTVSPropertyOp8
 70
     1
102
RTVSPropertyOp9
 70
     1
102
RTVSPropertyOp10
 70
     1
102
RTVSPropertyOp11
 70
     1
102
RTVSPropertyOp12
 70
     1
102
RTVSPropertyOp13
 70
     1
102
RTVSPropertyOp14
 70
     1
102
RTVSPropertyOp15
 70
     1
102
RTVSPropertyOp16
 70
     1
102
RTVSPropertyOp17
 70
     1
102
RTVSPropertyOp18
 70
     1
102
RTVSPropertyOp19
 70
     1
102
RTVSPropertyOp20
 70
     1
102
RTVSPropertyOp21
 70
     1
102
RTVSPropertyOp22
 70
     1
102
RTVSPropertyOp23
 70
     1
102
RTVSPropertyOp24
 70
     1
102
RTVSPropertyOp25
 70
     1
102
RTVSPropertyOp26
 70
     1
102
RTVSPropertyOp27
 70
     1
102
RTVSPropertyOp28
 70
     1
102
RTVSPropertyOp29
 70
     1
102
RTVSPropertyOp30
 70
     1
102
RTVSPropertyOp31
 70
     1
102
RTVSPropertyOp32
 70
     1
102
RTVSPropertyOp33
 70
     1
102
RTVSPropertyOp34
 70
     1
102
RTVSPropertyOp35
 70
     1
102
RTVSPropertyOp36
 70
     1
102
RTVSPropertyOp37
 70
     1
102
RTVSPropertyOp38
 70
     1
102
RTVSPropertyOp39
 70
     1
102
RTVSPropertyOp40
 70
     1
102
RTVSPropertyOp41
 70
     1
102
RTVSPropertyOp42
 70
     1
102
RTVSPropertyOp43
 70
     1
102
RTVSPropertyOp44
 70
     1
102
RTVSPropertyOp45
 70
     1
102
RTVSPropertyOp46
 70
     1
102
RTVSPropertyOp47
 70
     1
102
RTVSPropertyOp48
 70
     1
102
RTVSPropertyOp49
 70
     1
102
RTVSPropertyOp50
 70
     1
102
RTVSPropertyOp51
 70
     0
102
RTVSPropertyOp52
 70
     0
102
RTVSPropertyOp53
 70
     1
102
RTVSPropertyOp54
 70
     1
102
RTVSPropertyOp55
 70
     1
102
RTVSPropertyOp56
 70
     1
102
RTVSPropertyOp57
 70
     1
102
RTVSPost2010Prop28
280
     0
102
RTVSPost2010PropOp28
 70
     1
102
RTVSPost2010Prop29
280
     1
102
RTVSPost2010PropOp29
 70
     1
102
RTVSPost2010Prop30
280
     1
102
RTVSPost2010PropOp30
 70
     1
102
RTVSPost2010Prop31
280
     0
102
RTVSPost2010PropOp31
 70
     1
102
RTVSPost2010Prop32
280
     0
102
RTVSPost2010PropOp32
 70
     1
102
RTVSPost2010Prop33
280
     0
102
RTVSPost2010PropOp33
 70
     1
102
RTVSPost2010Prop34
280
     0
102
RTVSPost2010PropOp34
 70
     1
102
RTVSPost2010Prop35
280
     0
102
RTVSPost2010PropOp35
 70
     1
102
RTVSPost2010Prop36
280
     0
102
RTVSPost2010PropOp36
 70
     1
102
RTVSPost2010Prop37
 90
       50
102
RTVSPost2010PropOp37
 70
     1
102
RTVSPost2010Prop38
140
0.0
102
RTVSPost2010PropOp38
 70
     1
102
RTVSPost2010Prop39
140
1.0
102
RTVSPost2010PropOp39
 70
     1
102
RTVSPost2010Prop40
 90
        0
102
RTVSPost2010PropOp40
 70
     1
102
RTVSPost2010Prop41ColorIndex
 90
      178
102
RTVSPost2010Prop41ColorRGB
 90
        0
102
RTVSPost2010PropOp41
 70
     1
102
RTVSPost2010Prop42
 90
       50
102
RTVSPost2010PropOp42
 70
     1
102
RTVSPost2010Prop43
 90
        3
102
RTVSPost2010PropOp43
 70
     1
102
RTVSPost2010Prop44ColorIndex
 90
        5
102
RTVSPost2010Prop44ColorRGB
 90
      255
102
RTVSPost2010PropOp44
 70
     1
102
RTVSPost2010Prop45
280
     0
102
RTVSPost2010PropOp45
 70
     1
102
RTVSPost2010Prop46
 90
       50
102
RTVSPost2010PropOp46
 70
     1
102
RTVSPost2010Prop47
 90
       50
102
RTVSPost2010PropOp47
 70
     1
102
RTVSPost2010Prop48
 90
       50
102
RTVSPost2010PropOp48
 70
     1
102
RTVSPost2010Prop49
280
     0
102
RTVSPost2010PropOp49
 70
     1
102
RTVSPost2010Prop50
 90
       50
102
RTVSPost2010PropOp50
 70
     1
102
RTVSPost2010Prop51ColorIndex
 90
      256
102
RTVSPost2010Prop51ColorRGB
 90
-16777216
102
RTVSPost2010PropOp51
 70
     0
102
RTVSPost2010Prop52
140
1.0
102
RTVSPost2010PropOp52
 70
     0
102
RTVSPost2010Prop53
 90
        2
102
RTVSPost2010PropOp53
 70
     1
102
RTVSPost2010Prop54
  1
strokes_ogs.tif
102
RTVSPost2010PropOp54
 70
     1
102
RTVSPost2010Prop55
280
     0
102
RTVSPost2010PropOp55
 70
     1
102
RTVSPost2010Prop56
140
1.0
102
RTVSPost2010PropOp56
 70
     1
102
RTVSPost2010Prop57
140
1.0
102
RTVSPost2010PropOp57
 70
     1
  0
XRECORD
  5
46D
102
{ACAD_REACTORS
330
46C
102
}
330
46C
100
AcDbXrecord
280
     1
102
RTVSPropertyOp0
 70
     1
102
RTVSPropertyOp1
 70
     1
102
RTVSPropertyOp2
 70
     1
102
RTVSPropertyOp3
 70
     1
102
RTVSPropertyOp4
 70
     1
102
RTVSPropertyOp5
 70
     1
102
RTVSPropertyOp6
 70
     1
102
RTVSPropertyOp7
 70
     1
102
RTVSPropertyOp8
 70
     1
102
RTVSPropertyOp9
 70
     1
102
RTVSPropertyOp10
 70
     1
102
RTVSPropertyOp11
 70
     1
102
RTVSPropertyOp12
 70
     1
102
RTVSPropertyOp13
 70
     1
102
RTVSPropertyOp14
 70
     1
102
RTVSPropertyOp15
 70
     1
102
RTVSPropertyOp16
 70
     1
102
RTVSPropertyOp17
 70
     1
102
RTVSPropertyOp18
 70
     1
102
RTVSPropertyOp19
 70
     1
102
RTVSPropertyOp20
 70
     1
102
RTVSPropertyOp21
 70
     1
102
RTVSPropertyOp22
 70
     1
102
RTVSPropertyOp23
 70
     1
102
RTVSPropertyOp24
 70
     1
102
RTVSPropertyOp25
 70
     1
102
RTVSPropertyOp26
 70
     1
102
RTVSPropertyOp27
 70
     1
102
RTVSPropertyOp28
 70
     1
102
RTVSPropertyOp29
 70
     1
102
RTVSPropertyOp30
 70
     1
102
RTVSPropertyOp31
 70
     1
102
RTVSPropertyOp32
 70
     1
102
RTVSPropertyOp33
 70
     1
102
RTVSPropertyOp34
 70
     1
102
RTVSPropertyOp35
 70
     1
102
RTVSPropertyOp36
 70
     1
102
RTVSPropertyOp37
 70
     1
102
RTVSPropertyOp38
 70
     1
102
RTVSPropertyOp39
 70
     1
102
RTVSPropertyOp40
 70
     1
102
RTVSPropertyOp41
 70
     1
102
RTVSPropertyOp42
 70
     1
102
RTVSPropertyOp43
 70
     1
102
RTVSPropertyOp44
 70
     1
102
RTVSPropertyOp45
 70
     1
102
RTVSPropertyOp46
 70
     1
102
RTVSPropertyOp47
 70
     1
102
RTVSPropertyOp48
 70
     1
102
RTVSPropertyOp49
 70
     1
102
RTVSPropertyOp50
 70
     1
102
RTVSPropertyOp51
 70
     0
102
RTVSPropertyOp52
 70
     0
102
RTVSPropertyOp53
 70
     1
102
RTVSPropertyOp54
 70
     1
102
RTVSPropertyOp55
 70
     1
102
RTVSPropertyOp56
 70
     1
102
RTVSPropertyOp57
 70
     1
102
RTVSPost2010Prop28
280
     0
102
RTVSPost2010PropOp28
 70
     1
102
RTVSPost2010Prop29
280
     1
102
RTVSPost2010PropOp29
 70
     1
102
RTVSPost2010Prop30
280
     1
102
RTVSPost2010PropOp30
 70
     1
102
RTVSPost2010Prop31
280
     0
102
RTVSPost2010PropOp31
 70
     1
102
RTVSPost2010Prop32
280
     0
102
RTVSPost2010PropOp32
 70
     1
102
RTVSPost2010Prop33
280
     0
102
RTVSPost2010PropOp33
 70
     1
102
RTVSPost2010Prop34
280
     0
102
RTVSPost2010PropOp34
 70
     1
102
RTVSPost2010Prop35
280
     0
102
RTVSPost2010PropOp35
 70
     1
102
RTVSPost2010Prop36
280
     0
102
RTVSPost2010PropOp36
 70
     1
102
RTVSPost2010Prop37
 90
       50
102
RTVSPost2010PropOp37
 70
     1
102
RTVSPost2010Prop38
140
0.0
102
RTVSPost2010PropOp38
 70
     1
102
RTVSPost2010Prop39
140
1.0
102
RTVSPost2010PropOp39
 70
     1
102
RTVSPost2010Prop40
 90
        0
102
RTVSPost2010PropOp40
 70
     1
102
RTVSPost2010Prop41ColorIndex
 90
      178
102
RTVSPost2010Prop41ColorRGB
 90
        0
102
RTVSPost2010PropOp41
 70
     1
102
RTVSPost2010Prop42
 90
       50
102
RTVSPost2010PropOp42
 70
     1
102
RTVSPost2010Prop43
 90
        3
102
RTVSPost2010PropOp43
 70
     1
102
RTVSPost2010Prop44ColorIndex
 90
        5
102
RTVSPost2010Prop44ColorRGB
 90
      255
102
RTVSPost2010PropOp44
 70
     1
102
RTVSPost2010Prop45
280
     0
102
RTVSPost2010PropOp45
 70
     1
102
RTVSPost2010Prop46
 90
       50
102
RTVSPost2010PropOp46
 70
     1
102
RTVSPost2010Prop47
 90
       50
102
RTVSPost2010PropOp47
 70
     1
102
RTVSPost2010Prop48
 90
       50
102
RTVSPost2010PropOp48
 70
     1
102
RTVSPost2010Prop49
280
     0
102
RTVSPost2010PropOp49
 70
     1
102
RTVSPost2010Prop50
 90
       50
102
RTVSPost2010PropOp50
 70
     1
102
RTVSPost2010Prop51ColorIndex
 90
      256
102
RTVSPost2010Prop51ColorRGB
 90
-16777216
102
RTVSPost2010PropOp51
 70
     0
102
RTVSPost2010Prop52
140
1.0
102
RTVSPost2010PropOp52
 70
     0
102
RTVSPost2010Prop53
 90
        2
102
RTVSPost2010PropOp53
 70
     1
102
RTVSPost2010Prop54
  1
strokes_ogs.tif
102
RTVSPost2010PropOp54
 70
     1
102
RTVSPost2010Prop55
280
     0
102
RTVSPost2010PropOp55
 70
     1
102
RTVSPost2010Prop56
140
1.0
102
RTVSPost2010PropOp56
 70
     1
102
RTVSPost2010Prop57
140
1.0
102
RTVSPost2010PropOp57
 70
     1
  0
XRECORD
  5
46F
102
{ACAD_REACTORS
330
46E
102
}
330
46E
100
AcDbXrecord
280
     1
102
RTVSPropertyOp0
 70
     1
102
RTVSPropertyOp1
 70
     1
102
RTVSPropertyOp2
 70
     1
102
RTVSPropertyOp3
 70
     1
102
RTVSPropertyOp4
 70
     1
102
RTVSPropertyOp5
 70
     1
102
RTVSPropertyOp6
 70
     1
102
RTVSPropertyOp7
 70
     1
102
RTVSPropertyOp8
 70
     1
102
RTVSPropertyOp9
 70
     1
102
RTVSPropertyOp10
 70
     1
102
RTVSPropertyOp11
 70
     1
102
RTVSPropertyOp12
 70
     1
102
RTVSPropertyOp13
 70
     1
102
RTVSPropertyOp14
 70
     1
102
RTVSPropertyOp15
 70
     1
102
RTVSPropertyOp16
 70
     1
102
RTVSPropertyOp17
 70
     1
102
RTVSPropertyOp18
 70
     1
102
RTVSPropertyOp19
 70
     1
102
RTVSPropertyOp20
 70
     1
102
RTVSPropertyOp21
 70
     1
102
RTVSPropertyOp22
 70
     1
102
RTVSPropertyOp23
 70
     1
102
RTVSPropertyOp24
 70
     1
102
RTVSPropertyOp25
 70
     1
102
RTVSPropertyOp26
 70
     1
102
RTVSPropertyOp27
 70
     1
102
RTVSPropertyOp28
 70
     1
102
RTVSPropertyOp29
 70
     1
102
RTVSPropertyOp30
 70
     1
102
RTVSPropertyOp31
 70
     1
102
RTVSPropertyOp32
 70
     1
102
RTVSPropertyOp33
 70
     1
102
RTVSPropertyOp34
 70
     1
102
RTVSPropertyOp35
 70
     1
102
RTVSPropertyOp36
 70
     1
102
RTVSPropertyOp37
 70
     1
102
RTVSPropertyOp38
 70
     1
102
RTVSPropertyOp39
 70
     1
102
RTVSPropertyOp40
 70
     1
102
RTVSPropertyOp41
 70
     1
102
RTVSPropertyOp42
 70
     1
102
RTVSPropertyOp43
 70
     1
102
RTVSPropertyOp44
 70
     1
102
RTVSPropertyOp45
 70
     1
102
RTVSPropertyOp46
 70
     1
102
RTVSPropertyOp47
 70
     1
102
RTVSPropertyOp48
 70
     1
102
RTVSPropertyOp49
 70
     1
102
RTVSPropertyOp50
 70
     1
102
RTVSPropertyOp51
 70
     0
102
RTVSPropertyOp52
 70
     0
102
RTVSPropertyOp53
 70
     1
102
RTVSPropertyOp54
 70
     1
102
RTVSPropertyOp55
 70
     1
102
RTVSPropertyOp56
 70
     1
102
RTVSPropertyOp57
 70
     1
102
RTVSPost2010Prop28
280
     0
102
RTVSPost2010PropOp28
 70
     1
102
RTVSPost2010Prop29
280
     1
102
RTVSPost2010PropOp29
 70
     1
102
RTVSPost2010Prop30
280
     1
102
RTVSPost2010PropOp30
 70
     1
102
RTVSPost2010Prop31
280
     0
102
RTVSPost2010PropOp31
 70
     1
102
RTVSPost2010Prop32
280
     0
102
RTVSPost2010PropOp32
 70
     1
102
RTVSPost2010Prop33
280
     0
102
RTVSPost2010PropOp33
 70
     1
102
RTVSPost2010Prop34
280
     0
102
RTVSPost2010PropOp34
 70
     1
102
RTVSPost2010Prop35
280
     0
102
RTVSPost2010PropOp35
 70
     1
102
RTVSPost2010Prop36
280
     0
102
RTVSPost2010PropOp36
 70
     1
102
RTVSPost2010Prop37
 90
       50
102
RTVSPost2010PropOp37
 70
     1
102
RTVSPost2010Prop38
140
0.0
102
RTVSPost2010PropOp38
 70
     1
102
RTVSPost2010Prop39
140
1.0
102
RTVSPost2010PropOp39
 70
     1
102
RTVSPost2010Prop40
 90
        0
102
RTVSPost2010PropOp40
 70
     1
102
RTVSPost2010Prop41ColorIndex
 90
      178
102
RTVSPost2010Prop41ColorRGB
 90
        0
102
RTVSPost2010PropOp41
 70
     1
102
RTVSPost2010Prop42
 90
       50
102
RTVSPost2010PropOp42
 70
     1
102
RTVSPost2010Prop43
 90
        3
102
RTVSPost2010PropOp43
 70
     1
102
RTVSPost2010Prop44ColorIndex
 90
        5
102
RTVSPost2010Prop44ColorRGB
 90
      255
102
RTVSPost2010PropOp44
 70
     1
102
RTVSPost2010Prop45
280
     0
102
RTVSPost2010PropOp45
 70
     1
102
RTVSPost2010Prop46
 90
       50
102
RTVSPost2010PropOp46
 70
     1
102
RTVSPost2010Prop47
 90
       50
102
RTVSPost2010PropOp47
 70
     1
102
RTVSPost2010Prop48
 90
       50
102
RTVSPost2010PropOp48
 70
     1
102
RTVSPost2010Prop49
280
     0
102
RTVSPost2010PropOp49
 70
     1
102
RTVSPost2010Prop50
 90
       50
102
RTVSPost2010PropOp50
 70
     1
102
RTVSPost2010Prop51ColorIndex
 90
      256
102
RTVSPost2010Prop51ColorRGB
 90
-16777216
102
RTVSPost2010PropOp51
 70
     0
102
RTVSPost2010Prop52
140
1.0
102
RTVSPost2010PropOp52
 70
     0
102
RTVSPost2010Prop53
 90
        2
102
RTVSPost2010PropOp53
 70
     1
102
RTVSPost2010Prop54
  1
strokes_ogs.tif
102
RTVSPost2010PropOp54
 70
     1
102
RTVSPost2010Prop55
280
     0
102
RTVSPost2010PropOp55
 70
     1
102
RTVSPost2010Prop56
140
1.0
102
RTVSPost2010PropOp56
 70
     1
102
RTVSPost2010Prop57
140
1.0
102
RTVSPost2010PropOp57
 70
     1
  0
XRECORD
  5
471
102
{ACAD_REACTORS
330
470
102
}
330
470
100
AcDbXrecord
280
     1
102
RTVSPropertyOp0
 70
     1
102
RTVSPropertyOp1
 70
     1
102
RTVSPropertyOp2
 70
     1
102
RTVSPropertyOp3
 70
     1
102
RTVSPropertyOp4
 70
     1
102
RTVSPropertyOp5
 70
     1
102
RTVSPropertyOp6
 70
     1
102
RTVSPropertyOp7
 70
     1
102
RTVSPropertyOp8
 70
     1
102
RTVSPropertyOp9
 70
     1
102
RTVSPropertyOp10
 70
     1
102
RTVSPropertyOp11
 70
     1
102
RTVSPropertyOp12
 70
     1
102
RTVSPropertyOp13
 70
     1
102
RTVSPropertyOp14
 70
     1
102
RTVSPropertyOp15
 70
     1
102
RTVSPropertyOp16
 70
     1
102
RTVSPropertyOp17
 70
     1
102
RTVSPropertyOp18
 70
     1
102
RTVSPropertyOp19
 70
     1
102
RTVSPropertyOp20
 70
     1
102
RTVSPropertyOp21
 70
     1
102
RTVSPropertyOp22
 70
     1
102
RTVSPropertyOp23
 70
     1
102
RTVSPropertyOp24
 70
     1
102
RTVSPropertyOp25
 70
     1
102
RTVSPropertyOp26
 70
     1
102
RTVSPropertyOp27
 70
     1
102
RTVSPropertyOp28
 70
     1
102
RTVSPropertyOp29
 70
     1
102
RTVSPropertyOp30
 70
     1
102
RTVSPropertyOp31
 70
     1
102
RTVSPropertyOp32
 70
     1
102
RTVSPropertyOp33
 70
     1
102
RTVSPropertyOp34
 70
     1
102
RTVSPropertyOp35
 70
     1
102
RTVSPropertyOp36
 70
     1
102
RTVSPropertyOp37
 70
     1
102
RTVSPropertyOp38
 70
     1
102
RTVSPropertyOp39
 70
     1
102
RTVSPropertyOp40
 70
     1
102
RTVSPropertyOp41
 70
     1
102
RTVSPropertyOp42
 70
     1
102
RTVSPropertyOp43
 70
     1
102
RTVSPropertyOp44
 70
     1
102
RTVSPropertyOp45
 70
     1
102
RTVSPropertyOp46
 70
     1
102
RTVSPropertyOp47
 70
     1
102
RTVSPropertyOp48
 70
     1
102
RTVSPropertyOp49
 70
     1
102
RTVSPropertyOp50
 70
     1
102
RTVSPropertyOp51
 70
     0
102
RTVSPropertyOp52
 70
     0
102
RTVSPropertyOp53
 70
     1
102
RTVSPropertyOp54
 70
     1
102
RTVSPropertyOp55
 70
     1
102
RTVSPropertyOp56
 70
     1
102
RTVSPropertyOp57
 70
     1
102
RTVSPost2010Prop28
280
     0
102
RTVSPost2010PropOp28
 70
     1
102
RTVSPost2010Prop29
280
     1
102
RTVSPost2010PropOp29
 70
     1
102
RTVSPost2010Prop30
280
     1
102
RTVSPost2010PropOp30
 70
     1
102
RTVSPost2010Prop31
280
     0
102
RTVSPost2010PropOp31
 70
     1
102
RTVSPost2010Prop32
280
     0
102
RTVSPost2010PropOp32
 70
     1
102
RTVSPost2010Prop33
280
     0
102
RTVSPost2010PropOp33
 70
     1
102
RTVSPost2010Prop34
280
     0
102
RTVSPost2010PropOp34
 70
     1
102
RTVSPost2010Prop35
280
     0
102
RTVSPost2010PropOp35
 70
     1
102
RTVSPost2010Prop36
280
     0
102
RTVSPost2010PropOp36
 70
     1
102
RTVSPost2010Prop37
 90
       50
102
RTVSPost2010PropOp37
 70
     1
102
RTVSPost2010Prop38
140
0.0
102
RTVSPost2010PropOp38
 70
     1
102
RTVSPost2010Prop39
140
1.0
102
RTVSPost2010PropOp39
 70
     1
102
RTVSPost2010Prop40
 90
        0
102
RTVSPost2010PropOp40
 70
     1
102
RTVSPost2010Prop41ColorIndex
 90
      178
102
RTVSPost2010Prop41ColorRGB
 90
        0
102
RTVSPost2010PropOp41
 70
     1
102
RTVSPost2010Prop42
 90
       50
102
RTVSPost2010PropOp42
 70
     1
102
RTVSPost2010Prop43
 90
        3
102
RTVSPost2010PropOp43
 70
     1
102
RTVSPost2010Prop44ColorIndex
 90
        5
102
RTVSPost2010Prop44ColorRGB
 90
      255
102
RTVSPost2010PropOp44
 70
     1
102
RTVSPost2010Prop45
280
     0
102
RTVSPost2010PropOp45
 70
     1
102
RTVSPost2010Prop46
 90
       50
102
RTVSPost2010PropOp46
 70
     1
102
RTVSPost2010Prop47
 90
       50
102
RTVSPost2010PropOp47
 70
     1
102
RTVSPost2010Prop48
 90
       50
102
RTVSPost2010PropOp48
 70
     1
102
RTVSPost2010Prop49
280
     0
102
RTVSPost2010PropOp49
 70
     1
102
RTVSPost2010Prop50
 90
       50
102
RTVSPost2010PropOp50
 70
     1
102
RTVSPost2010Prop51ColorIndex
 90
      256
102
RTVSPost2010Prop51ColorRGB
 90
-16777216
102
RTVSPost2010PropOp51
 70
     0
102
RTVSPost2010Prop52
140
1.0
102
RTVSPost2010PropOp52
 70
     0
102
RTVSPost2010Prop53
 90
        2
102
RTVSPost2010PropOp53
 70
     1
102
RTVSPost2010Prop54
  1
strokes_ogs.tif
102
RTVSPost2010PropOp54
 70
     1
102
RTVSPost2010Prop55
280
     0
102
RTVSPost2010PropOp55
 70
     1
102
RTVSPost2010Prop56
140
1.0
102
RTVSPost2010PropOp56
 70
     1
102
RTVSPost2010Prop57
140
1.0
102
RTVSPost2010PropOp57
 70
     1
  0
XRECORD
  5
473
102
{ACAD_REACTORS
330
472
102
}
330
472
100
AcDbXrecord
280
     1
102
RTVSPropertyOp0
 70
     1
102
RTVSPropertyOp1
 70
     1
102
RTVSPropertyOp2
 70
     1
102
RTVSPropertyOp3
 70
     1
102
RTVSPropertyOp4
 70
     1
102
RTVSPropertyOp5
 70
     1
102
RTVSPropertyOp6
 70
     1
102
RTVSPropertyOp7
 70
     1
102
RTVSPropertyOp8
 70
     1
102
RTVSPropertyOp9
 70
     1
102
RTVSPropertyOp10
 70
     1
102
RTVSPropertyOp11
 70
     1
102
RTVSPropertyOp12
 70
     1
102
RTVSPropertyOp13
 70
     1
102
RTVSPropertyOp14
 70
     1
102
RTVSPropertyOp15
 70
     1
102
RTVSPropertyOp16
 70
     1
102
RTVSPropertyOp17
 70
     1
102
RTVSPropertyOp18
 70
     1
102
RTVSPropertyOp19
 70
     1
102
RTVSPropertyOp20
 70
     1
102
RTVSPropertyOp21
 70
     1
102
RTVSPropertyOp22
 70
     1
102
RTVSPropertyOp23
 70
     1
102
RTVSPropertyOp24
 70
     1
102
RTVSPropertyOp25
 70
     1
102
RTVSPropertyOp26
 70
     1
102
RTVSPropertyOp27
 70
     1
102
RTVSPropertyOp28
 70
     1
102
RTVSPropertyOp29
 70
     1
102
RTVSPropertyOp30
 70
     1
102
RTVSPropertyOp31
 70
     1
102
RTVSPropertyOp32
 70
     1
102
RTVSPropertyOp33
 70
     1
102
RTVSPropertyOp34
 70
     1
102
RTVSPropertyOp35
 70
     1
102
RTVSPropertyOp36
 70
     1
102
RTVSPropertyOp37
 70
     1
102
RTVSPropertyOp38
 70
     1
102
RTVSPropertyOp39
 70
     1
102
RTVSPropertyOp40
 70
     1
102
RTVSPropertyOp41
 70
     1
102
RTVSPropertyOp42
 70
     1
102
RTVSPropertyOp43
 70
     1
102
RTVSPropertyOp44
 70
     1
102
RTVSPropertyOp45
 70
     1
102
RTVSPropertyOp46
 70
     1
102
RTVSPropertyOp47
 70
     1
102
RTVSPropertyOp48
 70
     1
102
RTVSPropertyOp49
 70
     1
102
RTVSPropertyOp50
 70
     1
102
RTVSPropertyOp51
 70
     0
102
RTVSPropertyOp52
 70
     0
102
RTVSPropertyOp53
 70
     1
102
RTVSPropertyOp54
 70
     1
102
RTVSPropertyOp55
 70
     1
102
RTVSPropertyOp56
 70
     1
102
RTVSPropertyOp57
 70
     1
102
RTVSPost2010Prop28
280
     0
102
RTVSPost2010PropOp28
 70
     1
102
RTVSPost2010Prop29
280
     1
102
RTVSPost2010PropOp29
 70
     1
102
RTVSPost2010Prop30
280
     1
102
RTVSPost2010PropOp30
 70
     1
102
RTVSPost2010Prop31
280
     0
102
RTVSPost2010PropOp31
 70
     1
102
RTVSPost2010Prop32
280
     0
102
RTVSPost2010PropOp32
 70
     1
102
RTVSPost2010Prop33
280
     0
102
RTVSPost2010PropOp33
 70
     1
102
RTVSPost2010Prop34
280
     0
102
RTVSPost2010PropOp34
 70
     1
102
RTVSPost2010Prop35
280
     0
102
RTVSPost2010PropOp35
 70
     1
102
RTVSPost2010Prop36
280
     0
102
RTVSPost2010PropOp36
 70
     1
102
RTVSPost2010Prop37
 90
       50
102
RTVSPost2010PropOp37
 70
     1
102
RTVSPost2010Prop38
140
0.0
102
RTVSPost2010PropOp38
 70
     1
102
RTVSPost2010Prop39
140
1.0
102
RTVSPost2010PropOp39
 70
     1
102
RTVSPost2010Prop40
 90
        0
102
RTVSPost2010PropOp40
 70
     1
102
RTVSPost2010Prop41ColorIndex
 90
      178
102
RTVSPost2010Prop41ColorRGB
 90
        0
102
RTVSPost2010PropOp41
 70
     1
102
RTVSPost2010Prop42
 90
       50
102
RTVSPost2010PropOp42
 70
     1
102
RTVSPost2010Prop43
 90
        3
102
RTVSPost2010PropOp43
 70
     1
102
RTVSPost2010Prop44ColorIndex
 90
        5
102
RTVSPost2010Prop44ColorRGB
 90
      255
102
RTVSPost2010PropOp44
 70
     1
102
RTVSPost2010Prop45
280
     0
102
RTVSPost2010PropOp45
 70
     1
102
RTVSPost2010Prop46
 90
       50
102
RTVSPost2010PropOp46
 70
     1
102
RTVSPost2010Prop47
 90
       50
102
RTVSPost2010PropOp47
 70
     1
102
RTVSPost2010Prop48
 90
       50
102
RTVSPost2010PropOp48
 70
     1
102
RTVSPost2010Prop49
280
     0
102
RTVSPost2010PropOp49
 70
     1
102
RTVSPost2010Prop50
 90
       50
102
RTVSPost2010PropOp50
 70
     1
102
RTVSPost2010Prop51ColorIndex
 90
      256
102
RTVSPost2010Prop51ColorRGB
 90
-16777216
102
RTVSPost2010PropOp51
 70
     0
102
RTVSPost2010Prop52
140
1.0
102
RTVSPost2010PropOp52
 70
     0
102
RTVSPost2010Prop53
 90
        2
102
RTVSPost2010PropOp53
 70
     1
102
RTVSPost2010Prop54
  1
strokes_ogs.tif
102
RTVSPost2010PropOp54
 70
     1
102
RTVSPost2010Prop55
280
     0
102
RTVSPost2010PropOp55
 70
     1
102
RTVSPost2010Prop56
140
1.0
102
RTVSPost2010PropOp56
 70
     1
102
RTVSPost2010Prop57
140
1.0
102
RTVSPost2010PropOp57
 70
     1
  0
XRECORD
  5
479
102
{ACAD_REACTORS
330
478
102
}
330
478
100
AcDbXrecord
280
     1
102
RTVSPropertyOp0
 70
     1
102
RTVSPropertyOp1
 70
     1
102
RTVSPropertyOp2
 70
     1
102
RTVSPropertyOp3
 70
     1
102
RTVSPropertyOp4
 70
     1
102
RTVSPropertyOp5
 70
     1
102
RTVSPropertyOp6
 70
     1
102
RTVSPropertyOp7
 70
     1
102
RTVSPropertyOp8
 70
     1
102
RTVSPropertyOp9
 70
     1
102
RTVSPropertyOp10
 70
     1
102
RTVSPropertyOp11
 70
     1
102
RTVSPropertyOp12
 70
     1
102
RTVSPropertyOp13
 70
     1
102
RTVSPropertyOp14
 70
     1
102
RTVSPropertyOp15
 70
     1
102
RTVSPropertyOp16
 70
     1
102
RTVSPropertyOp17
 70
     1
102
RTVSPropertyOp18
 70
     1
102
RTVSPropertyOp19
 70
     1
102
RTVSPropertyOp20
 70
     1
102
RTVSPropertyOp21
 70
     1
102
RTVSPropertyOp22
 70
     1
102
RTVSPropertyOp23
 70
     1
102
RTVSPropertyOp24
 70
     1
102
RTVSPropertyOp25
 70
     1
102
RTVSPropertyOp26
 70
     1
102
RTVSPropertyOp27
 70
     1
102
RTVSPropertyOp28
 70
     1
102
RTVSPropertyOp29
 70
     1
102
RTVSPropertyOp30
 70
     1
102
RTVSPropertyOp31
 70
     1
102
RTVSPropertyOp32
 70
     1
102
RTVSPropertyOp33
 70
     1
102
RTVSPropertyOp34
 70
     1
102
RTVSPropertyOp35
 70
     1
102
RTVSPropertyOp36
 70
     1
102
RTVSPropertyOp37
 70
     1
102
RTVSPropertyOp38
 70
     1
102
RTVSPropertyOp39
 70
     1
102
RTVSPropertyOp40
 70
     1
102
RTVSPropertyOp41
 70
     1
102
RTVSPropertyOp42
 70
     1
102
RTVSPropertyOp43
 70
     1
102
RTVSPropertyOp44
 70
     1
102
RTVSPropertyOp45
 70
     1
102
RTVSPropertyOp46
 70
     1
102
RTVSPropertyOp47
 70
     1
102
RTVSPropertyOp48
 70
     1
102
RTVSPropertyOp49
 70
     1
102
RTVSPropertyOp50
 70
     1
102
RTVSPropertyOp51
 70
     0
102
RTVSPropertyOp52
 70
     0
102
RTVSPropertyOp53
 70
     1
102
RTVSPropertyOp54
 70
     1
102
RTVSPropertyOp55
 70
     1
102
RTVSPropertyOp56
 70
     1
102
RTVSPropertyOp57
 70
     1
102
RTVSPost2010Prop28
280
     0
102
RTVSPost2010PropOp28
 70
     1
102
RTVSPost2010Prop29
280
     1
102
RTVSPost2010PropOp29
 70
     1
102
RTVSPost2010Prop30
280
     1
102
RTVSPost2010PropOp30
 70
     1
102
RTVSPost2010Prop31
280
     0
102
RTVSPost2010PropOp31
 70
     1
102
RTVSPost2010Prop32
280
     0
102
RTVSPost2010PropOp32
 70
     1
102
RTVSPost2010Prop33
280
     0
102
RTVSPost2010PropOp33
 70
     1
102
RTVSPost2010Prop34
280
     0
102
RTVSPost2010PropOp34
 70
     1
102
RTVSPost2010Prop35
280
     0
102
RTVSPost2010PropOp35
 70
     1
102
RTVSPost2010Prop36
280
     0
102
RTVSPost2010PropOp36
 70
     1
102
RTVSPost2010Prop37
 90
       50
102
RTVSPost2010PropOp37
 70
     1
102
RTVSPost2010Prop38
140
0.0
102
RTVSPost2010PropOp38
 70
     1
102
RTVSPost2010Prop39
140
1.0
102
RTVSPost2010PropOp39
 70
     1
102
RTVSPost2010Prop40
 90
        0
102
RTVSPost2010PropOp40
 70
     1
102
RTVSPost2010Prop41ColorIndex
 90
      178
102
RTVSPost2010Prop41ColorRGB
 90
        0
102
RTVSPost2010PropOp41
 70
     1
102
RTVSPost2010Prop42
 90
       50
102
RTVSPost2010PropOp42
 70
     1
102
RTVSPost2010Prop43
 90
        3
102
RTVSPost2010PropOp43
 70
     1
102
RTVSPost2010Prop44ColorIndex
 90
        5
102
RTVSPost2010Prop44ColorRGB
 90
      255
102
RTVSPost2010PropOp44
 70
     1
102
RTVSPost2010Prop45
280
     0
102
RTVSPost2010PropOp45
 70
     1
102
RTVSPost2010Prop46
 90
       50
102
RTVSPost2010PropOp46
 70
     1
102
RTVSPost2010Prop47
 90
       50
102
RTVSPost2010PropOp47
 70
     1
102
RTVSPost2010Prop48
 90
       50
102
RTVSPost2010PropOp48
 70
     1
102
RTVSPost2010Prop49
280
     0
102
RTVSPost2010PropOp49
 70
     1
102
RTVSPost2010Prop50
 90
       50
102
RTVSPost2010PropOp50
 70
     1
102
RTVSPost2010Prop51ColorIndex
 90
      256
102
RTVSPost2010Prop51ColorRGB
 90
-16777216
102
RTVSPost2010PropOp51
 70
     0
102
RTVSPost2010Prop52
140
1.0
102
RTVSPost2010PropOp52
 70
     0
102
RTVSPost2010Prop53
 90
        2
102
RTVSPost2010PropOp53
 70
     1
102
RTVSPost2010Prop54
  1
strokes_ogs.tif
102
RTVSPost2010PropOp54
 70
     1
102
RTVSPost2010Prop55
280
     0
102
RTVSPost2010PropOp55
 70
     1
102
RTVSPost2010Prop56
140
1.0
102
RTVSPost2010PropOp56
 70
     1
102
RTVSPost2010Prop57
140
1.0
102
RTVSPost2010PropOp57
 70
     1
  0
XRECORD
  5
48D
102
{ACAD_REACTORS
330
48C
102
}
330
48C
100
AcDbXrecord
280
     1
102
RTVSPropertyOp0
 70
     0
102
RTVSPropertyOp1
 70
     0
102
RTVSPropertyOp2
 70
     0
102
RTVSPropertyOp3
 70
     0
102
RTVSPropertyOp4
 70
     0
102
RTVSPropertyOp5
 70
     0
102
RTVSPropertyOp6
 70
     0
102
RTVSPropertyOp7
 70
     0
102
RTVSPropertyOp8
 70
     0
102
RTVSPropertyOp9
 70
     0
102
RTVSPropertyOp10
 70
     0
102
RTVSPropertyOp11
 70
     0
102
RTVSPropertyOp12
 70
     0
102
RTVSPropertyOp13
 70
     0
102
RTVSPropertyOp14
 70
     2
102
RTVSPropertyOp15
 70
     0
102
RTVSPropertyOp16
 70
     0
102
RTVSPropertyOp17
 70
     0
102
RTVSPropertyOp18
 70
     0
102
RTVSPropertyOp19
 70
     0
102
RTVSPropertyOp20
 70
     0
102
RTVSPropertyOp21
 70
     0
102
RTVSPropertyOp22
 70
     0
102
RTVSPropertyOp23
 70
     0
102
RTVSPropertyOp24
 70
     0
102
RTVSPropertyOp25
 70
     0
102
RTVSPropertyOp26
 70
     0
102
RTVSPropertyOp27
 70
     0
102
RTVSPropertyOp28
 70
     0
102
RTVSPropertyOp29
 70
     0
102
RTVSPropertyOp30
 70
     0
102
RTVSPropertyOp31
 70
     0
102
RTVSPropertyOp32
 70
     0
102
RTVSPropertyOp33
 70
     0
102
RTVSPropertyOp34
 70
     0
102
RTVSPropertyOp35
 70
     0
102
RTVSPropertyOp36
 70
     0
102
RTVSPropertyOp37
 70
     0
102
RTVSPropertyOp38
 70
     0
102
RTVSPropertyOp39
 70
     0
102
RTVSPropertyOp40
 70
     0
102
RTVSPropertyOp41
 70
     0
102
RTVSPropertyOp42
 70
     0
102
RTVSPropertyOp43
 70
     0
102
RTVSPropertyOp44
 70
     0
102
RTVSPropertyOp45
 70
     0
102
RTVSPropertyOp46
 70
     0
102
RTVSPropertyOp47
 70
     0
102
RTVSPropertyOp48
 70
     0
102
RTVSPropertyOp49
 70
     0
102
RTVSPropertyOp50
 70
     0
102
RTVSPropertyOp51
 70
     0
102
RTVSPropertyOp52
 70
     0
102
RTVSPropertyOp53
 70
     0
102
RTVSPropertyOp54
 70
     0
102
RTVSPropertyOp55
 70
     0
102
RTVSPropertyOp56
 70
     0
102
RTVSPropertyOp57
 70
     0
102
RTVSPost2010Prop28
280
     0
102
RTVSPost2010PropOp28
 70
     0
102
RTVSPost2010Prop29
280
     1
102
RTVSPost2010PropOp29
 70
     0
102
RTVSPost2010Prop30
280
     1
102
RTVSPost2010PropOp30
 70
     0
102
RTVSPost2010Prop31
280
     0
102
RTVSPost2010PropOp31
 70
     0
102
RTVSPost2010Prop32
280
     0
102
RTVSPost2010PropOp32
 70
     0
102
RTVSPost2010Prop33
280
     0
102
RTVSPost2010PropOp33
 70
     0
102
RTVSPost2010Prop34
280
     0
102
RTVSPost2010PropOp34
 70
     0
102
RTVSPost2010Prop35
280
     0
102
RTVSPost2010PropOp35
 70
     0
102
RTVSPost2010Prop36
280
     0
102
RTVSPost2010PropOp36
 70
     0
102
RTVSPost2010Prop37
 90
       50
102
RTVSPost2010PropOp37
 70
     0
102
RTVSPost2010Prop38
140
0.0
102
RTVSPost2010PropOp38
 70
     0
102
RTVSPost2010Prop39
140
1.0
102
RTVSPost2010PropOp39
 70
     0
102
RTVSPost2010Prop40
 90
        0
102
RTVSPost2010PropOp40
 70
     0
102
RTVSPost2010Prop41ColorIndex
 90
      178
102
RTVSPost2010Prop41ColorRGB
 90
        0
102
RTVSPost2010PropOp41
 70
     0
102
RTVSPost2010Prop42
 90
       50
102
RTVSPost2010PropOp42
 70
     0
102
RTVSPost2010Prop43
 90
        3
102
RTVSPost2010PropOp43
 70
     0
102
RTVSPost2010Prop44ColorIndex
 90
        5
102
RTVSPost2010Prop44ColorRGB
 90
      255
102
RTVSPost2010PropOp44
 70
     0
102
RTVSPost2010Prop45
280
     0
102
RTVSPost2010PropOp45
 70
     0
102
RTVSPost2010Prop46
 90
       50
102
RTVSPost2010PropOp46
 70
     0
102
RTVSPost2010Prop47
 90
       50
102
RTVSPost2010PropOp47
 70
     0
102
RTVSPost2010Prop48
 90
       50
102
RTVSPost2010PropOp48
 70
     0
102
RTVSPost2010Prop49
280
     0
102
RTVSPost2010PropOp49
 70
     0
102
RTVSPost2010Prop50
 90
       50
102
RTVSPost2010PropOp50
 70
     0
102
RTVSPost2010Prop51ColorIndex
 90
      256
102
RTVSPost2010Prop51ColorRGB
 90
-16777216
102
RTVSPost2010PropOp51
 70
     0
102
RTVSPost2010Prop52
140
1.0
102
RTVSPost2010PropOp52
 70
     0
102
RTVSPost2010Prop53
 90
        2
102
RTVSPost2010PropOp53
 70
     0
102
RTVSPost2010Prop54
  1
strokes_ogs.tif
102
RTVSPost2010PropOp54
 70
     0
102
RTVSPost2010Prop55
280
     0
102
RTVSPost2010PropOp55
 70
     0
102
RTVSPost2010Prop56
140
1.0
102
RTVSPost2010PropOp56
 70
     0
102
RTVSPost2010Prop57
140
1.0
102
RTVSPost2010PropOp57
 70
     0
  0
XRECORD
  5
487
102
{ACAD_REACTORS
330
486
102
}
330
486
100
AcDbXrecord
280
     1
102
RTVSPropertyOp0
 70
     1
102
RTVSPropertyOp1
 70
     1
102
RTVSPropertyOp2
 70
     1
102
RTVSPropertyOp3
 70
     1
102
RTVSPropertyOp4
 70
     1
102
RTVSPropertyOp5
 70
     1
102
RTVSPropertyOp6
 70
     1
102
RTVSPropertyOp7
 70
     1
102
RTVSPropertyOp8
 70
     1
102
RTVSPropertyOp9
 70
     1
102
RTVSPropertyOp10
 70
     1
102
RTVSPropertyOp11
 70
     1
102
RTVSPropertyOp12
 70
     1
102
RTVSPropertyOp13
 70
     1
102
RTVSPropertyOp14
 70
     1
102
RTVSPropertyOp15
 70
     1
102
RTVSPropertyOp16
 70
     1
102
RTVSPropertyOp17
 70
     1
102
RTVSPropertyOp18
 70
     1
102
RTVSPropertyOp19
 70
     1
102
RTVSPropertyOp20
 70
     1
102
RTVSPropertyOp21
 70
     1
102
RTVSPropertyOp22
 70
     1
102
RTVSPropertyOp23
 70
     1
102
RTVSPropertyOp24
 70
     1
102
RTVSPropertyOp25
 70
     1
102
RTVSPropertyOp26
 70
     1
102
RTVSPropertyOp27
 70
     1
102
RTVSPropertyOp28
 70
     1
102
RTVSPropertyOp29
 70
     1
102
RTVSPropertyOp30
 70
     1
102
RTVSPropertyOp31
 70
     1
102
RTVSPropertyOp32
 70
     1
102
RTVSPropertyOp33
 70
     1
102
RTVSPropertyOp34
 70
     1
102
RTVSPropertyOp35
 70
     1
102
RTVSPropertyOp36
 70
     1
102
RTVSPropertyOp37
 70
     1
102
RTVSPropertyOp38
 70
     1
102
RTVSPropertyOp39
 70
     1
102
RTVSPropertyOp40
 70
     1
102
RTVSPropertyOp41
 70
     1
102
RTVSPropertyOp42
 70
     1
102
RTVSPropertyOp43
 70
     1
102
RTVSPropertyOp44
 70
     1
102
RTVSPropertyOp45
 70
     1
102
RTVSPropertyOp46
 70
     1
102
RTVSPropertyOp47
 70
     1
102
RTVSPropertyOp48
 70
     1
102
RTVSPropertyOp49
 70
     1
102
RTVSPropertyOp50
 70
     1
102
RTVSPropertyOp51
 70
     0
102
RTVSPropertyOp52
 70
     0
102
RTVSPropertyOp53
 70
     1
102
RTVSPropertyOp54
 70
     1
102
RTVSPropertyOp55
 70
     1
102
RTVSPropertyOp56
 70
     1
102
RTVSPropertyOp57
 70
     1
102
RTVSPost2010Prop28
280
     0
102
RTVSPost2010PropOp28
 70
     1
102
RTVSPost2010Prop29
280
     1
102
RTVSPost2010PropOp29
 70
     1
102
RTVSPost2010Prop30
280
     1
102
RTVSPost2010PropOp30
 70
     1
102
RTVSPost2010Prop31
280
     0
102
RTVSPost2010PropOp31
 70
     1
102
RTVSPost2010Prop32
280
     0
102
RTVSPost2010PropOp32
 70
     1
102
RTVSPost2010Prop33
280
     0
102
RTVSPost2010PropOp33
 70
     1
102
RTVSPost2010Prop34
280
     0
102
RTVSPost2010PropOp34
 70
     1
102
RTVSPost2010Prop35
280
     0
102
RTVSPost2010PropOp35
 70
     1
102
RTVSPost2010Prop36
280
     0
102
RTVSPost2010PropOp36
 70
     1
102
RTVSPost2010Prop37
 90
       50
102
RTVSPost2010PropOp37
 70
     1
102
RTVSPost2010Prop38
140
0.0
102
RTVSPost2010PropOp38
 70
     1
102
RTVSPost2010Prop39
140
1.0
102
RTVSPost2010PropOp39
 70
     1
102
RTVSPost2010Prop40
 90
        0
102
RTVSPost2010PropOp40
 70
     1
102
RTVSPost2010Prop41ColorIndex
 90
      178
102
RTVSPost2010Prop41ColorRGB
 90
        0
102
RTVSPost2010PropOp41
 70
     1
102
RTVSPost2010Prop42
 90
       50
102
RTVSPost2010PropOp42
 70
     1
102
RTVSPost2010Prop43
 90
        3
102
RTVSPost2010PropOp43
 70
     1
102
RTVSPost2010Prop44ColorIndex
 90
        5
102
RTVSPost2010Prop44ColorRGB
 90
      255
102
RTVSPost2010PropOp44
 70
     1
102
RTVSPost2010Prop45
280
     0
102
RTVSPost2010PropOp45
 70
     1
102
RTVSPost2010Prop46
 90
       50
102
RTVSPost2010PropOp46
 70
     1
102
RTVSPost2010Prop47
 90
       50
102
RTVSPost2010PropOp47
 70
     1
102
RTVSPost2010Prop48
 90
       50
102
RTVSPost2010PropOp48
 70
     1
102
RTVSPost2010Prop49
280
     0
102
RTVSPost2010PropOp49
 70
     1
102
RTVSPost2010Prop50
 90
       50
102
RTVSPost2010PropOp50
 70
     1
102
RTVSPost2010Prop51ColorIndex
 90
      256
102
RTVSPost2010Prop51ColorRGB
 90
-16777216
102
RTVSPost2010PropOp51
 70
     0
102
RTVSPost2010Prop52
140
1.0
102
RTVSPost2010PropOp52
 70
     0
102
RTVSPost2010Prop53
 90
        2
102
RTVSPost2010PropOp53
 70
     1
102
RTVSPost2010Prop54
  1
strokes_ogs.tif
102
RTVSPost2010PropOp54
 70
     1
102
RTVSPost2010Prop55
280
     0
102
RTVSPost2010PropOp55
 70
     1
102
RTVSPost2010Prop56
140
1.0
102
RTVSPost2010PropOp56
 70
     1
102
RTVSPost2010Prop57
140
1.0
102
RTVSPost2010PropOp57
 70
     1
  0
XRECORD
  5
48F
102
{ACAD_REACTORS
330
48E
102
}
330
48E
100
AcDbXrecord
280
     1
102
RTVSPropertyOp0
 70
     0
102
RTVSPropertyOp1
 70
     0
102
RTVSPropertyOp2
 70
     0
102
RTVSPropertyOp3
 70
     0
102
RTVSPropertyOp4
 70
     0
102
RTVSPropertyOp5
 70
     0
102
RTVSPropertyOp6
 70
     0
102
RTVSPropertyOp7
 70
     0
102
RTVSPropertyOp8
 70
     0
102
RTVSPropertyOp9
 70
     0
102
RTVSPropertyOp10
 70
     0
102
RTVSPropertyOp11
 70
     0
102
RTVSPropertyOp12
 70
     0
102
RTVSPropertyOp13
 70
     0
102
RTVSPropertyOp14
 70
     2
102
RTVSPropertyOp15
 70
     0
102
RTVSPropertyOp16
 70
     0
102
RTVSPropertyOp17
 70
     0
102
RTVSPropertyOp18
 70
     0
102
RTVSPropertyOp19
 70
     0
102
RTVSPropertyOp20
 70
     0
102
RTVSPropertyOp21
 70
     0
102
RTVSPropertyOp22
 70
     0
102
RTVSPropertyOp23
 70
     0
102
RTVSPropertyOp24
 70
     0
102
RTVSPropertyOp25
 70
     0
102
RTVSPropertyOp26
 70
     0
102
RTVSPropertyOp27
 70
     0
102
RTVSPropertyOp28
 70
     0
102
RTVSPropertyOp29
 70
     0
102
RTVSPropertyOp30
 70
     0
102
RTVSPropertyOp31
 70
     0
102
RTVSPropertyOp32
 70
     0
102
RTVSPropertyOp33
 70
     0
102
RTVSPropertyOp34
 70
     0
102
RTVSPropertyOp35
 70
     0
102
RTVSPropertyOp36
 70
     0
102
RTVSPropertyOp37
 70
     0
102
RTVSPropertyOp38
 70
     0
102
RTVSPropertyOp39
 70
     0
102
RTVSPropertyOp40
 70
     0
102
RTVSPropertyOp41
 70
     0
102
RTVSPropertyOp42
 70
     0
102
RTVSPropertyOp43
 70
     0
102
RTVSPropertyOp44
 70
     0
102
RTVSPropertyOp45
 70
     0
102
RTVSPropertyOp46
 70
     0
102
RTVSPropertyOp47
 70
     0
102
RTVSPropertyOp48
 70
     0
102
RTVSPropertyOp49
 70
     0
102
RTVSPropertyOp50
 70
     0
102
RTVSPropertyOp51
 70
     0
102
RTVSPropertyOp52
 70
     0
102
RTVSPropertyOp53
 70
     0
102
RTVSPropertyOp54
 70
     0
102
RTVSPropertyOp55
 70
     0
102
RTVSPropertyOp56
 70
     0
102
RTVSPropertyOp57
 70
     0
102
RTVSPost2010Prop28
280
     0
102
RTVSPost2010PropOp28
 70
     0
102
RTVSPost2010Prop29
280
     1
102
RTVSPost2010PropOp29
 70
     0
102
RTVSPost2010Prop30
280
     1
102
RTVSPost2010PropOp30
 70
     0
102
RTVSPost2010Prop31
280
     0
102
RTVSPost2010PropOp31
 70
     0
102
RTVSPost2010Prop32
280
     0
102
RTVSPost2010PropOp32
 70
     0
102
RTVSPost2010Prop33
280
     0
102
RTVSPost2010PropOp33
 70
     0
102
RTVSPost2010Prop34
280
     0
102
RTVSPost2010PropOp34
 70
     0
102
RTVSPost2010Prop35
280
     0
102
RTVSPost2010PropOp35
 70
     0
102
RTVSPost2010Prop36
280
     0
102
RTVSPost2010PropOp36
 70
     0
102
RTVSPost2010Prop37
 90
       50
102
RTVSPost2010PropOp37
 70
     0
102
RTVSPost2010Prop38
140
0.0
102
RTVSPost2010PropOp38
 70
     0
102
RTVSPost2010Prop39
140
1.0
102
RTVSPost2010PropOp39
 70
     0
102
RTVSPost2010Prop40
 90
        0
102
RTVSPost2010PropOp40
 70
     0
102
RTVSPost2010Prop41ColorIndex
 90
      178
102
RTVSPost2010Prop41ColorRGB
 90
        0
102
RTVSPost2010PropOp41
 70
     0
102
RTVSPost2010Prop42
 90
       50
102
RTVSPost2010PropOp42
 70
     0
102
RTVSPost2010Prop43
 90
        3
102
RTVSPost2010PropOp43
 70
     0
102
RTVSPost2010Prop44ColorIndex
 90
        5
102
RTVSPost2010Prop44ColorRGB
 90
      255
102
RTVSPost2010PropOp44
 70
     0
102
RTVSPost2010Prop45
280
     0
102
RTVSPost2010PropOp45
 70
     0
102
RTVSPost2010Prop46
 90
       50
102
RTVSPost2010PropOp46
 70
     0
102
RTVSPost2010Prop47
 90
       50
102
RTVSPost2010PropOp47
 70
     0
102
RTVSPost2010Prop48
 90
       50
102
RTVSPost2010PropOp48
 70
     0
102
RTVSPost2010Prop49
280
     0
102
RTVSPost2010PropOp49
 70
     0
102
RTVSPost2010Prop50
 90
       50
102
RTVSPost2010PropOp50
 70
     0
102
RTVSPost2010Prop51ColorIndex
 90
      256
102
RTVSPost2010Prop51ColorRGB
 90
-16777216
102
RTVSPost2010PropOp51
 70
     0
102
RTVSPost2010Prop52
140
1.0
102
RTVSPost2010PropOp52
 70
     0
102
RTVSPost2010Prop53
 90
        2
102
RTVSPost2010PropOp53
 70
     0
102
RTVSPost2010Prop54
  1
strokes_ogs.tif
102
RTVSPost2010PropOp54
 70
     0
102
RTVSPost2010Prop55
280
     0
102
RTVSPost2010PropOp55
 70
     0
102
RTVSPost2010Prop56
140
1.0
102
RTVSPost2010PropOp56
 70
     0
102
RTVSPost2010Prop57
140
1.0
102
RTVSPost2010PropOp57
 70
     0
  0
XRECORD
  5
47D
102
{ACAD_REACTORS
330
47C
102
}
330
47C
100
AcDbXrecord
280
     1
102
RTVSPropertyOp0
 70
     1
102
RTVSPropertyOp1
 70
     1
102
RTVSPropertyOp2
 70
     1
102
RTVSPropertyOp3
 70
     1
102
RTVSPropertyOp4
 70
     1
102
RTVSPropertyOp5
 70
     1
102
RTVSPropertyOp6
 70
     1
102
RTVSPropertyOp7
 70
     1
102
RTVSPropertyOp8
 70
     1
102
RTVSPropertyOp9
 70
     1
102
RTVSPropertyOp10
 70
     1
102
RTVSPropertyOp11
 70
     1
102
RTVSPropertyOp12
 70
     1
102
RTVSPropertyOp13
 70
     1
102
RTVSPropertyOp14
 70
     1
102
RTVSPropertyOp15
 70
     1
102
RTVSPropertyOp16
 70
     1
102
RTVSPropertyOp17
 70
     1
102
RTVSPropertyOp18
 70
     1
102
RTVSPropertyOp19
 70
     1
102
RTVSPropertyOp20
 70
     1
102
RTVSPropertyOp21
 70
     1
102
RTVSPropertyOp22
 70
     1
102
RTVSPropertyOp23
 70
     1
102
RTVSPropertyOp24
 70
     1
102
RTVSPropertyOp25
 70
     1
102
RTVSPropertyOp26
 70
     1
102
RTVSPropertyOp27
 70
     1
102
RTVSPropertyOp28
 70
     1
102
RTVSPropertyOp29
 70
     1
102
RTVSPropertyOp30
 70
     1
102
RTVSPropertyOp31
 70
     1
102
RTVSPropertyOp32
 70
     1
102
RTVSPropertyOp33
 70
     1
102
RTVSPropertyOp34
 70
     1
102
RTVSPropertyOp35
 70
     1
102
RTVSPropertyOp36
 70
     1
102
RTVSPropertyOp37
 70
     1
102
RTVSPropertyOp38
 70
     1
102
RTVSPropertyOp39
 70
     1
102
RTVSPropertyOp40
 70
     1
102
RTVSPropertyOp41
 70
     1
102
RTVSPropertyOp42
 70
     1
102
RTVSPropertyOp43
 70
     1
102
RTVSPropertyOp44
 70
     1
102
RTVSPropertyOp45
 70
     1
102
RTVSPropertyOp46
 70
     1
102
RTVSPropertyOp47
 70
     1
102
RTVSPropertyOp48
 70
     1
102
RTVSPropertyOp49
 70
     1
102
RTVSPropertyOp50
 70
     1
102
RTVSPropertyOp51
 70
     0
102
RTVSPropertyOp52
 70
     0
102
RTVSPropertyOp53
 70
     1
102
RTVSPropertyOp54
 70
     1
102
RTVSPropertyOp55
 70
     1
102
RTVSPropertyOp56
 70
     1
102
RTVSPropertyOp57
 70
     1
102
RTVSPost2010Prop28
280
     0
102
RTVSPost2010PropOp28
 70
     1
102
RTVSPost2010Prop29
280
     1
102
RTVSPost2010PropOp29
 70
     1
102
RTVSPost2010Prop30
280
     1
102
RTVSPost2010PropOp30
 70
     1
102
RTVSPost2010Prop31
280
     0
102
RTVSPost2010PropOp31
 70
     1
102
RTVSPost2010Prop32
280
     0
102
RTVSPost2010PropOp32
 70
     1
102
RTVSPost2010Prop33
280
     0
102
RTVSPost2010PropOp33
 70
     1
102
RTVSPost2010Prop34
280
     0
102
RTVSPost2010PropOp34
 70
     1
102
RTVSPost2010Prop35
280
     0
102
RTVSPost2010PropOp35
 70
     1
102
RTVSPost2010Prop36
280
     0
102
RTVSPost2010PropOp36
 70
     1
102
RTVSPost2010Prop37
 90
       50
102
RTVSPost2010PropOp37
 70
     1
102
RTVSPost2010Prop38
140
0.0
102
RTVSPost2010PropOp38
 70
     1
102
RTVSPost2010Prop39
140
1.0
102
RTVSPost2010PropOp39
 70
     1
102
RTVSPost2010Prop40
 90
        0
102
RTVSPost2010PropOp40
 70
     1
102
RTVSPost2010Prop41ColorIndex
 90
      178
102
RTVSPost2010Prop41ColorRGB
 90
        0
102
RTVSPost2010PropOp41
 70
     1
102
RTVSPost2010Prop42
 90
       50
102
RTVSPost2010PropOp42
 70
     1
102
RTVSPost2010Prop43
 90
        3
102
RTVSPost2010PropOp43
 70
     1
102
RTVSPost2010Prop44ColorIndex
 90
        5
102
RTVSPost2010Prop44ColorRGB
 90
      255
102
RTVSPost2010PropOp44
 70
     1
102
RTVSPost2010Prop45
280
     0
102
RTVSPost2010PropOp45
 70
     1
102
RTVSPost2010Prop46
 90
       50
102
RTVSPost2010PropOp46
 70
     1
102
RTVSPost2010Prop47
 90
       50
102
RTVSPost2010PropOp47
 70
     1
102
RTVSPost2010Prop48
 90
       50
102
RTVSPost2010PropOp48
 70
     1
102
RTVSPost2010Prop49
280
     0
102
RTVSPost2010PropOp49
 70
     1
102
RTVSPost2010Prop50
 90
       50
102
RTVSPost2010PropOp50
 70
     1
102
RTVSPost2010Prop51ColorIndex
 90
      256
102
RTVSPost2010Prop51ColorRGB
 90
-16777216
102
RTVSPost2010PropOp51
 70
     0
102
RTVSPost2010Prop52
140
1.0
102
RTVSPost2010PropOp52
 70
     0
102
RTVSPost2010Prop53
 90
        2
102
RTVSPost2010PropOp53
 70
     1
102
RTVSPost2010Prop54
  1
strokes_ogs.tif
102
RTVSPost2010PropOp54
 70
     1
102
RTVSPost2010Prop55
280
     0
102
RTVSPost2010PropOp55
 70
     1
102
RTVSPost2010Prop56
140
1.0
102
RTVSPost2010PropOp56
 70
     1
102
RTVSPost2010Prop57
140
1.0
102
RTVSPost2010PropOp57
 70
     1
  0
XRECORD
  5
49B
102
{ACAD_REACTORS
330
49A
102
}
330
49A
100
AcDbXrecord
280
     1
102
RTVSPropertyOp0
 70
     1
102
RTVSPropertyOp1
 70
     1
102
RTVSPropertyOp2
 70
     1
102
RTVSPropertyOp3
 70
     1
102
RTVSPropertyOp4
 70
     1
102
RTVSPropertyOp5
 70
     1
102
RTVSPropertyOp6
 70
     1
102
RTVSPropertyOp7
 70
     1
102
RTVSPropertyOp8
 70
     1
102
RTVSPropertyOp9
 70
     1
102
RTVSPropertyOp10
 70
     1
102
RTVSPropertyOp11
 70
     1
102
RTVSPropertyOp12
 70
     1
102
RTVSPropertyOp13
 70
     1
102
RTVSPropertyOp14
 70
     1
102
RTVSPropertyOp15
 70
     1
102
RTVSPropertyOp16
 70
     1
102
RTVSPropertyOp17
 70
     1
102
RTVSPropertyOp18
 70
     1
102
RTVSPropertyOp19
 70
     1
102
RTVSPropertyOp20
 70
     1
102
RTVSPropertyOp21
 70
     1
102
RTVSPropertyOp22
 70
     1
102
RTVSPropertyOp23
 70
     1
102
RTVSPropertyOp24
 70
     1
102
RTVSPropertyOp25
 70
     1
102
RTVSPropertyOp26
 70
     1
102
RTVSPropertyOp27
 70
     1
102
RTVSPropertyOp28
 70
     1
102
RTVSPropertyOp29
 70
     1
102
RTVSPropertyOp30
 70
     1
102
RTVSPropertyOp31
 70
     1
102
RTVSPropertyOp32
 70
     1
102
RTVSPropertyOp33
 70
     1
102
RTVSPropertyOp34
 70
     1
102
RTVSPropertyOp35
 70
     1
102
RTVSPropertyOp36
 70
     1
102
RTVSPropertyOp37
 70
     1
102
RTVSPropertyOp38
 70
     1
102
RTVSPropertyOp39
 70
     1
102
RTVSPropertyOp40
 70
     1
102
RTVSPropertyOp41
 70
     1
102
RTVSPropertyOp42
 70
     1
102
RTVSPropertyOp43
 70
     1
102
RTVSPropertyOp44
 70
     1
102
RTVSPropertyOp45
 70
     1
102
RTVSPropertyOp46
 70
     1
102
RTVSPropertyOp47
 70
     1
102
RTVSPropertyOp48
 70
     1
102
RTVSPropertyOp49
 70
     1
102
RTVSPropertyOp50
 70
     1
102
RTVSPropertyOp51
 70
     0
102
RTVSPropertyOp52
 70
     0
102
RTVSPropertyOp53
 70
     1
102
RTVSPropertyOp54
 70
     1
102
RTVSPropertyOp55
 70
     1
102
RTVSPropertyOp56
 70
     1
102
RTVSPropertyOp57
 70
     1
102
RTVSPost2010Prop28
280
     0
102
RTVSPost2010PropOp28
 70
     1
102
RTVSPost2010Prop29
280
     1
102
RTVSPost2010PropOp29
 70
     1
102
RTVSPost2010Prop30
280
     1
102
RTVSPost2010PropOp30
 70
     1
102
RTVSPost2010Prop31
280
     0
102
RTVSPost2010PropOp31
 70
     1
102
RTVSPost2010Prop32
280
     0
102
RTVSPost2010PropOp32
 70
     1
102
RTVSPost2010Prop33
280
     0
102
RTVSPost2010PropOp33
 70
     1
102
RTVSPost2010Prop34
280
     0
102
RTVSPost2010PropOp34
 70
     1
102
RTVSPost2010Prop35
280
     0
102
RTVSPost2010PropOp35
 70
     1
102
RTVSPost2010Prop36
280
     0
102
RTVSPost2010PropOp36
 70
     1
102
RTVSPost2010Prop37
 90
       50
102
RTVSPost2010PropOp37
 70
     1
102
RTVSPost2010Prop38
140
0.0
102
RTVSPost2010PropOp38
 70
     1
102
RTVSPost2010Prop39
140
1.0
102
RTVSPost2010PropOp39
 70
     1
102
RTVSPost2010Prop40
 90
        0
102
RTVSPost2010PropOp40
 70
     1
102
RTVSPost2010Prop41ColorIndex
 90
      178
102
RTVSPost2010Prop41ColorRGB
 90
        0
102
RTVSPost2010PropOp41
 70
     1
102
RTVSPost2010Prop42
 90
       50
102
RTVSPost2010PropOp42
 70
     1
102
RTVSPost2010Prop43
 90
        3
102
RTVSPost2010PropOp43
 70
     1
102
RTVSPost2010Prop44ColorIndex
 90
        5
102
RTVSPost2010Prop44ColorRGB
 90
      255
102
RTVSPost2010PropOp44
 70
     1
102
RTVSPost2010Prop45
280
     0
102
RTVSPost2010PropOp45
 70
     1
102
RTVSPost2010Prop46
 90
       50
102
RTVSPost2010PropOp46
 70
     1
102
RTVSPost2010Prop47
 90
       50
102
RTVSPost2010PropOp47
 70
     1
102
RTVSPost2010Prop48
 90
       50
102
RTVSPost2010PropOp48
 70
     1
102
RTVSPost2010Prop49
280
     0
102
RTVSPost2010PropOp49
 70
     1
102
RTVSPost2010Prop50
 90
       50
102
RTVSPost2010PropOp50
 70
     1
102
RTVSPost2010Prop51ColorIndex
 90
      256
102
RTVSPost2010Prop51ColorRGB
 90
-16777216
102
RTVSPost2010PropOp51
 70
     0
102
RTVSPost2010Prop52
140
1.0
102
RTVSPost2010PropOp52
 70
     0
102
RTVSPost2010Prop53
 90
        2
102
RTVSPost2010PropOp53
 70
     1
102
RTVSPost2010Prop54
  1
strokes_ogs.tif
102
RTVSPost2010PropOp54
 70
     1
102
RTVSPost2010Prop55
280
     0
102
RTVSPost2010PropOp55
 70
     1
102
RTVSPost2010Prop56
140
1.0
102
RTVSPost2010PropOp56
 70
     1
102
RTVSPost2010Prop57
140
1.0
102
RTVSPost2010PropOp57
 70
     1
  0
XRECORD
  5
499
102
{ACAD_REACTORS
330
498
102
}
330
498
100
AcDbXrecord
280
     1
102
RTVSPropertyOp0
 70
     1
102
RTVSPropertyOp1
 70
     1
102
RTVSPropertyOp2
 70
     1
102
RTVSPropertyOp3
 70
     1
102
RTVSPropertyOp4
 70
     1
102
RTVSPropertyOp5
 70
     1
102
RTVSPropertyOp6
 70
     1
102
RTVSPropertyOp7
 70
     1
102
RTVSPropertyOp8
 70
     1
102
RTVSPropertyOp9
 70
     1
102
RTVSPropertyOp10
 70
     1
102
RTVSPropertyOp11
 70
     1
102
RTVSPropertyOp12
 70
     1
102
RTVSPropertyOp13
 70
     1
102
RTVSPropertyOp14
 70
     1
102
RTVSPropertyOp15
 70
     1
102
RTVSPropertyOp16
 70
     1
102
RTVSPropertyOp17
 70
     1
102
RTVSPropertyOp18
 70
     1
102
RTVSPropertyOp19
 70
     1
102
RTVSPropertyOp20
 70
     1
102
RTVSPropertyOp21
 70
     1
102
RTVSPropertyOp22
 70
     1
102
RTVSPropertyOp23
 70
     1
102
RTVSPropertyOp24
 70
     1
102
RTVSPropertyOp25
 70
     1
102
RTVSPropertyOp26
 70
     1
102
RTVSPropertyOp27
 70
     1
102
RTVSPropertyOp28
 70
     1
102
RTVSPropertyOp29
 70
     1
102
RTVSPropertyOp30
 70
     1
102
RTVSPropertyOp31
 70
     1
102
RTVSPropertyOp32
 70
     1
102
RTVSPropertyOp33
 70
     1
102
RTVSPropertyOp34
 70
     1
102
RTVSPropertyOp35
 70
     1
102
RTVSPropertyOp36
 70
     1
102
RTVSPropertyOp37
 70
     1
102
RTVSPropertyOp38
 70
     1
102
RTVSPropertyOp39
 70
     1
102
RTVSPropertyOp40
 70
     1
102
RTVSPropertyOp41
 70
     1
102
RTVSPropertyOp42
 70
     1
102
RTVSPropertyOp43
 70
     1
102
RTVSPropertyOp44
 70
     1
102
RTVSPropertyOp45
 70
     1
102
RTVSPropertyOp46
 70
     1
102
RTVSPropertyOp47
 70
     1
102
RTVSPropertyOp48
 70
     1
102
RTVSPropertyOp49
 70
     1
102
RTVSPropertyOp50
 70
     1
102
RTVSPropertyOp51
 70
     0
102
RTVSPropertyOp52
 70
     0
102
RTVSPropertyOp53
 70
     1
102
RTVSPropertyOp54
 70
     1
102
RTVSPropertyOp55
 70
     1
102
RTVSPropertyOp56
 70
     1
102
RTVSPropertyOp57
 70
     1
102
RTVSPost2010Prop28
280
     0
102
RTVSPost2010PropOp28
 70
     1
102
RTVSPost2010Prop29
280
     1
102
RTVSPost2010PropOp29
 70
     1
102
RTVSPost2010Prop30
280
     1
102
RTVSPost2010PropOp30
 70
     1
102
RTVSPost2010Prop31
280
     0
102
RTVSPost2010PropOp31
 70
     1
102
RTVSPost2010Prop32
280
     0
102
RTVSPost2010PropOp32
 70
     1
102
RTVSPost2010Prop33
280
     0
102
RTVSPost2010PropOp33
 70
     1
102
RTVSPost2010Prop34
280
     0
102
RTVSPost2010PropOp34
 70
     1
102
RTVSPost2010Prop35
280
     0
102
RTVSPost2010PropOp35
 70
     1
102
RTVSPost2010Prop36
280
     0
102
RTVSPost2010PropOp36
 70
     1
102
RTVSPost2010Prop37
 90
       50
102
RTVSPost2010PropOp37
 70
     1
102
RTVSPost2010Prop38
140
0.0
102
RTVSPost2010PropOp38
 70
     1
102
RTVSPost2010Prop39
140
1.0
102
RTVSPost2010PropOp39
 70
     1
102
RTVSPost2010Prop40
 90
        0
102
RTVSPost2010PropOp40
 70
     1
102
RTVSPost2010Prop41ColorIndex
 90
      178
102
RTVSPost2010Prop41ColorRGB
 90
        0
102
RTVSPost2010PropOp41
 70
     1
102
RTVSPost2010Prop42
 90
       50
102
RTVSPost2010PropOp42
 70
     1
102
RTVSPost2010Prop43
 90
        3
102
RTVSPost2010PropOp43
 70
     1
102
RTVSPost2010Prop44ColorIndex
 90
        5
102
RTVSPost2010Prop44ColorRGB
 90
      255
102
RTVSPost2010PropOp44
 70
     1
102
RTVSPost2010Prop45
280
     0
102
RTVSPost2010PropOp45
 70
     1
102
RTVSPost2010Prop46
 90
       50
102
RTVSPost2010PropOp46
 70
     1
102
RTVSPost2010Prop47
 90
       50
102
RTVSPost2010PropOp47
 70
     1
102
RTVSPost2010Prop48
 90
       50
102
RTVSPost2010PropOp48
 70
     1
102
RTVSPost2010Prop49
280
     0
102
RTVSPost2010PropOp49
 70
     1
102
RTVSPost2010Prop50
 90
       50
102
RTVSPost2010PropOp50
 70
     1
102
RTVSPost2010Prop51ColorIndex
 90
      256
102
RTVSPost2010Prop51ColorRGB
 90
-16777216
102
RTVSPost2010PropOp51
 70
     0
102
RTVSPost2010Prop52
140
1.0
102
RTVSPost2010PropOp52
 70
     0
102
RTVSPost2010Prop53
 90
        2
102
RTVSPost2010PropOp53
 70
     1
102
RTVSPost2010Prop54
  1
strokes_ogs.tif
102
RTVSPost2010PropOp54
 70
     1
102
RTVSPost2010Prop55
280
     0
102
RTVSPost2010PropOp55
 70
     1
102
RTVSPost2010Prop56
140
1.0
102
RTVSPost2010PropOp56
 70
     1
102
RTVSPost2010Prop57
140
1.0
102
RTVSPost2010PropOp57
 70
     1
  0
XRECORD
  5
493
102
{ACAD_REACTORS
330
492
102
}
330
492
100
AcDbXrecord
280
     1
102
RTVSPropertyOp0
 70
     1
102
RTVSPropertyOp1
 70
     1
102
RTVSPropertyOp2
 70
     1
102
RTVSPropertyOp3
 70
     1
102
RTVSPropertyOp4
 70
     1
102
RTVSPropertyOp5
 70
     1
102
RTVSPropertyOp6
 70
     1
102
RTVSPropertyOp7
 70
     1
102
RTVSPropertyOp8
 70
     1
102
RTVSPropertyOp9
 70
     1
102
RTVSPropertyOp10
 70
     1
102
RTVSPropertyOp11
 70
     1
102
RTVSPropertyOp12
 70
     1
102
RTVSPropertyOp13
 70
     1
102
RTVSPropertyOp14
 70
     1
102
RTVSPropertyOp15
 70
     1
102
RTVSPropertyOp16
 70
     1
102
RTVSPropertyOp17
 70
     1
102
RTVSPropertyOp18
 70
     1
102
RTVSPropertyOp19
 70
     1
102
RTVSPropertyOp20
 70
     1
102
RTVSPropertyOp21
 70
     1
102
RTVSPropertyOp22
 70
     1
102
RTVSPropertyOp23
 70
     1
102
RTVSPropertyOp24
 70
     1
102
RTVSPropertyOp25
 70
     1
102
RTVSPropertyOp26
 70
     1
102
RTVSPropertyOp27
 70
     1
102
RTVSPropertyOp28
 70
     1
102
RTVSPropertyOp29
 70
     1
102
RTVSPropertyOp30
 70
     1
102
RTVSPropertyOp31
 70
     1
102
RTVSPropertyOp32
 70
     1
102
RTVSPropertyOp33
 70
     1
102
RTVSPropertyOp34
 70
     1
102
RTVSPropertyOp35
 70
     1
102
RTVSPropertyOp36
 70
     1
102
RTVSPropertyOp37
 70
     1
102
RTVSPropertyOp38
 70
     1
102
RTVSPropertyOp39
 70
     1
102
RTVSPropertyOp40
 70
     1
102
RTVSPropertyOp41
 70
     1
102
RTVSPropertyOp42
 70
     1
102
RTVSPropertyOp43
 70
     1
102
RTVSPropertyOp44
 70
     1
102
RTVSPropertyOp45
 70
     1
102
RTVSPropertyOp46
 70
     1
102
RTVSPropertyOp47
 70
     1
102
RTVSPropertyOp48
 70
     1
102
RTVSPropertyOp49
 70
     1
102
RTVSPropertyOp50
 70
     1
102
RTVSPropertyOp51
 70
     0
102
RTVSPropertyOp52
 70
     0
102
RTVSPropertyOp53
 70
     1
102
RTVSPropertyOp54
 70
     1
102
RTVSPropertyOp55
 70
     1
102
RTVSPropertyOp56
 70
     1
102
RTVSPropertyOp57
 70
     1
102
RTVSPost2010Prop28
280
     0
102
RTVSPost2010PropOp28
 70
     1
102
RTVSPost2010Prop29
280
     1
102
RTVSPost2010PropOp29
 70
     1
102
RTVSPost2010Prop30
280
     1
102
RTVSPost2010PropOp30
 70
     1
102
RTVSPost2010Prop31
280
     0
102
RTVSPost2010PropOp31
 70
     1
102
RTVSPost2010Prop32
280
     0
102
RTVSPost2010PropOp32
 70
     1
102
RTVSPost2010Prop33
280
     0
102
RTVSPost2010PropOp33
 70
     1
102
RTVSPost2010Prop34
280
     0
102
RTVSPost2010PropOp34
 70
     1
102
RTVSPost2010Prop35
280
     0
102
RTVSPost2010PropOp35
 70
     1
102
RTVSPost2010Prop36
280
     0
102
RTVSPost2010PropOp36
 70
     1
102
RTVSPost2010Prop37
 90
       50
102
RTVSPost2010PropOp37
 70
     1
102
RTVSPost2010Prop38
140
0.0
102
RTVSPost2010PropOp38
 70
     1
102
RTVSPost2010Prop39
140
1.0
102
RTVSPost2010PropOp39
 70
     1
102
RTVSPost2010Prop40
 90
        0
102
RTVSPost2010PropOp40
 70
     1
102
RTVSPost2010Prop41ColorIndex
 90
      178
102
RTVSPost2010Prop41ColorRGB
 90
        0
102
RTVSPost2010PropOp41
 70
     1
102
RTVSPost2010Prop42
 90
       50
102
RTVSPost2010PropOp42
 70
     1
102
RTVSPost2010Prop43
 90
        3
102
RTVSPost2010PropOp43
 70
     1
102
RTVSPost2010Prop44ColorIndex
 90
        5
102
RTVSPost2010Prop44ColorRGB
 90
      255
102
RTVSPost2010PropOp44
 70
     1
102
RTVSPost2010Prop45
280
     0
102
RTVSPost2010PropOp45
 70
     1
102
RTVSPost2010Prop46
 90
       50
102
RTVSPost2010PropOp46
 70
     1
102
RTVSPost2010Prop47
 90
       50
102
RTVSPost2010PropOp47
 70
     1
102
RTVSPost2010Prop48
 90
       50
102
RTVSPost2010PropOp48
 70
     1
102
RTVSPost2010Prop49
280
     0
102
RTVSPost2010PropOp49
 70
     1
102
RTVSPost2010Prop50
 90
       50
102
RTVSPost2010PropOp50
 70
     1
102
RTVSPost2010Prop51ColorIndex
 90
      256
102
RTVSPost2010Prop51ColorRGB
 90
-16777216
102
RTVSPost2010PropOp51
 70
     0
102
RTVSPost2010Prop52
140
1.0
102
RTVSPost2010PropOp52
 70
     0
102
RTVSPost2010Prop53
 90
        2
102
RTVSPost2010PropOp53
 70
     1
102
RTVSPost2010Prop54
  1
strokes_ogs.tif
102
RTVSPost2010PropOp54
 70
     1
102
RTVSPost2010Prop55
280
     0
102
RTVSPost2010PropOp55
 70
     1
102
RTVSPost2010Prop56
140
1.0
102
RTVSPost2010PropOp56
 70
     1
102
RTVSPost2010Prop57
140
1.0
102
RTVSPost2010PropOp57
 70
     1
  0
XRECORD
  5
495
102
{ACAD_REACTORS
330
494
102
}
330
494
100
AcDbXrecord
280
     1
102
RTVSPropertyOp0
 70
     1
102
RTVSPropertyOp1
 70
     1
102
RTVSPropertyOp2
 70
     1
102
RTVSPropertyOp3
 70
     1
102
RTVSPropertyOp4
 70
     1
102
RTVSPropertyOp5
 70
     1
102
RTVSPropertyOp6
 70
     1
102
RTVSPropertyOp7
 70
     1
102
RTVSPropertyOp8
 70
     1
102
RTVSPropertyOp9
 70
     1
102
RTVSPropertyOp10
 70
     1
102
RTVSPropertyOp11
 70
     1
102
RTVSPropertyOp12
 70
     1
102
RTVSPropertyOp13
 70
     1
102
RTVSPropertyOp14
 70
     1
102
RTVSPropertyOp15
 70
     1
102
RTVSPropertyOp16
 70
     1
102
RTVSPropertyOp17
 70
     1
102
RTVSPropertyOp18
 70
     1
102
RTVSPropertyOp19
 70
     1
102
RTVSPropertyOp20
 70
     1
102
RTVSPropertyOp21
 70
     1
102
RTVSPropertyOp22
 70
     1
102
RTVSPropertyOp23
 70
     1
102
RTVSPropertyOp24
 70
     1
102
RTVSPropertyOp25
 70
     1
102
RTVSPropertyOp26
 70
     1
102
RTVSPropertyOp27
 70
     1
102
RTVSPropertyOp28
 70
     1
102
RTVSPropertyOp29
 70
     1
102
RTVSPropertyOp30
 70
     1
102
RTVSPropertyOp31
 70
     1
102
RTVSPropertyOp32
 70
     1
102
RTVSPropertyOp33
 70
     1
102
RTVSPropertyOp34
 70
     1
102
RTVSPropertyOp35
 70
     1
102
RTVSPropertyOp36
 70
     1
102
RTVSPropertyOp37
 70
     1
102
RTVSPropertyOp38
 70
     1
102
RTVSPropertyOp39
 70
     1
102
RTVSPropertyOp40
 70
     1
102
RTVSPropertyOp41
 70
     1
102
RTVSPropertyOp42
 70
     1
102
RTVSPropertyOp43
 70
     1
102
RTVSPropertyOp44
 70
     1
102
RTVSPropertyOp45
 70
     1
102
RTVSPropertyOp46
 70
     1
102
RTVSPropertyOp47
 70
     1
102
RTVSPropertyOp48
 70
     1
102
RTVSPropertyOp49
 70
     1
102
RTVSPropertyOp50
 70
     1
102
RTVSPropertyOp51
 70
     0
102
RTVSPropertyOp52
 70
     0
102
RTVSPropertyOp53
 70
     1
102
RTVSPropertyOp54
 70
     1
102
RTVSPropertyOp55
 70
     1
102
RTVSPropertyOp56
 70
     1
102
RTVSPropertyOp57
 70
     1
102
RTVSPost2010Prop28
280
     0
102
RTVSPost2010PropOp28
 70
     1
102
RTVSPost2010Prop29
280
     1
102
RTVSPost2010PropOp29
 70
     1
102
RTVSPost2010Prop30
280
     1
102
RTVSPost2010PropOp30
 70
     1
102
RTVSPost2010Prop31
280
     0
102
RTVSPost2010PropOp31
 70
     1
102
RTVSPost2010Prop32
280
     0
102
RTVSPost2010PropOp32
 70
     1
102
RTVSPost2010Prop33
280
     0
102
RTVSPost2010PropOp33
 70
     1
102
RTVSPost2010Prop34
280
     0
102
RTVSPost2010PropOp34
 70
     1
102
RTVSPost2010Prop35
280
     0
102
RTVSPost2010PropOp35
 70
     1
102
RTVSPost2010Prop36
280
     0
102
RTVSPost2010PropOp36
 70
     1
102
RTVSPost2010Prop37
 90
       50
102
RTVSPost2010PropOp37
 70
     1
102
RTVSPost2010Prop38
140
0.0
102
RTVSPost2010PropOp38
 70
     1
102
RTVSPost2010Prop39
140
1.0
102
RTVSPost2010PropOp39
 70
     1
102
RTVSPost2010Prop40
 90
        0
102
RTVSPost2010PropOp40
 70
     1
102
RTVSPost2010Prop41ColorIndex
 90
      178
102
RTVSPost2010Prop41ColorRGB
 90
        0
102
RTVSPost2010PropOp41
 70
     1
102
RTVSPost2010Prop42
 90
       50
102
RTVSPost2010PropOp42
 70
     1
102
RTVSPost2010Prop43
 90
        3
102
RTVSPost2010PropOp43
 70
     1
102
RTVSPost2010Prop44ColorIndex
 90
        5
102
RTVSPost2010Prop44ColorRGB
 90
      255
102
RTVSPost2010PropOp44
 70
     1
102
RTVSPost2010Prop45
280
     0
102
RTVSPost2010PropOp45
 70
     1
102
RTVSPost2010Prop46
 90
       50
102
RTVSPost2010PropOp46
 70
     1
102
RTVSPost2010Prop47
 90
       50
102
RTVSPost2010PropOp47
 70
     1
102
RTVSPost2010Prop48
 90
       50
102
RTVSPost2010PropOp48
 70
     1
102
RTVSPost2010Prop49
280
     0
102
RTVSPost2010PropOp49
 70
     1
102
RTVSPost2010Prop50
 90
       50
102
RTVSPost2010PropOp50
 70
     1
102
RTVSPost2010Prop51ColorIndex
 90
      256
102
RTVSPost2010Prop51ColorRGB
 90
-16777216
102
RTVSPost2010PropOp51
 70
     0
102
RTVSPost2010Prop52
140
1.0
102
RTVSPost2010PropOp52
 70
     0
102
RTVSPost2010Prop53
 90
        2
102
RTVSPost2010PropOp53
 70
     1
102
RTVSPost2010Prop54
  1
strokes_ogs.tif
102
RTVSPost2010PropOp54
 70
     1
102
RTVSPost2010Prop55
280
     0
102
RTVSPost2010PropOp55
 70
     1
102
RTVSPost2010Prop56
140
1.0
102
RTVSPost2010PropOp56
 70
     1
102
RTVSPost2010Prop57
140
1.0
102
RTVSPost2010PropOp57
 70
     1
  0
XRECORD
  5
485
102
{ACAD_REACTORS
330
484
102
}
330
484
100
AcDbXrecord
280
     1
102
RTVSPropertyOp0
 70
     1
102
RTVSPropertyOp1
 70
     1
102
RTVSPropertyOp2
 70
     1
102
RTVSPropertyOp3
 70
     1
102
RTVSPropertyOp4
 70
     1
102
RTVSPropertyOp5
 70
     1
102
RTVSPropertyOp6
 70
     1
102
RTVSPropertyOp7
 70
     1
102
RTVSPropertyOp8
 70
     1
102
RTVSPropertyOp9
 70
     1
102
RTVSPropertyOp10
 70
     1
102
RTVSPropertyOp11
 70
     1
102
RTVSPropertyOp12
 70
     1
102
RTVSPropertyOp13
 70
     1
102
RTVSPropertyOp14
 70
     1
102
RTVSPropertyOp15
 70
     1
102
RTVSPropertyOp16
 70
     1
102
RTVSPropertyOp17
 70
     1
102
RTVSPropertyOp18
 70
     1
102
RTVSPropertyOp19
 70
     1
102
RTVSPropertyOp20
 70
     1
102
RTVSPropertyOp21
 70
     1
102
RTVSPropertyOp22
 70
     1
102
RTVSPropertyOp23
 70
     1
102
RTVSPropertyOp24
 70
     1
102
RTVSPropertyOp25
 70
     1
102
RTVSPropertyOp26
 70
     1
102
RTVSPropertyOp27
 70
     1
102
RTVSPropertyOp28
 70
     1
102
RTVSPropertyOp29
 70
     1
102
RTVSPropertyOp30
 70
     1
102
RTVSPropertyOp31
 70
     1
102
RTVSPropertyOp32
 70
     1
102
RTVSPropertyOp33
 70
     1
102
RTVSPropertyOp34
 70
     1
102
RTVSPropertyOp35
 70
     1
102
RTVSPropertyOp36
 70
     1
102
RTVSPropertyOp37
 70
     1
102
RTVSPropertyOp38
 70
     1
102
RTVSPropertyOp39
 70
     1
102
RTVSPropertyOp40
 70
     1
102
RTVSPropertyOp41
 70
     1
102
RTVSPropertyOp42
 70
     1
102
RTVSPropertyOp43
 70
     1
102
RTVSPropertyOp44
 70
     1
102
RTVSPropertyOp45
 70
     1
102
RTVSPropertyOp46
 70
     1
102
RTVSPropertyOp47
 70
     1
102
RTVSPropertyOp48
 70
     1
102
RTVSPropertyOp49
 70
     1
102
RTVSPropertyOp50
 70
     1
102
RTVSPropertyOp51
 70
     0
102
RTVSPropertyOp52
 70
     0
102
RTVSPropertyOp53
 70
     1
102
RTVSPropertyOp54
 70
     1
102
RTVSPropertyOp55
 70
     1
102
RTVSPropertyOp56
 70
     1
102
RTVSPropertyOp57
 70
     1
102
RTVSPost2010Prop28
280
     0
102
RTVSPost2010PropOp28
 70
     1
102
RTVSPost2010Prop29
280
     1
102
RTVSPost2010PropOp29
 70
     1
102
RTVSPost2010Prop30
280
     1
102
RTVSPost2010PropOp30
 70
     1
102
RTVSPost2010Prop31
280
     0
102
RTVSPost2010PropOp31
 70
     1
102
RTVSPost2010Prop32
280
     0
102
RTVSPost2010PropOp32
 70
     1
102
RTVSPost2010Prop33
280
     0
102
RTVSPost2010PropOp33
 70
     1
102
RTVSPost2010Prop34
280
     0
102
RTVSPost2010PropOp34
 70
     1
102
RTVSPost2010Prop35
280
     0
102
RTVSPost2010PropOp35
 70
     1
102
RTVSPost2010Prop36
280
     0
102
RTVSPost2010PropOp36
 70
     1
102
RTVSPost2010Prop37
 90
       50
102
RTVSPost2010PropOp37
 70
     1
102
RTVSPost2010Prop38
140
0.0
102
RTVSPost2010PropOp38
 70
     1
102
RTVSPost2010Prop39
140
1.0
102
RTVSPost2010PropOp39
 70
     1
102
RTVSPost2010Prop40
 90
        0
102
RTVSPost2010PropOp40
 70
     1
102
RTVSPost2010Prop41ColorIndex
 90
      178
102
RTVSPost2010Prop41ColorRGB
 90
        0
102
RTVSPost2010PropOp41
 70
     1
102
RTVSPost2010Prop42
 90
       50
102
RTVSPost2010PropOp42
 70
     1
102
RTVSPost2010Prop43
 90
        3
102
RTVSPost2010PropOp43
 70
     1
102
RTVSPost2010Prop44ColorIndex
 90
        5
102
RTVSPost2010Prop44ColorRGB
 90
      255
102
RTVSPost2010PropOp44
 70
     1
102
RTVSPost2010Prop45
280
     0
102
RTVSPost2010PropOp45
 70
     1
102
RTVSPost2010Prop46
 90
       50
102
RTVSPost2010PropOp46
 70
     1
102
RTVSPost2010Prop47
 90
       50
102
RTVSPost2010PropOp47
 70
     1
102
RTVSPost2010Prop48
 90
       50
102
RTVSPost2010PropOp48
 70
     1
102
RTVSPost2010Prop49
280
     0
102
RTVSPost2010PropOp49
 70
     1
102
RTVSPost2010Prop50
 90
       50
102
RTVSPost2010PropOp50
 70
     1
102
RTVSPost2010Prop51ColorIndex
 90
      256
102
RTVSPost2010Prop51ColorRGB
 90
-16777216
102
RTVSPost2010PropOp51
 70
     0
102
RTVSPost2010Prop52
140
1.0
102
RTVSPost2010PropOp52
 70
     0
102
RTVSPost2010Prop53
 90
        2
102
RTVSPost2010PropOp53
 70
     1
102
RTVSPost2010Prop54
  1
strokes_ogs.tif
102
RTVSPost2010PropOp54
 70
     1
102
RTVSPost2010Prop55
280
     0
102
RTVSPost2010PropOp55
 70
     1
102
RTVSPost2010Prop56
140
1.0
102
RTVSPost2010PropOp56
 70
     1
102
RTVSPost2010Prop57
140
1.0
102
RTVSPost2010PropOp57
 70
     1
  0
XRECORD
  5
477
102
{ACAD_REACTORS
330
476
102
}
330
476
100
AcDbXrecord
280
     1
102
RTVSPropertyOp0
 70
     1
102
RTVSPropertyOp1
 70
     1
102
RTVSPropertyOp2
 70
     1
102
RTVSPropertyOp3
 70
     1
102
RTVSPropertyOp4
 70
     1
102
RTVSPropertyOp5
 70
     1
102
RTVSPropertyOp6
 70
     1
102
RTVSPropertyOp7
 70
     1
102
RTVSPropertyOp8
 70
     1
102
RTVSPropertyOp9
 70
     1
102
RTVSPropertyOp10
 70
     1
102
RTVSPropertyOp11
 70
     1
102
RTVSPropertyOp12
 70
     1
102
RTVSPropertyOp13
 70
     1
102
RTVSPropertyOp14
 70
     1
102
RTVSPropertyOp15
 70
     1
102
RTVSPropertyOp16
 70
     1
102
RTVSPropertyOp17
 70
     1
102
RTVSPropertyOp18
 70
     1
102
RTVSPropertyOp19
 70
     1
102
RTVSPropertyOp20
 70
     1
102
RTVSPropertyOp21
 70
     1
102
RTVSPropertyOp22
 70
     1
102
RTVSPropertyOp23
 70
     1
102
RTVSPropertyOp24
 70
     1
102
RTVSPropertyOp25
 70
     1
102
RTVSPropertyOp26
 70
     1
102
RTVSPropertyOp27
 70
     1
102
RTVSPropertyOp28
 70
     1
102
RTVSPropertyOp29
 70
     1
102
RTVSPropertyOp30
 70
     1
102
RTVSPropertyOp31
 70
     1
102
RTVSPropertyOp32
 70
     1
102
RTVSPropertyOp33
 70
     1
102
RTVSPropertyOp34
 70
     1
102
RTVSPropertyOp35
 70
     1
102
RTVSPropertyOp36
 70
     1
102
RTVSPropertyOp37
 70
     1
102
RTVSPropertyOp38
 70
     1
102
RTVSPropertyOp39
 70
     1
102
RTVSPropertyOp40
 70
     1
102
RTVSPropertyOp41
 70
     1
102
RTVSPropertyOp42
 70
     1
102
RTVSPropertyOp43
 70
     1
102
RTVSPropertyOp44
 70
     1
102
RTVSPropertyOp45
 70
     1
102
RTVSPropertyOp46
 70
     1
102
RTVSPropertyOp47
 70
     1
102
RTVSPropertyOp48
 70
     1
102
RTVSPropertyOp49
 70
     1
102
RTVSPropertyOp50
 70
     1
102
RTVSPropertyOp51
 70
     0
102
RTVSPropertyOp52
 70
     0
102
RTVSPropertyOp53
 70
     1
102
RTVSPropertyOp54
 70
     1
102
RTVSPropertyOp55
 70
     1
102
RTVSPropertyOp56
 70
     1
102
RTVSPropertyOp57
 70
     1
102
RTVSPost2010Prop28
280
     0
102
RTVSPost2010PropOp28
 70
     1
102
RTVSPost2010Prop29
280
     1
102
RTVSPost2010PropOp29
 70
     1
102
RTVSPost2010Prop30
280
     1
102
RTVSPost2010PropOp30
 70
     1
102
RTVSPost2010Prop31
280
     0
102
RTVSPost2010PropOp31
 70
     1
102
RTVSPost2010Prop32
280
     0
102
RTVSPost2010PropOp32
 70
     1
102
RTVSPost2010Prop33
280
     0
102
RTVSPost2010PropOp33
 70
     1
102
RTVSPost2010Prop34
280
     0
102
RTVSPost2010PropOp34
 70
     1
102
RTVSPost2010Prop35
280
     0
102
RTVSPost2010PropOp35
 70
     1
102
RTVSPost2010Prop36
280
     0
102
RTVSPost2010PropOp36
 70
     1
102
RTVSPost2010Prop37
 90
       50
102
RTVSPost2010PropOp37
 70
     1
102
RTVSPost2010Prop38
140
0.0
102
RTVSPost2010PropOp38
 70
     1
102
RTVSPost2010Prop39
140
1.0
102
RTVSPost2010PropOp39
 70
     1
102
RTVSPost2010Prop40
 90
        0
102
RTVSPost2010PropOp40
 70
     1
102
RTVSPost2010Prop41ColorIndex
 90
      178
102
RTVSPost2010Prop41ColorRGB
 90
        0
102
RTVSPost2010PropOp41
 70
     1
102
RTVSPost2010Prop42
 90
       50
102
RTVSPost2010PropOp42
 70
     1
102
RTVSPost2010Prop43
 90
        3
102
RTVSPost2010PropOp43
 70
     1
102
RTVSPost2010Prop44ColorIndex
 90
        5
102
RTVSPost2010Prop44ColorRGB
 90
      255
102
RTVSPost2010PropOp44
 70
     1
102
RTVSPost2010Prop45
280
     0
102
RTVSPost2010PropOp45
 70
     1
102
RTVSPost2010Prop46
 90
       50
102
RTVSPost2010PropOp46
 70
     1
102
RTVSPost2010Prop47
 90
       50
102
RTVSPost2010PropOp47
 70
     1
102
RTVSPost2010Prop48
 90
       50
102
RTVSPost2010PropOp48
 70
     1
102
RTVSPost2010Prop49
280
     0
102
RTVSPost2010PropOp49
 70
     1
102
RTVSPost2010Prop50
 90
       50
102
RTVSPost2010PropOp50
 70
     1
102
RTVSPost2010Prop51ColorIndex
 90
      256
102
RTVSPost2010Prop51ColorRGB
 90
-16777216
102
RTVSPost2010PropOp51
 70
     0
102
RTVSPost2010Prop52
140
1.0
102
RTVSPost2010PropOp52
 70
     0
102
RTVSPost2010Prop53
 90
        2
102
RTVSPost2010PropOp53
 70
     1
102
RTVSPost2010Prop54
  1
strokes_ogs.tif
102
RTVSPost2010PropOp54
 70
     1
102
RTVSPost2010Prop55
280
     0
102
RTVSPost2010PropOp55
 70
     1
102
RTVSPost2010Prop56
140
1.0
102
RTVSPost2010PropOp56
 70
     1
102
RTVSPost2010Prop57
140
1.0
102
RTVSPost2010PropOp57
 70
     1
  0
XRECORD
  5
497
102
{ACAD_REACTORS
330
496
102
}
330
496
100
AcDbXrecord
280
     1
102
RTVSPropertyOp0
 70
     1
102
RTVSPropertyOp1
 70
     1
102
RTVSPropertyOp2
 70
     1
102
RTVSPropertyOp3
 70
     1
102
RTVSPropertyOp4
 70
     1
102
RTVSPropertyOp5
 70
     1
102
RTVSPropertyOp6
 70
     1
102
RTVSPropertyOp7
 70
     1
102
RTVSPropertyOp8
 70
     1
102
RTVSPropertyOp9
 70
     1
102
RTVSPropertyOp10
 70
     1
102
RTVSPropertyOp11
 70
     1
102
RTVSPropertyOp12
 70
     1
102
RTVSPropertyOp13
 70
     1
102
RTVSPropertyOp14
 70
     1
102
RTVSPropertyOp15
 70
     1
102
RTVSPropertyOp16
 70
     1
102
RTVSPropertyOp17
 70
     1
102
RTVSPropertyOp18
 70
     1
102
RTVSPropertyOp19
 70
     1
102
RTVSPropertyOp20
 70
     1
102
RTVSPropertyOp21
 70
     1
102
RTVSPropertyOp22
 70
     1
102
RTVSPropertyOp23
 70
     1
102
RTVSPropertyOp24
 70
     1
102
RTVSPropertyOp25
 70
     1
102
RTVSPropertyOp26
 70
     1
102
RTVSPropertyOp27
 70
     1
102
RTVSPropertyOp28
 70
     1
102
RTVSPropertyOp29
 70
     1
102
RTVSPropertyOp30
 70
     1
102
RTVSPropertyOp31
 70
     1
102
RTVSPropertyOp32
 70
     1
102
RTVSPropertyOp33
 70
     1
102
RTVSPropertyOp34
 70
     1
102
RTVSPropertyOp35
 70
     1
102
RTVSPropertyOp36
 70
     1
102
RTVSPropertyOp37
 70
     1
102
RTVSPropertyOp38
 70
     1
102
RTVSPropertyOp39
 70
     1
102
RTVSPropertyOp40
 70
     1
102
RTVSPropertyOp41
 70
     1
102
RTVSPropertyOp42
 70
     1
102
RTVSPropertyOp43
 70
     1
102
RTVSPropertyOp44
 70
     1
102
RTVSPropertyOp45
 70
     1
102
RTVSPropertyOp46
 70
     1
102
RTVSPropertyOp47
 70
     1
102
RTVSPropertyOp48
 70
     1
102
RTVSPropertyOp49
 70
     1
102
RTVSPropertyOp50
 70
     1
102
RTVSPropertyOp51
 70
     0
102
RTVSPropertyOp52
 70
     0
102
RTVSPropertyOp53
 70
     1
102
RTVSPropertyOp54
 70
     1
102
RTVSPropertyOp55
 70
     1
102
RTVSPropertyOp56
 70
     1
102
RTVSPropertyOp57
 70
     1
102
RTVSPost2010Prop28
280
     0
102
RTVSPost2010PropOp28
 70
     1
102
RTVSPost2010Prop29
280
     1
102
RTVSPost2010PropOp29
 70
     1
102
RTVSPost2010Prop30
280
     1
102
RTVSPost2010PropOp30
 70
     1
102
RTVSPost2010Prop31
280
     0
102
RTVSPost2010PropOp31
 70
     1
102
RTVSPost2010Prop32
280
     0
102
RTVSPost2010PropOp32
 70
     1
102
RTVSPost2010Prop33
280
     0
102
RTVSPost2010PropOp33
 70
     1
102
RTVSPost2010Prop34
280
     0
102
RTVSPost2010PropOp34
 70
     1
102
RTVSPost2010Prop35
280
     0
102
RTVSPost2010PropOp35
 70
     1
102
RTVSPost2010Prop36
280
     0
102
RTVSPost2010PropOp36
 70
     1
102
RTVSPost2010Prop37
 90
       50
102
RTVSPost2010PropOp37
 70
     1
102
RTVSPost2010Prop38
140
0.0
102
RTVSPost2010PropOp38
 70
     1
102
RTVSPost2010Prop39
140
1.0
102
RTVSPost2010PropOp39
 70
     1
102
RTVSPost2010Prop40
 90
        0
102
RTVSPost2010PropOp40
 70
     1
102
RTVSPost2010Prop41ColorIndex
 90
      178
102
RTVSPost2010Prop41ColorRGB
 90
        0
102
RTVSPost2010PropOp41
 70
     1
102
RTVSPost2010Prop42
 90
       50
102
RTVSPost2010PropOp42
 70
     1
102
RTVSPost2010Prop43
 90
        3
102
RTVSPost2010PropOp43
 70
     1
102
RTVSPost2010Prop44ColorIndex
 90
        5
102
RTVSPost2010Prop44ColorRGB
 90
      255
102
RTVSPost2010PropOp44
 70
     1
102
RTVSPost2010Prop45
280
     0
102
RTVSPost2010PropOp45
 70
     1
102
RTVSPost2010Prop46
 90
       50
102
RTVSPost2010PropOp46
 70
     1
102
RTVSPost2010Prop47
 90
       50
102
RTVSPost2010PropOp47
 70
     1
102
RTVSPost2010Prop48
 90
       50
102
RTVSPost2010PropOp48
 70
     1
102
RTVSPost2010Prop49
280
     0
102
RTVSPost2010PropOp49
 70
     1
102
RTVSPost2010Prop50
 90
       50
102
RTVSPost2010PropOp50
 70
     1
102
RTVSPost2010Prop51ColorIndex
 90
      256
102
RTVSPost2010Prop51ColorRGB
 90
-16777216
102
RTVSPost2010PropOp51
 70
     0
102
RTVSPost2010Prop52
140
1.0
102
RTVSPost2010PropOp52
 70
     0
102
RTVSPost2010Prop53
 90
        2
102
RTVSPost2010PropOp53
 70
     1
102
RTVSPost2010Prop54
  1
strokes_ogs.tif
102
RTVSPost2010PropOp54
 70
     1
102
RTVSPost2010Prop55
280
     0
102
RTVSPost2010PropOp55
 70
     1
102
RTVSPost2010Prop56
140
1.0
102
RTVSPost2010PropOp56
 70
     1
102
RTVSPost2010Prop57
140
1.0
102
RTVSPost2010PropOp57
 70
     1
  0
ENDSEC
  0
EOF
