  0
SECTION
  2
HEADER
  9
$ACADVER
  1
AC1021
  9
$ACADMAINTVER
 70
    25
  9
$DWGCODEPAGE
  3
ANSI_1252
  9
$INSBASE
 10
0.0
 20
0.0
 30
0.0
  9
$EXTMIN
 10
1.000000000000000E+20
 20
1.000000000000000E+20
 30
1.000000000000000E+20
  9
$EXTMAX
 10
-1.000000000000000E+20
 20
-1.000000000000000E+20
 30
-1.000000000000000E+20
  9
$LIMMIN
 10
0.0
 20
0.0
  9
$LIMMAX
 10
12.0
 20
9.0
  9
$ORTHOMODE
 70
     0
  9
$REGENMODE
 70
     1
  9
$FILLMODE
 70
     1
  9
$QTEXTMODE
 70
     0
  9
$MIRRTEXT
 70
     1
  9
$LTSCALE
 40
1.0
  9
$ATTMODE
 70
     1
  9
$TEXTSIZE
 40
0.2
  9
$TRACEWID
 40
0.05
  9
$TEXTSTYLE
  7
Standard
  9
$CLAYER
  8
Graypants_Hewn48-8
  9
$CELTYPE
  6
ByLayer
  9
$CECOLOR
 62
   256
  9
$CELTSCALE
 40
1.0
  9
$DISPSILH
 70
     0
  9
$DIMSCALE
 40
1.0
  9
$DIMASZ
 40
0.18
  9
$DIMEXO
 40
0.0625
  9
$DIMDLI
 40
0.38
  9
$DIMRND
 40
0.0
  9
$DIMDLE
 40
0.0
  9
$DIMEXE
 40
0.18
  9
$DIMTP
 40
0.0
  9
$DIMTM
 40
0.0
  9
$DIMTXT
 40
0.18
  9
$DIMCEN
 40
0.09
  9
$DIMTSZ
 40
0.0
  9
$DIMTOL
 70
     0
  9
$DIMLIM
 70
     0
  9
$DIMTIH
 70
     1
  9
$DIMTOH
 70
     1
  9
$DIMSE1
 70
     0
  9
$DIMSE2
 70
     0
  9
$DIMTAD
 70
     0
  9
$DIMZIN
 70
     0
  9
$DIMBLK
  1

  9
$DIMASO
 70
     1
  9
$DIMSHO
 70
     1
  9
$DIMPOST
  1

  9
$DIMAPOST
  1

  9
$DIMALT
 70
     0
  9
$DIMALTD
 70
     2
  9
$DIMALTF
 40
25.4
  9
$DIMLFAC
 40
1.0
  9
$DIMTOFL
 70
     0
  9
$DIMTVP
 40
0.0
  9
$DIMTIX
 70
     0
  9
$DIMSOXD
 70
     0
  9
$DIMSAH
 70
     0
  9
$DIMBLK1
  1

  9
$DIMBLK2
  1

  9
$DIMSTYLE
  2
STANDARD_ACAD
  9
$DIMCLRD
 70
     0
  9
$DIMCLRE
 70
     0
  9
$DIMCLRT
 70
     0
  9
$DIMTFAC
 40
1.0
  9
$DIMGAP
 40
0.09
  9
$DIMJUST
 70
     0
  9
$DIMSD1
 70
     0
  9
$DIMSD2
 70
     0
  9
$DIMTOLJ
 70
     1
  9
$DIMTZIN
 70
     0
  9
$DIMALTZ
 70
     0
  9
$DIMALTTZ
 70
     0
  9
$DIMUPT
 70
     0
  9
$DIMDEC
 70
     4
  9
$DIMTDEC
 70
     4
  9
$DIMALTU
 70
     2
  9
$DIMALTTD
 70
     2
  9
$DIMTXSTY
  7
Standard
  9
$DIMAUNIT
 70
     0
  9
$DIMADEC
 70
     0
  9
$DIMALTRND
 40
0.0
  9
$DIMAZIN
 70
     0
  9
$DIMDSEP
 70
    46
  9
$DIMATFIT
 70
     3
  9
$DIMFRAC
 70
     0
  9
$DIMLDRBLK
  1

  9
$DIMLUNIT
 70
     2
  9
$DIMLWD
 70
    -2
  9
$DIMLWE
 70
    -2
  9
$DIMTMOVE
 70
     2
  9
$DIMFXL
 40
1.0
  9
$DIMFXLON
 70
     0
  9
$DIMJOGANG
 40
0.7853981633974483
  9
$DIMTFILL
 70
     0
  9
$DIMTFILLCLR
 70
     0
  9
$DIMARCSYM
 70
     0
  9
$DIMLTYPE
  6

  9
$DIMLTEX1
  6

  9
$DIMLTEX2
  6

  9
$LUNITS
 70
     2
  9
$LUPREC
 70
     3
  9
$SKETCHINC
 40
0.1
  9
$FILLETRAD
 40
0.5
  9
$AUNITS
 70
     0
  9
$AUPREC
 70
     0
  9
$MENU
  1
.
  9
$ELEVATION
 40
0.0
  9
$PELEVATION
 40
0.0
  9
$THICKNESS
 40
0.0
  9
$LIMCHECK
 70
     0
  9
$CHAMFERA
 40
0.0
  9
$CHAMFERB
 40
0.0
  9
$CHAMFERC
 40
0.0
  9
$CHAMFERD
 40
0.0
  9
$SKPOLY
 70
     0
  9
$TDCREATE
 40
2460860.684039942
  9
$TDUCREATE
 40
2460861.017373275
  9
$TDUPDATE
 40
2460860.684054548
  9
$TDUUPDATE
 40
2460861.017387882
  9
$TDINDWG
 40
0.0000000116
  9
$TDUSRTIMER
 40
0.0000000116
  9
$USRTIMER
 70
     1
  9
$ANGBASE
 50
0.0
  9
$ANGDIR
 70
     0
  9
$PDMODE
 70
     0
  9
$PDSIZE
 40
0.0
  9
$PLINEWID
 40
0.0
  9
$SPLFRAME
 70
     0
  9
$SPLINETYPE
 70
     6
  9
$SPLINESEGS
 70
     8
  9
$HANDSEED
  5
36A
  9
$SURFTAB1
 70
     6
  9
$SURFTAB2
 70
     6
  9
$SURFTYPE
 70
     6
  9
$SURFU
 70
     6
  9
$SURFV
 70
     6
  9
$UCSBASE
  2

  9
$UCSNAME
  2

  9
$UCSORG
 10
0.0
 20
0.0
 30
0.0
  9
$UCSXDIR
 10
1.0
 20
0.0
 30
0.0
  9
$UCSYDIR
 10
0.0
 20
1.0
 30
0.0
  9
$UCSORTHOREF
  2

  9
$UCSORTHOVIEW
 70
     0
  9
$UCSORGTOP
 10
0.0
 20
0.0
 30
0.0
  9
$UCSORGBOTTOM
 10
0.0
 20
0.0
 30
0.0
  9
$UCSORGLEFT
 10
0.0
 20
0.0
 30
0.0
  9
$UCSORGRIGHT
 10
0.0
 20
0.0
 30
0.0
  9
$UCSORGFRONT
 10
0.0
 20
0.0
 30
0.0
  9
$UCSORGBACK
 10
0.0
 20
0.0
 30
0.0
  9
$PUCSBASE
  2

  9
$PUCSNAME
  2

  9
$PUCSORG
 10
0.0
 20
0.0
 30
0.0
  9
$PUCSXDIR
 10
1.0
 20
0.0
 30
0.0
  9
$PUCSYDIR
 10
0.0
 20
1.0
 30
0.0
  9
$PUCSORTHOREF
  2

  9
$PUCSORTHOVIEW
 70
     0
  9
$PUCSORGTOP
 10
0.0
 20
0.0
 30
0.0
  9
$PUCSORGBOTTOM
 10
0.0
 20
0.0
 30
0.0
  9
$PUCSORGLEFT
 10
0.0
 20
0.0
 30
0.0
  9
$PUCSORGRIGHT
 10
0.0
 20
0.0
 30
0.0
  9
$PUCSORGFRONT
 10
0.0
 20
0.0
 30
0.0
  9
$PUCSORGBACK
 10
0.0
 20
0.0
 30
0.0
  9
$USERI1
 70
     0
  9
$USERI2
 70
     0
  9
$USERI3
 70
     0
  9
$USERI4
 70
     0
  9
$USERI5
 70
     0
  9
$USERR1
 40
0.0
  9
$USERR2
 40
0.0
  9
$USERR3
 40
0.0
  9
$USERR4
 40
0.0
  9
$USERR5
 40
0.0
  9
$WORLDVIEW
 70
     1
  9
$SHADEDGE
 70
     3
  9
$SHADEDIF
 70
    70
  9
$TILEMODE
 70
     1
  9
$MAXACTVP
 70
    64
  9
$PINSBASE
 10
0.0
 20
0.0
 30
0.0
  9
$PLIMCHECK
 70
     0
  9
$PEXTMIN
 10
1.000000000000000E+20
 20
1.000000000000000E+20
 30
1.000000000000000E+20
  9
$PEXTMAX
 10
-1.000000000000000E+20
 20
-1.000000000000000E+20
 30
-1.000000000000000E+20
  9
$PLIMMIN
 10
0.0
 20
0.0
  9
$PLIMMAX
 10
12.0
 20
9.0
  9
$UNITMODE
 70
     0
  9
$VISRETAIN
 70
     1
  9
$PLINEGEN
 70
     0
  9
$PSLTSCALE
 70
     1
  9
$TREEDEPTH
 70
  3020
  9
$CMLSTYLE
  2
Standard
  9
$CMLJUST
 70
     0
  9
$CMLSCALE
 40
1.0
  9
$PROXYGRAPHICS
 70
     1
  9
$MEASUREMENT
 70
     1
  9
$CELWEIGHT
370
    -1
  9
$ENDCAPS
280
     0
  9
$JOINSTYLE
280
     0
  9
$LWDISPLAY
290
     0
  9
$INSUNITS
 70
     4
  9
$HYPERLINKBASE
  1

  9
$STYLESHEET
  1

  9
$XEDIT
290
     1
  9
$CEPSNTYPE
380
     0
  9
$PSTYLEMODE
290
     1
  9
$FINGERPRINTGUID
  2
{c6fb0cd7-7764-eb43-aa9f-0e5716562fe9}
  9
$VERSIONGUID
  2
{FAEB1C32-E019-11D5-929B-00C0DF256EC4}
  9
$EXTNAMES
290
     1
  9
$PSVPSCALE
 40
0.0
  9
$OLESTARTUP
290
     0
  9
$SORTENTS
280
   127
  9
$INDEXCTL
280
     0
  9
$HIDETEXT
280
     1
  9
$XCLIPFRAME
290
     0
  9
$HALOGAP
280
     0
  9
$OBSCOLOR
 70
   257
  9
$OBSLTYPE
280
     0
  9
$INTERSECTIONDISPLAY
280
     0
  9
$INTERSECTIONCOLOR
 70
   257
  9
$DIMASSOC
280
     2
  9
$PROJECTNAME
  1

  9
$CAMERADISPLAY
290
     0
  9
$LENSLENGTH
 40
50.0
  9
$CAMERAHEIGHT
 40
0.0
  9
$STEPSPERSEC
 40
2.0
  9
$STEPSIZE
 40
6.0
  9
$3DDWFPREC
 40
2.0
  9
$PSOLWIDTH
 40
0.25
  9
$PSOLHEIGHT
 40
4.0
  9
$LOFTANG1
 40
1.570796326794897
  9
$LOFTANG2
 40
1.570796326794897
  9
$LOFTMAG1
 40
0.0
  9
$LOFTMAG2
 40
0.0
  9
$LOFTPARAM
 70
     7
  9
$LOFTNORMALS
280
     1
  9
$LATITUDE
 40
37.795
  9
$LONGITUDE
 40
-122.394
  9
$NORTHDIRECTION
 40
0.0
  9
$TIMEZONE
 70
 -8000
  9
$LIGHTGLYPHDISPLAY
280
     1
  9
$TILEMODELIGHTSYNCH
280
     1
  9
$CMATERIAL
347
44
  9
$SOLIDHIST
280
     0
  9
$SHOWHIST
280
     1
  9
$DWFFRAME
280
     2
  9
$DGNFRAME
280
     2
  9
$REALWORLDSCALE
290
     1
  9
$INTERFERECOLOR
 62
   256
  9
$CSHADOW
280
     0
  9
$SHADOWPLANELOCATION
 40
0.0
  0
ENDSEC
  0
SECTION
  2
CLASSES
  0
CLASS
  1
ACDBDICTIONARYWDFLT
  2
AcDbDictionaryWithDefault
  3
ObjectDBX Classes
 90
        0
 91
        3
280
     0
281
     0
  0
CLASS
  1
VISUALSTYLE
  2
AcDbVisualStyle
  3
ObjectDBX Classes
 90
     4095
 91
        3
280
     0
281
     0
  0
CLASS
  1
MATERIAL
  2
AcDbMaterial
  3
ObjectDBX Classes
 90
     1153
 91
        3
280
     0
281
     0
  0
CLASS
  1
SCALE
  2
AcDbScale
  3
ObjectDBX Classes
 90
     1153
 91
        3
280
     0
281
     0
  0
CLASS
  1
TABLESTYLE
  2
AcDbTableStyle
  3
ObjectDBX Classes
 90
     4095
 91
        3
280
     0
281
     0
  0
CLASS
  1
MLEADERSTYLE
  2
AcDbMLeaderStyle
  3
ACDB_MLEADERSTYLE_CLASS
 90
     4095
 91
        3
280
     0
281
     0
  0
CLASS
  1
SUN
  2
AcDbSun
  3
SCENEOE
 90
     1153
 91
        3
280
     0
281
     0
  0
CLASS
  1
DICTIONARYVAR
  2
AcDbDictionaryVar
  3
ObjectDBX Classes
 90
        0
 91
        3
280
     0
281
     0
  0
CLASS
  1
CELLSTYLEMAP
  2
AcDbCellStyleMap
  3
ObjectDBX Classes
 90
     1152
 91
        3
280
     0
281
     0
  0
ENDSEC
  0
SECTION
  2
TABLES
  0
TABLE
  2
VPORT
  5
8
330
0
100
AcDbSymbolTable
 70
     1
  0
VPORT
  5
29
330
8
100
AcDbSymbolTableRecord
100
AcDbViewportTableRecord
  2
*Active
 70
     0
 10
0.0
 20
0.0
 11
1.0
 21
1.0
 12
10.42990654205607
 22
4.5
 13
0.0
 23
0.0
 14
0.5
 24
0.5
 15
0.5
 25
0.5
 16
0.0
 26
0.0
 36
1.0
 17
0.0
 27
0.0
 37
0.0
 40
9.0
 41
1.972972972850329
 42
50.0
 43
0.0
 44
0.0
 50
0.0
 51
0.0
 71
     0
 72
   100
 73
     1
 74
     3
 75
     0
 76
     0
 77
     0
 78
     0
281
     0
 65
     1
110
0.0
120
0.0
130
0.0
111
1.0
121
0.0
131
0.0
112
0.0
122
1.0
132
0.0
 79
     0
146
0.0
348
2F
 60
     3
 61
     5
292
     1
282
     1
141
0.0
142
0.0
 63
   250
361
6D
  0
ENDTAB
  0
TABLE
  2
LTYPE
  5
5
330
0
100
AcDbSymbolTable
 70
     2
  0
LTYPE
  5
14
330
5
100
AcDbSymbolTableRecord
100
AcDbLinetypeTableRecord
  2
ByBlock
 70
     0
  3

 72
    65
 73
     0
 40
0.0
  0
LTYPE
  5
15
330
5
100
AcDbSymbolTableRecord
100
AcDbLinetypeTableRecord
  2
ByLayer
 70
     0
  3

 72
    65
 73
     0
 40
0.0
  0
LTYPE
  5
16
330
5
100
AcDbSymbolTableRecord
100
AcDbLinetypeTableRecord
  2
Continuous
 70
     0
  3
Solid line
 72
    65
 73
     0
 40
0.0
  0
LTYPE
  5
1C4
330
5
100
AcDbSymbolTableRecord
100
AcDbLinetypeTableRecord
  2
Hidden
 70
     0
  3

 72
    65
 73
     2
 40
4.0
 49
2.0
 74
     0
 49
-2.0
 74
     0
  0
ENDTAB
  0
TABLE
  2
LAYER
  5
2
330
0
100
AcDbSymbolTable
 70
     2
  0
LAYER
  5
10
330
2
100
AcDbSymbolTableRecord
100
AcDbLayerTableRecord
  2
0
 70
     0
 62
     7
  6
Continuous
370
    -3
390
F
347
46
  0
LAYER
  5
6E
330
2
100
AcDbSymbolTableRecord
100
AcDbLayerTableRecord
  2
Graypants_Hewn48-8
 70
     0
 62
    36
420
  8866048
  6
Continuous
370
    -3
390
F
347
46
  0
ENDTAB
  0
TABLE
  2
STYLE
  5
3
330
0
100
AcDbSymbolTable
 70
     1
  0
STYLE
  5
11
330
3
100
AcDbSymbolTableRecord
100
AcDbTextStyleTableRecord
  2
Standard
 70
     0
 40
0.0
 41
1.0
 50
0.0
 71
     0
 42
0.2
  3
txt
  4

  0
ENDTAB
  0
TABLE
  2
VIEW
  5
6
330
0
100
AcDbSymbolTable
 70
     0
  0
ENDTAB
  0
TABLE
  2
UCS
  5
7
330
0
100
AcDbSymbolTable
 70
     0
  0
ENDTAB
  0
TABLE
  2
APPID
  5
9
330
0
100
AcDbSymbolTable
 70
     2
  0
APPID
  5
12
330
9
100
AcDbSymbolTableRecord
100
AcDbRegAppTableRecord
  2
ACAD
 70
     0
  0
APPID
  5
362
330
9
100
AcDbSymbolTableRecord
100
AcDbRegAppTableRecord
  2
ACAD_MLEADERVER
 70
     0
  0
ENDTAB
  0
TABLE
  2
DIMSTYLE
  5
A
330
0
100
AcDbSymbolTable
 70
     1
100
AcDbDimStyleTable
  0
DIMSTYLE
105
27
330
A
100
AcDbSymbolTableRecord
100
AcDbDimStyleTableRecord
  2
STANDARD_ACAD
 70
     0
178
     0
340
11
  0
ENDTAB
  0
TABLE
  2
BLOCK_RECORD
  5
1
330
0
100
AcDbSymbolTable
 70
     1
  0
BLOCK_RECORD
  5
1F
330
1
100
AcDbSymbolTableRecord
100
AcDbBlockTableRecord
  2
*Model_Space
340
22
 70
     0
280
     1
281
     0
  0
BLOCK_RECORD
  5
1B
330
1
100
AcDbSymbolTableRecord
100
AcDbBlockTableRecord
  2
*Paper_Space
340
1E
 70
     0
280
     1
281
     0
  0
BLOCK_RECORD
  5
23
330
1
100
AcDbSymbolTableRecord
100
AcDbBlockTableRecord
  2
*Paper_Space0
340
26
 70
     0
280
     1
281
     0
  0
ENDTAB
  0
ENDSEC
  0
SECTION
  2
BLOCKS
  0
BLOCK
  5
20
330
1F
100
AcDbEntity
  8
0
100
AcDbBlockBegin
  2
*Model_Space
 70
     0
 10
0.0
 20
0.0
 30
0.0
  3
*Model_Space
  1

  0
ENDBLK
  5
21
330
1F
100
AcDbEntity
  8
0
100
AcDbBlockEnd
  0
BLOCK
  5
1C
330
1B
100
AcDbEntity
 67
     1
  8
0
100
AcDbBlockBegin
  2
*Paper_Space
 70
     0
 10
0.0
 20
0.0
 30
0.0
  3
*Paper_Space
  1

  0
ENDBLK
  5
1D
330
1B
100
AcDbEntity
 67
     1
  8
0
100
AcDbBlockEnd
  0
BLOCK
  5
24
330
23
100
AcDbEntity
  8
0
100
AcDbBlockBegin
  2
*Paper_Space0
 70
     0
 10
0.0
 20
0.0
 30
0.0
  3
*Paper_Space0
  1

  0
ENDBLK
  5
25
330
23
100
AcDbEntity
  8
0
100
AcDbBlockEnd
  0
ENDSEC
  0
SECTION
  2
ENTITIES
  0
LINE
  5
6F
330
1F
100
AcDbEntity
  8
Graypants_Hewn48-8
100
AcDbLine
 10
-603.2499999981003
 20
-1291.25489000621
 30
0.0
 11
603.2500000018999
 21
-1291.25489000621
 31
0.0
  0
LINE
  5
70
330
1F
100
AcDbEntity
  8
Graypants_Hewn48-8
100
AcDbLine
 10
934.8113315199089
 20
-1291.25489000621
 30
0.0
 11
1036.411331519907
 21
-1291.25489000621
 31
0.0
  0
LINE
  5
71
330
1F
100
AcDbEntity
  8
Graypants_Hewn48-8
100
AcDbLine
 10
-603.2499999981003
 20
-1284.05489000621
 30
0.0
 11
603.2500000018999
 21
-1284.05489000621
 31
0.0
  0
LINE
  5
72
330
1F
100
AcDbEntity
  8
Graypants_Hewn48-8
100
AcDbLine
 10
934.8113315199089
 20
-1284.05489000621
 30
0.0
 11
1036.411331519907
 21
-1284.05489000621
 31
0.0
  0
LINE
  5
73
330
1F
100
AcDbEntity
  8
Graypants_Hewn48-8
100
AcDbLine
 10
-603.2499999981003
 20
-1276.85489000621
 30
0.0
 11
603.2500000018999
 21
-1276.85489000621
 31
0.0
  0
LINE
  5
74
330
1F
100
AcDbEntity
  8
Graypants_Hewn48-8
100
AcDbLine
 10
934.8113315199089
 20
-1276.85489000621
 30
0.0
 11
1036.411331519907
 21
-1276.85489000621
 31
0.0
  0
LINE
  5
75
330
1F
100
AcDbEntity
  8
Graypants_Hewn48-8
100
AcDbLine
 10
-603.2499999981003
 20
-1269.65489000621
 30
0.0
 11
603.2500000018999
 21
-1269.65489000621
 31
0.0
  0
LINE
  5
76
330
1F
100
AcDbEntity
  8
Graypants_Hewn48-8
100
AcDbLine
 10
934.8113315199089
 20
-1269.65489000621
 30
0.0
 11
1036.411331519907
 21
-1269.65489000621
 31
0.0
  0
LINE
  5
77
330
1F
100
AcDbEntity
  8
Graypants_Hewn48-8
100
AcDbLine
 10
-603.2499999981003
 20
-1262.45489000621
 30
0.0
 11
603.2500000018999
 21
-1262.45489000621
 31
0.0
  0
LINE
  5
78
330
1F
100
AcDbEntity
  8
Graypants_Hewn48-8
100
AcDbLine
 10
934.8113315199089
 20
-1262.45489000621
 30
0.0
 11
1036.411331519907
 21
-1262.45489000621
 31
0.0
  0
LINE
  5
79
330
1F
100
AcDbEntity
  8
Graypants_Hewn48-8
100
AcDbLine
 10
-603.2499999981003
 20
-1255.25489000621
 30
0.0
 11
603.2500000018999
 21
-1255.25489000621
 31
0.0
  0
LINE
  5
7A
330
1F
100
AcDbEntity
  8
Graypants_Hewn48-8
100
AcDbLine
 10
934.8113315199089
 20
-1255.25489000621
 30
0.0
 11
1036.411331519907
 21
-1255.25489000621
 31
0.0
  0
LINE
  5
7B
330
1F
100
AcDbEntity
  8
Graypants_Hewn48-8
100
AcDbLine
 10
-603.2499999981003
 20
-1248.054890006209
 30
0.0
 11
603.2500000018999
 21
-1248.054890006209
 31
0.0
  0
LINE
  5
7C
330
1F
100
AcDbEntity
  8
Graypants_Hewn48-8
100
AcDbLine
 10
934.8113315199089
 20
-1248.054890006209
 30
0.0
 11
1036.411331519907
 21
-1248.054890006209
 31
0.0
  0
LINE
  5
7D
330
1F
100
AcDbEntity
  8
Graypants_Hewn48-8
100
AcDbLine
 10
-603.2499999981003
 20
-1240.854890006209
 30
0.0
 11
603.2500000018999
 21
-1240.854890006209
 31
0.0
  0
LINE
  5
7E
330
1F
100
AcDbEntity
  8
Graypants_Hewn48-8
100
AcDbLine
 10
934.8113315199089
 20
-1240.854890006209
 30
0.0
 11
1036.411331519907
 21
-1240.854890006209
 31
0.0
  0
LINE
  5
7F
330
1F
100
AcDbEntity
  8
Graypants_Hewn48-8
100
AcDbLine
 10
-603.2499999981003
 20
-1233.654890006209
 30
0.0
 11
603.2500000018999
 21
-1233.654890006209
 31
0.0
  0
LINE
  5
80
330
1F
100
AcDbEntity
  8
Graypants_Hewn48-8
100
AcDbLine
 10
934.8113315199089
 20
-1233.654890006209
 30
0.0
 11
1036.411331519907
 21
-1233.654890006209
 31
0.0
  0
LINE
  5
81
330
1F
100
AcDbEntity
  8
Graypants_Hewn48-8
100
AcDbLine
 10
-603.2499999981003
 20
-1226.454890006209
 30
0.0
 11
603.2500000018999
 21
-1226.454890006209
 31
0.0
  0
LINE
  5
82
330
1F
100
AcDbEntity
  8
Graypants_Hewn48-8
100
AcDbLine
 10
934.8113315199089
 20
-1226.454890006209
 30
0.0
 11
1036.411331519907
 21
-1226.454890006209
 31
0.0
  0
LINE
  5
83
330
1F
100
AcDbEntity
  8
Graypants_Hewn48-8
100
AcDbLine
 10
-603.2499999981003
 20
-1219.254890006209
 30
0.0
 11
603.2500000018999
 21
-1219.254890006209
 31
0.0
  0
LINE
  5
84
330
1F
100
AcDbEntity
  8
Graypants_Hewn48-8
100
AcDbLine
 10
934.8113315199089
 20
-1219.254890006209
 30
0.0
 11
1036.411331519907
 21
-1219.254890006209
 31
0.0
  0
LINE
  5
85
330
1F
100
AcDbEntity
  8
Graypants_Hewn48-8
100
AcDbLine
 10
-603.2499999981003
 20
-1212.054890006209
 30
0.0
 11
603.2500000018999
 21
-1212.054890006209
 31
0.0
  0
LINE
  5
86
330
1F
100
AcDbEntity
  8
Graypants_Hewn48-8
100
AcDbLine
 10
934.8113315199089
 20
-1212.054890006209
 30
0.0
 11
1036.411331519907
 21
-1212.054890006209
 31
0.0
  0
LINE
  5
87
330
1F
100
AcDbEntity
  8
Graypants_Hewn48-8
100
AcDbLine
 10
-603.2499999981003
 20
-1204.854890006209
 30
0.0
 11
603.2500000018999
 21
-1204.854890006209
 31
0.0
  0
LINE
  5
88
330
1F
100
AcDbEntity
  8
Graypants_Hewn48-8
100
AcDbLine
 10
934.8113315199089
 20
-1204.854890006209
 30
0.0
 11
1036.411331519907
 21
-1204.854890006209
 31
0.0
  0
LINE
  5
89
330
1F
100
AcDbEntity
  8
Graypants_Hewn48-8
100
AcDbLine
 10
-603.2499999981003
 20
-1197.654890006209
 30
0.0
 11
603.2500000018999
 21
-1197.654890006209
 31
0.0
  0
LINE
  5
8A
330
1F
100
AcDbEntity
  8
Graypants_Hewn48-8
100
AcDbLine
 10
934.8113315199089
 20
-1197.654890006209
 30
0.0
 11
1036.411331519907
 21
-1197.654890006209
 31
0.0
  0
LINE
  5
8B
330
1F
100
AcDbEntity
  8
Graypants_Hewn48-8
100
AcDbLine
 10
-603.2499999981003
 20
-1190.454890006209
 30
0.0
 11
603.2500000018999
 21
-1190.454890006209
 31
0.0
  0
LINE
  5
8C
330
1F
100
AcDbEntity
  8
Graypants_Hewn48-8
100
AcDbLine
 10
934.8113315199089
 20
-1190.454890006209
 30
0.0
 11
1036.411331519907
 21
-1190.454890006209
 31
0.0
  0
LINE
  5
8D
330
1F
100
AcDbEntity
  8
Graypants_Hewn48-8
100
AcDbLine
 10
-603.2499999981003
 20
-1183.254890006209
 30
0.0
 11
603.2500000018999
 21
-1183.254890006209
 31
0.0
  0
LINE
  5
8E
330
1F
100
AcDbEntity
  8
Graypants_Hewn48-8
100
AcDbLine
 10
934.8113315199089
 20
-1183.254890006209
 30
0.0
 11
1036.411331519907
 21
-1183.254890006209
 31
0.0
  0
LINE
  5
8F
330
1F
100
AcDbEntity
  8
Graypants_Hewn48-8
100
AcDbLine
 10
-603.2499999981003
 20
-1176.054890006209
 30
0.0
 11
603.2500000018999
 21
-1176.054890006209
 31
0.0
  0
LINE
  5
90
330
1F
100
AcDbEntity
  8
Graypants_Hewn48-8
100
AcDbLine
 10
934.8113315199089
 20
-1176.054890006209
 30
0.0
 11
1036.411331519907
 21
-1176.054890006209
 31
0.0
  0
LINE
  5
91
330
1F
100
AcDbEntity
  8
Graypants_Hewn48-8
100
AcDbLine
 10
-603.2499999981003
 20
-1168.854890006209
 30
0.0
 11
603.2500000018999
 21
-1168.854890006209
 31
0.0
  0
LINE
  5
92
330
1F
100
AcDbEntity
  8
Graypants_Hewn48-8
100
AcDbLine
 10
934.8113315199089
 20
-1168.854890006209
 30
0.0
 11
1036.411331519907
 21
-1168.854890006209
 31
0.0
  0
LINE
  5
93
330
1F
100
AcDbEntity
  8
Graypants_Hewn48-8
100
AcDbLine
 10
-603.2499999981003
 20
-1161.654890006209
 30
0.0
 11
603.2500000018999
 21
-1161.654890006209
 31
0.0
  0
LINE
  5
94
330
1F
100
AcDbEntity
  8
Graypants_Hewn48-8
100
AcDbLine
 10
934.8113315199089
 20
-1161.654890006209
 30
0.0
 11
1036.411331519907
 21
-1161.654890006209
 31
0.0
  0
LINE
  5
95
330
1F
100
AcDbEntity
  8
Graypants_Hewn48-8
100
AcDbLine
 10
-603.2499999981003
 20
-1154.454890006209
 30
0.0
 11
603.2500000018999
 21
-1154.454890006209
 31
0.0
  0
LINE
  5
96
330
1F
100
AcDbEntity
  8
Graypants_Hewn48-8
100
AcDbLine
 10
934.8113315199089
 20
-1154.454890006209
 30
0.0
 11
1036.411331519907
 21
-1154.454890006209
 31
0.0
  0
LINE
  5
97
330
1F
100
AcDbEntity
  8
Graypants_Hewn48-8
100
AcDbLine
 10
-603.2499999981003
 20
-1147.254890006209
 30
0.0
 11
603.2500000018999
 21
-1147.254890006209
 31
0.0
  0
LINE
  5
98
330
1F
100
AcDbEntity
  8
Graypants_Hewn48-8
100
AcDbLine
 10
934.8113315199089
 20
-1147.254890006209
 30
0.0
 11
1036.411331519907
 21
-1147.254890006209
 31
0.0
  0
LINE
  5
99
330
1F
100
AcDbEntity
  8
Graypants_Hewn48-8
100
AcDbLine
 10
-603.2499999981003
 20
-1140.054890006209
 30
0.0
 11
603.2500000018999
 21
-1140.054890006209
 31
0.0
  0
LINE
  5
9A
330
1F
100
AcDbEntity
  8
Graypants_Hewn48-8
100
AcDbLine
 10
934.8113315199089
 20
-1140.054890006209
 30
0.0
 11
1036.411331519907
 21
-1140.054890006209
 31
0.0
  0
LINE
  5
9B
330
1F
100
AcDbEntity
  8
Graypants_Hewn48-8
100
AcDbLine
 10
-603.2499999981003
 20
-1132.854890006209
 30
0.0
 11
603.2500000018999
 21
-1132.854890006209
 31
0.0
  0
LINE
  5
9C
330
1F
100
AcDbEntity
  8
Graypants_Hewn48-8
100
AcDbLine
 10
934.8113315199089
 20
-1132.854890006209
 30
0.0
 11
1036.411331519907
 21
-1132.854890006209
 31
0.0
  0
LINE
  5
9D
330
1F
100
AcDbEntity
  8
Graypants_Hewn48-8
100
AcDbLine
 10
-603.2499999981003
 20
-1125.654890006209
 30
0.0
 11
603.2500000018999
 21
-1125.654890006209
 31
0.0
  0
LINE
  5
9E
330
1F
100
AcDbEntity
  8
Graypants_Hewn48-8
100
AcDbLine
 10
934.8113315199089
 20
-1125.654890006209
 30
0.0
 11
1036.411331519907
 21
-1125.654890006209
 31
0.0
  0
LINE
  5
9F
330
1F
100
AcDbEntity
  8
Graypants_Hewn48-8
100
AcDbLine
 10
-603.2499999981003
 20
-1118.454890006209
 30
0.0
 11
603.2500000018999
 21
-1118.454890006209
 31
0.0
  0
LINE
  5
A0
330
1F
100
AcDbEntity
  8
Graypants_Hewn48-8
100
AcDbLine
 10
934.8113315199089
 20
-1118.454890006209
 30
0.0
 11
1036.411331519907
 21
-1118.454890006209
 31
0.0
  0
LINE
  5
A1
330
1F
100
AcDbEntity
  8
Graypants_Hewn48-8
100
AcDbLine
 10
-603.2499999981003
 20
-1111.254890006209
 30
0.0
 11
603.2500000018999
 21
-1111.254890006209
 31
0.0
  0
LINE
  5
A2
330
1F
100
AcDbEntity
  8
Graypants_Hewn48-8
100
AcDbLine
 10
934.8113315199089
 20
-1111.254890006209
 30
0.0
 11
1036.411331519907
 21
-1111.254890006209
 31
0.0
  0
LINE
  5
A3
330
1F
100
AcDbEntity
  8
Graypants_Hewn48-8
100
AcDbLine
 10
-603.2499999981003
 20
-1104.054890006209
 30
0.0
 11
603.2500000018999
 21
-1104.054890006209
 31
0.0
  0
LINE
  5
A4
330
1F
100
AcDbEntity
  8
Graypants_Hewn48-8
100
AcDbLine
 10
934.8113315199089
 20
-1104.054890006209
 30
0.0
 11
1036.411331519907
 21
-1104.054890006209
 31
0.0
  0
LINE
  5
A5
330
1F
100
AcDbEntity
  8
Graypants_Hewn48-8
 62
    36
420
  8866048
370
    -3
100
AcDbLine
 10
309.7541194401797
 20
-1089.92564000621
 30
0.0
 11
305.8171194401822
 21
-1089.92564000621
 31
0.0
  0
LINE
  5
A6
330
1F
100
AcDbEntity
  8
Graypants_Hewn48-8
 62
    36
420
  8866048
370
    -3
100
AcDbLine
 10
309.7541194401797
 20
-1073.41564000621
 30
0.0
 11
309.7541194401797
 21
-1089.92564000621
 31
0.0
  0
ARC
  5
A7
330
1F
100
AcDbEntity
  8
Graypants_Hewn48-8
 62
    36
420
  8866048
370
    -3
100
AcDbCircle
 10
304.7791228108555
 20
-1084.250929768872
 30
0.0
 40
1.038001389268775
100
AcDbArc
 50
359.8264839594312
 51
26.84857302339137
  0
LINE
  5
A8
330
1F
100
AcDbEntity
  8
Graypants_Hewn48-8
 62
    36
420
  8866048
370
    -3
100
AcDbLine
 10
299.8481194401793
 20
-1089.92564000621
 30
0.0
 11
299.8481194401793
 21
-1073.41564000621
 31
0.0
  0
ARC
  5
A9
330
1F
100
AcDbEntity
  8
Graypants_Hewn48-8
 62
    36
420
  8866048
370
    -3
100
AcDbCircle
 10
304.8021669913577
 20
-1084.2499767827
 30
0.0
 40
1.017055801121812
100
AcDbArc
 50
27.38698975065808
 51
180.2307762620808
  0
LINE
  5
AA
330
1F
100
AcDbEntity
  8
Graypants_Hewn48-8
 62
    36
420
  8866048
370
    -3
100
AcDbLine
 10
-296.8001254074488
 20
-382.3593193443702
 30
0.0
 11
-312.8021254074488
 21
-382.3593193443702
 31
0.0
  0
LINE
  5
AB
330
1F
100
AcDbEntity
  8
Graypants_Hewn48-8
 62
    36
420
  8866048
370
    -3
100
AcDbLine
 10
-311.197942819271
 20
-409.9183193443699
 30
0.0
 11
-311.197942819271
 21
-408.6483193443702
 31
0.0
  0
LINE
  5
AC
330
1F
100
AcDbEntity
  8
Graypants_Hewn48-8
 62
    36
420
  8866048
370
    -3
100
AcDbLine
 10
-298.4043079956284
 20
-408.6483193443702
 30
0.0
 11
-298.4043079956284
 21
-409.9183193443699
 31
0.0
  0
LINE
  5
AD
330
1F
100
AcDbEntity
  8
Graypants_Hewn48-8
 62
    36
420
  8866048
370
    -3
100
AcDbLine
 10
-298.4043079956284
 20
-408.6483193443702
 30
0.0
 11
-298.3241254074494
 21
-408.6483193443704
 31
0.0
  0
LINE
  5
AE
330
1F
100
AcDbEntity
  8
Graypants_Hewn48-8
 62
    36
420
  8866048
370
    -3
100
AcDbLine
 10
-298.7686254074492
 20
-384.3913193443699
 30
0.0
 11
-298.7686254074483
 21
-407.8863193443714
 31
0.0
  0
LINE
  5
AF
330
1F
100
AcDbEntity
  8
Graypants_Hewn48-8
 62
    36
420
  8866048
370
    -3
100
AcDbLine
 10
-310.8336254074475
 20
-407.8863193443718
 30
0.0
 11
-310.8336254074484
 21
-384.3913193443703
 31
0.0
  0
LINE
  5
B0
330
1F
100
AcDbEntity
  8
Graypants_Hewn48-8
 62
    36
420
  8866048
370
    -3
100
AcDbLine
 10
-296.8001254074488
 20
-382.3593193443702
 30
0.0
 11
-296.8001254074488
 21
-384.3913193443699
 31
0.0
  0
LINE
  5
B1
330
1F
100
AcDbEntity
  8
Graypants_Hewn48-8
 62
    36
420
  8866048
370
    -3
100
AcDbLine
 10
-312.8021254074488
 20
-384.3913193443699
 30
0.0
 11
-312.8021254074488
 21
-382.3593193443702
 31
0.0
  0
LINE
  5
B2
330
1F
100
AcDbEntity
  8
Graypants_Hewn48-8
 62
    36
420
  8866048
370
    -3
100
AcDbLine
 10
-298.3241254074501
 20
-407.8863193443702
 30
0.0
 11
-298.3241254074501
 21
-408.6483193443702
 31
0.0
  0
LINE
  5
B3
330
1F
100
AcDbEntity
  8
Graypants_Hewn48-8
 62
    36
420
  8866048
370
    -3
100
AcDbLine
 10
-311.27812540745
 20
-408.6483193443702
 30
0.0
 11
-311.27812540745
 21
-407.8863193443702
 31
0.0
  0
LINE
  5
B4
330
1F
100
AcDbEntity
  8
Graypants_Hewn48-8
 62
    36
420
  8866048
370
    -3
100
AcDbLine
 10
-311.2781254074496
 20
-408.6483193443702
 30
0.0
 11
-311.197942819271
 21
-408.6483193443702
 31
0.0
  0
LINE
  5
B5
330
1F
100
AcDbEntity
  8
Graypants_Hewn48-8
 62
    36
420
  8866048
370
    -3
100
AcDbLine
 10
-306.7569251549169
 20
-409.9183193443699
 30
0.0
 11
-306.7569254074499
 21
-415.2523193443702
 31
0.0
  0
LINE
  5
B6
330
1F
100
AcDbEntity
  8
Graypants_Hewn48-8
 62
    36
420
  8866048
370
    -3
100
AcDbLine
 10
-302.8453256599823
 20
-409.9183193443698
 30
0.0
 11
-302.8453254074495
 21
-415.2523193443702
 31
0.0
  0
LINE
  5
B7
330
1F
100
AcDbEntity
  8
Graypants_Hewn48-8
 62
    36
420
  8866048
370
    -3
100
AcDbLine
 10
371.1795272393169
 20
-1066.617963459038
 30
0.0
 11
371.1795272393169
 21
-1096.854890006209
 31
0.0
  0
POLYLINE
  5
B8
330
1F
100
AcDbEntity
  8
Graypants_Hewn48-8
 62
    36
420
  8866048
370
    -3
100
AcDb2dPolyline
 66
     1
 10
0.0
 20
0.0
 30
0.0
  0
VERTEX
  5
B9
330
B8
100
AcDbEntity
  8
Graypants_Hewn48-8
 62
    36
420
  8866048
370
    -3
100
AcDbVertex
100
AcDb2dVertex
 10
364.829527239317
 20
-1066.617963459038
 30
0.0
  0
VERTEX
  5
BA
330
B8
100
AcDbEntity
  8
Graypants_Hewn48-8
 62
    36
420
  8866048
370
    -3
100
AcDbVertex
100
AcDb2dVertex
 10
364.8141898665626
 20
-1064.824044241721
 30
0.0
  0
VERTEX
  5
BB
330
B8
100
AcDbEntity
  8
Graypants_Hewn48-8
 62
    36
420
  8866048
370
    -3
100
AcDbVertex
100
AcDb2dVertex
 10
364.7680070987797
 20
-1063.031191404766
 30
0.0
  0
VERTEX
  5
BC
330
B8
100
AcDbEntity
  8
Graypants_Hewn48-8
 62
    36
420
  8866048
370
    -3
100
AcDbVertex
100
AcDb2dVertex
 10
364.6910653501041
 20
-1061.240497265696
 30
0.0
  0
VERTEX
  5
BD
330
B8
100
AcDbEntity
  8
Graypants_Hewn48-8
 62
    36
420
  8866048
370
    -3
100
AcDbVertex
100
AcDb2dVertex
 10
364.583451034672
 20
-1059.453054142036
 30
0.0
  0
VERTEX
  5
BE
330
B8
100
AcDbEntity
  8
Graypants_Hewn48-8
 62
    36
420
  8866048
370
    -3
100
AcDbVertex
100
AcDb2dVertex
 10
364.4452505666194
 20
-1057.669954351308
 30
0.0
  0
VERTEX
  5
BF
330
B8
100
AcDbEntity
  8
Graypants_Hewn48-8
 62
    36
420
  8866048
370
    -3
100
AcDbVertex
100
AcDb2dVertex
 10
364.2765503600824
 20
-1055.892290211036
 30
0.0
  0
VERTEX
  5
C0
330
B8
100
AcDbEntity
  8
Graypants_Hewn48-8
 62
    36
420
  8866048
370
    -3
100
AcDbVertex
100
AcDb2dVertex
 10
364.0774368291969
 20
-1054.121154038743
 30
0.0
  0
VERTEX
  5
C1
330
B8
100
AcDbEntity
  8
Graypants_Hewn48-8
 62
    36
420
  8866048
370
    -3
100
AcDbVertex
100
AcDb2dVertex
 10
363.8479963880991
 20
-1052.357638151952
 30
0.0
  0
VERTEX
  5
C2
330
B8
100
AcDbEntity
  8
Graypants_Hewn48-8
 62
    36
420
  8866048
370
    -3
100
AcDbVertex
100
AcDb2dVertex
 10
363.5831062530793
 20
-1050.569522918842
 30
0.0
  0
VERTEX
  5
C3
330
B8
100
AcDbEntity
  8
Graypants_Hewn48-8
 62
    36
420
  8866048
370
    -3
100
AcDbVertex
100
AcDb2dVertex
 10
363.2870522522985
 20
-1048.791513872999
 30
0.0
  0
VERTEX
  5
C4
330
B8
100
AcDbEntity
  8
Graypants_Hewn48-8
 62
    36
420
  8866048
370
    -3
100
AcDbVertex
100
AcDb2dVertex
 10
362.9600810300011
 20
-1047.024722950652
 30
0.0
  0
VERTEX
  5
C5
330
B8
100
AcDbEntity
  8
Graypants_Hewn48-8
 62
    36
420
  8866048
370
    -3
100
AcDbVertex
100
AcDb2dVertex
 10
362.6024392304319
 20
-1045.270262088033
 30
0.0
  0
VERTEX
  5
C6
330
B8
100
AcDbEntity
  8
Graypants_Hewn48-8
 62
    36
420
  8866048
370
    -3
100
AcDbVertex
100
AcDb2dVertex
 10
362.2143734978353
 20
-1043.529243221372
 30
0.0
  0
VERTEX
  5
C7
330
B8
100
AcDbEntity
  8
Graypants_Hewn48-8
 62
    36
420
  8866048
370
    -3
100
AcDbVertex
100
AcDb2dVertex
 10
361.7961304764559
 20
-1041.802778286899
 30
0.0
  0
VERTEX
  5
C8
330
B8
100
AcDbEntity
  8
Graypants_Hewn48-8
 62
    36
420
  8866048
370
    -3
100
AcDbVertex
100
AcDb2dVertex
 10
361.3479568105384
 20
-1040.091979220846
 30
0.0
  0
VERTEX
  5
C9
330
B8
100
AcDbEntity
  8
Graypants_Hewn48-8
 62
    36
420
  8866048
370
    -3
100
AcDbVertex
100
AcDb2dVertex
 10
360.8700991443275
 20
-1038.397957959443
 30
0.0
  0
VERTEX
  5
CA
330
B8
100
AcDbEntity
  8
Graypants_Hewn48-8
 62
    36
420
  8866048
370
    -3
100
AcDbVertex
100
AcDb2dVertex
 10
360.3634208195135
 20
-1036.723693329255
 30
0.0
  0
VERTEX
  5
CB
330
B8
100
AcDbEntity
  8
Graypants_Hewn48-8
 62
    36
420
  8866048
370
    -3
100
AcDbVertex
100
AcDb2dVertex
 10
359.8277814102104
 20
-1035.068285112653
 30
0.0
  0
VERTEX
  5
CC
330
B8
100
AcDbEntity
  8
Graypants_Hewn48-8
 62
    36
420
  8866048
370
    -3
100
AcDbVertex
100
AcDb2dVertex
 10
359.2635938371762
 20
-1033.43274640394
 30
0.0
  0
VERTEX
  5
CD
330
B8
100
AcDbEntity
  8
Graypants_Hewn48-8
 62
    36
420
  8866048
370
    -3
100
AcDbVertex
100
AcDb2dVertex
 10
358.6712710211689
 20
-1031.818090297418
 30
0.0
  0
VERTEX
  5
CE
330
B8
100
AcDbEntity
  8
Graypants_Hewn48-8
 62
    36
420
  8866048
370
    -3
100
AcDbVertex
100
AcDb2dVertex
 10
358.0512258829466
 20
-1030.22532988739
 30
0.0
  0
VERTEX
  5
CF
330
B8
100
AcDbEntity
  8
Graypants_Hewn48-8
 62
    36
420
  8866048
370
    -3
100
AcDbVertex
100
AcDb2dVertex
 10
357.4038713432673
 20
-1028.655478268159
 30
0.0
  0
VERTEX
  5
D0
330
B8
100
AcDbEntity
  8
Graypants_Hewn48-8
 62
    36
420
  8866048
370
    -3
100
AcDbVertex
100
AcDb2dVertex
 10
356.729620322889
 20
-1027.109548534027
 30
0.0
  0
VERTEX
  5
D1
330
B8
100
AcDbEntity
  8
Graypants_Hewn48-8
 62
    36
420
  8866048
370
    -3
100
AcDbVertex
100
AcDb2dVertex
 10
356.0288857425699
 20
-1025.588553779296
 30
0.0
  0
VERTEX
  5
D2
330
B8
100
AcDbEntity
  8
Graypants_Hewn48-8
 62
    36
420
  8866048
370
    -3
100
AcDbVertex
100
AcDb2dVertex
 10
355.3174954313696
 20
-1024.124338478961
 30
0.0
  0
VERTEX
  5
D3
330
B8
100
AcDbEntity
  8
Graypants_Hewn48-8
 62
    36
420
  8866048
370
    -3
100
AcDbVertex
100
AcDb2dVertex
 10
354.5816522875667
 20
-1022.685884434214
 30
0.0
  0
VERTEX
  5
D4
330
B8
100
AcDbEntity
  8
Graypants_Hewn48-8
 62
    36
420
  8866048
370
    -3
100
AcDbVertex
100
AcDb2dVertex
 10
353.821872014345
 20
-1021.274014663873
 30
0.0
  0
VERTEX
  5
D5
330
B8
100
AcDbEntity
  8
Graypants_Hewn48-8
 62
    36
420
  8866048
370
    -3
100
AcDbVertex
100
AcDb2dVertex
 10
353.0386703148882
 20
-1019.889552186759
 30
0.0
  0
VERTEX
  5
D6
330
B8
100
AcDbEntity
  8
Graypants_Hewn48-8
 62
    36
420
  8866048
370
    -3
100
AcDbVertex
100
AcDb2dVertex
 10
352.23256289238
 20
-1018.533320021692
 30
0.0
  0
VERTEX
  5
D7
330
B8
100
AcDbEntity
  8
Graypants_Hewn48-8
 62
    36
420
  8866048
370
    -3
100
AcDbVertex
100
AcDb2dVertex
 10
351.4040654500041
 20
-1017.206141187493
 30
0.0
  0
VERTEX
  5
D8
330
B8
100
AcDbEntity
  8
Graypants_Hewn48-8
 62
    36
420
  8866048
370
    -3
100
AcDbVertex
100
AcDb2dVertex
 10
350.5536936909442
 20
-1015.908838702981
 30
0.0
  0
VERTEX
  5
D9
330
B8
100
AcDbEntity
  8
Graypants_Hewn48-8
 62
    36
420
  8866048
370
    -3
100
AcDbVertex
100
AcDb2dVertex
 10
349.6819633183841
 20
-1014.642235586976
 30
0.0
  0
SEQEND
  5
DA
330
B8
100
AcDbEntity
  8
Graypants_Hewn48-8
 62
    36
420
  8866048
370
    -3
  0
POLYLINE
  5
DB
330
1F
100
AcDbEntity
  8
Graypants_Hewn48-8
 62
    36
420
  8866048
370
    -3
100
AcDb2dPolyline
 66
     1
 10
0.0
 20
0.0
 30
0.0
  0
VERTEX
  5
DC
330
DB
100
AcDbEntity
  8
Graypants_Hewn48-8
 62
    36
420
  8866048
370
    -3
100
AcDbVertex
100
AcDb2dVertex
 10
349.6819624482205
 20
-1014.642234353116
 30
0.0
  0
VERTEX
  5
DD
330
DB
100
AcDbEntity
  8
Graypants_Hewn48-8
 62
    36
420
  8866048
370
    -3
100
AcDbVertex
100
AcDb2dVertex
 10
348.7302098721595
 20
-1013.259446196332
 30
0.0
  0
VERTEX
  5
DE
330
DB
100
AcDbEntity
  8
Graypants_Hewn48-8
 62
    36
420
  8866048
370
    -3
100
AcDbVertex
100
AcDb2dVertex
 10
347.8031616082762
 20
-1011.845375402067
 30
0.0
  0
VERTEX
  5
DF
330
DB
100
AcDbEntity
  8
Graypants_Hewn48-8
 62
    36
420
  8866048
370
    -3
100
AcDbVertex
100
AcDb2dVertex
 10
346.9012724140528
 20
-1010.400900893917
 30
0.0
  0
VERTEX
  5
E0
330
DB
100
AcDbEntity
  8
Graypants_Hewn48-8
 62
    36
420
  8866048
370
    -3
100
AcDbVertex
100
AcDb2dVertex
 10
346.0249970469713
 20
-1008.926901595475
 30
0.0
  0
VERTEX
  5
E1
330
DB
100
AcDbEntity
  8
Graypants_Hewn48-8
 62
    36
420
  8866048
370
    -3
100
AcDbVertex
100
AcDb2dVertex
 10
345.1747902645137
 20
-1007.424256430338
 30
0.0
  0
VERTEX
  5
E2
330
DB
100
AcDbEntity
  8
Graypants_Hewn48-8
 62
    36
420
  8866048
370
    -3
100
AcDbVertex
100
AcDb2dVertex
 10
344.3511068241621
 20
-1005.8938443221
 30
0.0
  0
VERTEX
  5
E3
330
DB
100
AcDbEntity
  8
Graypants_Hewn48-8
 62
    36
420
  8866048
370
    -3
100
AcDbVertex
100
AcDb2dVertex
 10
343.5544014833986
 20
-1004.336544194357
 30
0.0
  0
VERTEX
  5
E4
330
DB
100
AcDbEntity
  8
Graypants_Hewn48-8
 62
    36
420
  8866048
370
    -3
100
AcDbVertex
100
AcDb2dVertex
 10
342.7851289997052
 20
-1002.753234970704
 30
0.0
  0
VERTEX
  5
E5
330
DB
100
AcDbEntity
  8
Graypants_Hewn48-8
 62
    36
420
  8866048
370
    -3
100
AcDbVertex
100
AcDb2dVertex
 10
342.0307145392536
 20
-1001.115808633069
 30
0.0
  0
VERTEX
  5
E6
330
DB
100
AcDbEntity
  8
Graypants_Hewn48-8
 62
    36
420
  8866048
370
    -3
100
AcDbVertex
100
AcDb2dVertex
 10
341.3055235832159
 20
-999.4532980655006
 30
0.0
  0
VERTEX
  5
E7
330
DB
100
AcDbEntity
  8
Graypants_Hewn48-8
 62
    36
420
  8866048
370
    -3
100
AcDbVertex
100
AcDb2dVertex
 10
340.6099213213088
 20
-997.7667249399142
 30
0.0
  0
VERTEX
  5
E8
330
DB
100
AcDbEntity
  8
Graypants_Hewn48-8
 62
    36
420
  8866048
370
    -3
100
AcDbVertex
100
AcDb2dVertex
 10
339.9442729432494
 20
-996.0571109282234
 30
0.0
  0
VERTEX
  5
E9
330
DB
100
AcDbEntity
  8
Graypants_Hewn48-8
 62
    36
420
  8866048
370
    -3
100
AcDbVertex
100
AcDb2dVertex
 10
339.3089436387543
 20
-994.3254777023425
 30
0.0
  0
VERTEX
  5
EA
330
DB
100
AcDbEntity
  8
Graypants_Hewn48-8
 62
    36
420
  8866048
370
    -3
100
AcDbVertex
100
AcDb2dVertex
 10
338.7042985975407
 20
-992.5728469341851
 30
0.0
  0
VERTEX
  5
EB
330
DB
100
AcDbEntity
  8
Graypants_Hewn48-8
 62
    36
420
  8866048
370
    -3
100
AcDbVertex
100
AcDb2dVertex
 10
338.1307030093252
 20
-990.8002402956656
 30
0.0
  0
VERTEX
  5
EC
330
DB
100
AcDbEntity
  8
Graypants_Hewn48-8
 62
    36
420
  8866048
370
    -3
100
AcDbVertex
100
AcDb2dVertex
 10
337.5885220638247
 20
-989.0086794586982
 30
0.0
  0
VERTEX
  5
ED
330
DB
100
AcDbEntity
  8
Graypants_Hewn48-8
 62
    36
420
  8866048
370
    -3
100
AcDbVertex
100
AcDb2dVertex
 10
337.0786654921337
 20
-987.2012887501294
 30
0.0
  0
VERTEX
  5
EE
330
DB
100
AcDbEntity
  8
Graypants_Hewn48-8
 62
    36
420
  8866048
370
    -3
100
AcDbVertex
100
AcDb2dVertex
 10
336.6007414237561
 20
-985.3771248553239
 30
0.0
  0
VERTEX
  5
EF
330
DB
100
AcDbEntity
  8
Graypants_Hewn48-8
 62
    36
420
  8866048
370
    -3
100
AcDbVertex
100
AcDb2dVertex
 10
336.1549700403292
 20
-983.5372912431714
 30
0.0
  0
VERTEX
  5
F0
330
DB
100
AcDbEntity
  8
Graypants_Hewn48-8
 62
    36
420
  8866048
370
    -3
100
AcDbVertex
100
AcDb2dVertex
 10
335.7415715234908
 20
-981.6828913825616
 30
0.0
  0
VERTEX
  5
F1
330
DB
100
AcDbEntity
  8
Graypants_Hewn48-8
 62
    36
420
  8866048
370
    -3
100
AcDbVertex
100
AcDb2dVertex
 10
335.3607660548782
 20
-979.8150287423844
 30
0.0
  0
VERTEX
  5
F2
330
DB
100
AcDbEntity
  8
Graypants_Hewn48-8
 62
    36
420
  8866048
370
    -3
100
AcDbVertex
100
AcDb2dVertex
 10
335.0127738161289
 20
-977.9348067915296
 30
0.0
  0
VERTEX
  5
F3
330
DB
100
AcDbEntity
  8
Graypants_Hewn48-8
 62
    36
420
  8866048
370
    -3
100
AcDbVertex
100
AcDb2dVertex
 10
334.6978149888805
 20
-976.0433289988871
 30
0.0
  0
VERTEX
  5
F4
330
DB
100
AcDbEntity
  8
Graypants_Hewn48-8
 62
    36
420
  8866048
370
    -3
100
AcDbVertex
100
AcDb2dVertex
 10
334.4161097547703
 20
-974.1416988333465
 30
0.0
  0
VERTEX
  5
F5
330
DB
100
AcDbEntity
  8
Graypants_Hewn48-8
 62
    36
420
  8866048
370
    -3
100
AcDbVertex
100
AcDb2dVertex
 10
334.1724365863142
 20
-972.2688555591942
 30
0.0
  0
VERTEX
  5
F6
330
DB
100
AcDbEntity
  8
Graypants_Hewn48-8
 62
    36
420
  8866048
370
    -3
100
AcDbVertex
100
AcDb2dVertex
 10
333.9610140517948
 20
-970.3884354621573
 30
0.0
  0
VERTEX
  5
F7
330
DB
100
AcDbEntity
  8
Graypants_Hewn48-8
 62
    36
420
  8866048
370
    -3
100
AcDbVertex
100
AcDb2dVertex
 10
333.7819209540204
 20
-968.5015160073306
 30
0.0
  0
VERTEX
  5
F8
330
DB
100
AcDbEntity
  8
Graypants_Hewn48-8
 62
    36
420
  8866048
370
    -3
100
AcDbVertex
100
AcDb2dVertex
 10
333.6352360957993
 20
-966.6091746598087
 30
0.0
  0
VERTEX
  5
F9
330
DB
100
AcDbEntity
  8
Graypants_Hewn48-8
 62
    36
420
  8866048
370
    -3
100
AcDbVertex
100
AcDb2dVertex
 10
333.5210382799396
 20
-964.7124888846869
 30
0.0
  0
VERTEX
  5
FA
330
DB
100
AcDbEntity
  8
Graypants_Hewn48-8
 62
    36
420
  8866048
370
    -3
100
AcDbVertex
100
AcDb2dVertex
 10
333.4394063092496
 20
-962.8125361470597
 30
0.0
  0
VERTEX
  5
FB
330
DB
100
AcDbEntity
  8
Graypants_Hewn48-8
 62
    36
420
  8866048
370
    -3
100
AcDbVertex
100
AcDb2dVertex
 10
333.3904189865376
 20
-960.9103939120223
 30
0.0
  0
VERTEX
  5
FC
330
DB
100
AcDbEntity
  8
Graypants_Hewn48-8
 62
    36
420
  8866048
370
    -3
100
AcDbVertex
100
AcDb2dVertex
 10
333.3741551146118
 20
-959.0071396446695
 30
0.0
  0
SEQEND
  5
FD
330
DB
100
AcDbEntity
  8
Graypants_Hewn48-8
 62
    36
420
  8866048
370
    -3
  0
POLYLINE
  5
FE
330
1F
100
AcDbEntity
  8
Graypants_Hewn48-8
 62
    36
420
  8866048
370
    -3
100
AcDb2dPolyline
 66
     1
 10
0.0
 20
0.0
 30
0.0
  0
VERTEX
  5
FF
330
FE
100
AcDbEntity
  8
Graypants_Hewn48-8
 62
    36
420
  8866048
370
    -3
100
AcDbVertex
100
AcDb2dVertex
 10
339.7514581260806
 20
-961.399137225648
 30
0.0
  0
VERTEX
  5
100
330
FE
100
AcDbEntity
  8
Graypants_Hewn48-8
 62
    36
420
  8866048
370
    -3
100
AcDbVertex
100
AcDb2dVertex
 10
339.7963523717698
 20
-962.8927795468708
 30
0.0
  0
VERTEX
  5
101
330
FE
100
AcDbEntity
  8
Graypants_Hewn48-8
 62
    36
420
  8866048
370
    -3
100
AcDbVertex
100
AcDb2dVertex
 10
339.8625983557583
 20
-964.3847972389167
 30
0.0
  0
VERTEX
  5
102
330
FE
100
AcDbEntity
  8
Graypants_Hewn48-8
 62
    36
420
  8866048
370
    -3
100
AcDbVertex
100
AcDb2dVertex
 10
339.9501457747008
 20
-965.8745597867708
 30
0.0
  0
VERTEX
  5
103
330
FE
100
AcDbEntity
  8
Graypants_Hewn48-8
 62
    36
420
  8866048
370
    -3
100
AcDbVertex
100
AcDb2dVertex
 10
340.058944325252
 20
-967.3614366754183
 30
0.0
  0
VERTEX
  5
104
330
FE
100
AcDbEntity
  8
Graypants_Hewn48-8
 62
    36
420
  8866048
370
    -3
100
AcDbVertex
100
AcDb2dVertex
 10
340.1889437040666
 20
-968.8447973898442
 30
0.0
  0
VERTEX
  5
105
330
FE
100
AcDbEntity
  8
Graypants_Hewn48-8
 62
    36
420
  8866048
370
    -3
100
AcDbVertex
100
AcDb2dVertex
 10
340.3400936077993
 20
-970.3240114150333
 30
0.0
  0
VERTEX
  5
106
330
FE
100
AcDbEntity
  8
Graypants_Hewn48-8
 62
    36
420
  8866048
370
    -3
100
AcDbVertex
100
AcDb2dVertex
 10
340.512343733105
 20
-971.7984482359709
 30
0.0
  0
VERTEX
  5
107
330
FE
100
AcDbEntity
  8
Graypants_Hewn48-8
 62
    36
420
  8866048
370
    -3
100
AcDbVertex
100
AcDb2dVertex
 10
340.7056437766382
 20
-973.2674773376418
 30
0.0
  0
VERTEX
  5
108
330
FE
100
AcDbEntity
  8
Graypants_Hewn48-8
 62
    36
420
  8866048
370
    -3
100
AcDbVertex
100
AcDb2dVertex
 10
340.9705274050265
 20
-975.0555827509792
 30
0.0
  0
VERTEX
  5
109
330
FE
100
AcDbEntity
  8
Graypants_Hewn48-8
 62
    36
420
  8866048
370
    -3
100
AcDbVertex
100
AcDb2dVertex
 10
341.2665743274384
 20
-976.833582565411
 30
0.0
  0
VERTEX
  5
10A
330
FE
100
AcDbEntity
  8
Graypants_Hewn48-8
 62
    36
420
  8866048
370
    -3
100
AcDbVertex
100
AcDb2dVertex
 10
341.5935379113969
 20
-978.6003647246198
 30
0.0
  0
VERTEX
  5
10B
330
FE
100
AcDbEntity
  8
Graypants_Hewn48-8
 62
    36
420
  8866048
370
    -3
100
AcDbVertex
100
AcDb2dVertex
 10
341.951171524425
 20
-980.3548171722882
 30
0.0
  0
VERTEX
  5
10C
330
FE
100
AcDbEntity
  8
Graypants_Hewn48-8
 62
    36
420
  8866048
370
    -3
100
AcDbVertex
100
AcDb2dVertex
 10
342.3392285340457
 20
-982.0958278520988
 30
0.0
  0
VERTEX
  5
10D
330
FE
100
AcDbEntity
  8
Graypants_Hewn48-8
 62
    36
420
  8866048
370
    -3
100
AcDbVertex
100
AcDb2dVertex
 10
342.7574623077819
 20
-983.8222847077337
 30
0.0
  0
VERTEX
  5
10E
330
FE
100
AcDbEntity
  8
Graypants_Hewn48-8
 62
    36
420
  8866048
370
    -3
100
AcDbVertex
100
AcDb2dVertex
 10
343.2056262131568
 20
-985.533075682876
 30
0.0
  0
VERTEX
  5
10F
330
FE
100
AcDbEntity
  8
Graypants_Hewn48-8
 62
    36
420
  8866048
370
    -3
100
AcDbVertex
100
AcDb2dVertex
 10
343.6834736176933
 20
-987.2270887212077
 30
0.0
  0
VERTEX
  5
110
330
FE
100
AcDbEntity
  8
Graypants_Hewn48-8
 62
    36
420
  8866048
370
    -3
100
AcDbVertex
100
AcDb2dVertex
 10
344.1901469642302
 20
-988.9013633054644
 30
0.0
  0
VERTEX
  5
111
330
FE
100
AcDbEntity
  8
Graypants_Hewn48-8
 62
    36
420
  8866048
370
    -3
100
AcDbVertex
100
AcDb2dVertex
 10
344.7257816058573
 20
-990.5567808836331
 30
0.0
  0
VERTEX
  5
112
330
FE
100
AcDbEntity
  8
Graypants_Hewn48-8
 62
    36
420
  8866048
370
    -3
100
AcDbVertex
100
AcDb2dVertex
 10
345.2899646915427
 20
-992.1923284432978
 30
0.0
  0
VERTEX
  5
113
330
FE
100
AcDbEntity
  8
Graypants_Hewn48-8
 62
    36
420
  8866048
370
    -3
100
AcDbVertex
100
AcDb2dVertex
 10
345.8822833702546
 20
-993.806992972043
 30
0.0
  0
VERTEX
  5
114
330
FE
100
AcDbEntity
  8
Graypants_Hewn48-8
 62
    36
420
  8866048
370
    -3
100
AcDbVertex
100
AcDb2dVertex
 10
346.5023247909608
 20
-995.3997614574525
 30
0.0
  0
VERTEX
  5
115
330
FE
100
AcDbEntity
  8
Graypants_Hewn48-8
 62
    36
420
  8866048
370
    -3
100
AcDbVertex
100
AcDb2dVertex
 10
347.1496761026295
 20
-996.9696208871112
 30
0.0
  0
VERTEX
  5
116
330
FE
100
AcDbEntity
  8
Graypants_Hewn48-8
 62
    36
420
  8866048
370
    -3
100
AcDbVertex
100
AcDb2dVertex
 10
347.8239244542288
 20
-998.5155582486029
 30
0.0
  0
VERTEX
  5
117
330
FE
100
AcDbEntity
  8
Graypants_Hewn48-8
 62
    36
420
  8866048
370
    -3
100
AcDbVertex
100
AcDb2dVertex
 10
348.5246569947266
 20
-1000.036560529512
 30
0.0
  0
VERTEX
  5
118
330
FE
100
AcDbEntity
  8
Graypants_Hewn48-8
 62
    36
420
  8866048
370
    -3
100
AcDbVertex
100
AcDb2dVertex
 10
349.236036597839
 20
-1001.500764488906
 30
0.0
  0
VERTEX
  5
119
330
FE
100
AcDbEntity
  8
Graypants_Hewn48-8
 62
    36
420
  8866048
370
    -3
100
AcDbVertex
100
AcDb2dVertex
 10
349.9718727103037
 20
-1002.939215744268
 30
0.0
  0
VERTEX
  5
11A
330
FE
100
AcDbEntity
  8
Graypants_Hewn48-8
 62
    36
420
  8866048
370
    -3
100
AcDbVertex
100
AcDb2dVertex
 10
350.7316483207297
 20
-1004.351088443058
 30
0.0
  0
VERTEX
  5
11B
330
FE
100
AcDbEntity
  8
Graypants_Hewn48-8
 62
    36
420
  8866048
370
    -3
100
AcDbVertex
100
AcDb2dVertex
 10
351.5148464177259
 20
-1005.735556732732
 30
0.0
  0
VERTEX
  5
11C
330
FE
100
AcDbEntity
  8
Graypants_Hewn48-8
 62
    36
420
  8866048
370
    -3
100
AcDbVertex
100
AcDb2dVertex
 10
352.3209499899011
 20
-1007.091794760752
 30
0.0
  0
VERTEX
  5
11D
330
FE
100
AcDbEntity
  8
Graypants_Hewn48-8
 62
    36
420
  8866048
370
    -3
100
AcDbVertex
100
AcDb2dVertex
 10
353.1494420258643
 20
-1008.418976674575
 30
0.0
  0
VERTEX
  5
11E
330
FE
100
AcDbEntity
  8
Graypants_Hewn48-8
 62
    36
420
  8866048
370
    -3
100
AcDbVertex
100
AcDb2dVertex
 10
353.9998055142242
 20
-1009.716276621661
 30
0.0
  0
VERTEX
  5
11F
330
FE
100
AcDbEntity
  8
Graypants_Hewn48-8
 62
    36
420
  8866048
370
    -3
100
AcDbVertex
100
AcDb2dVertex
 10
354.8715234435899
 20
-1010.982868749469
 30
0.0
  0
SEQEND
  5
120
330
FE
100
AcDbEntity
  8
Graypants_Hewn48-8
 62
    36
420
  8866048
370
    -3
  0
LINE
  5
121
330
1F
100
AcDbEntity
  8
Graypants_Hewn48-8
 62
    36
420
  8866048
370
    -3
100
AcDbLine
 10
333.3741551146118
 20
-959.0071396446695
 30
0.0
 11
333.3741551143039
 21
-414.1093193424462
 31
0.0
  0
LINE
  5
122
330
1F
100
AcDbEntity
  8
Graypants_Hewn48-8
 62
    36
420
  8866048
370
    -3
100
AcDbLine
 10
339.7241551143034
 20
-414.1093193424425
 30
0.0
 11
339.7241551146117
 21
-959.0071396446658
 31
0.0
  0
POLYLINE
  5
123
330
1F
100
AcDbEntity
  8
Graypants_Hewn48-8
 62
    36
420
  8866048
370
    -3
100
AcDb2dPolyline
 66
     1
 10
0.0
 20
0.0
 30
0.0
  0
VERTEX
  5
124
330
123
100
AcDbEntity
  8
Graypants_Hewn48-8
 62
    36
420
  8866048
370
    -3
100
AcDbVertex
100
AcDb2dVertex
 10
354.8715226763088
 20
-1010.982867661492
 30
0.0
  0
VERTEX
  5
125
330
123
100
AcDbEntity
  8
Graypants_Hewn48-8
 62
    36
420
  8866048
370
    -3
100
AcDbVertex
100
AcDb2dVertex
 10
355.823286741073
 20
-1012.365665542594
 30
0.0
  0
VERTEX
  5
126
330
123
100
AcDbEntity
  8
Graypants_Hewn48-8
 62
    36
420
  8866048
370
    -3
100
AcDbVertex
100
AcDb2dVertex
 10
356.7503428404876
 20
-1013.779738202604
 30
0.0
  0
VERTEX
  5
127
330
123
100
AcDbEntity
  8
Graypants_Hewn48-8
 62
    36
420
  8866048
370
    -3
100
AcDbVertex
100
AcDb2dVertex
 10
357.652237410867
 20
-1015.224209434449
 30
0.0
  0
VERTEX
  5
128
330
123
100
AcDbEntity
  8
Graypants_Hewn48-8
 62
    36
420
  8866048
370
    -3
100
AcDbVertex
100
AcDb2dVertex
 10
358.5285168885256
 20
-1016.698203031053
 30
0.0
  0
VERTEX
  5
129
330
123
100
AcDbEntity
  8
Graypants_Hewn48-8
 62
    36
420
  8866048
370
    -3
100
AcDbVertex
100
AcDb2dVertex
 10
359.3787277097776
 20
-1018.200842785343
 30
0.0
  0
VERTEX
  5
12A
330
123
100
AcDbEntity
  8
Graypants_Hewn48-8
 62
    36
420
  8866048
370
    -3
100
AcDbVertex
100
AcDb2dVertex
 10
360.2024163109376
 20
-1019.731252490243
 30
0.0
  0
VERTEX
  5
12B
330
123
100
AcDbEntity
  8
Graypants_Hewn48-8
 62
    36
420
  8866048
370
    -3
100
AcDbVertex
100
AcDb2dVertex
 10
360.9991291283198
 20
-1021.28855593868
 30
0.0
  0
VERTEX
  5
12C
330
123
100
AcDbEntity
  8
Graypants_Hewn48-8
 62
    36
420
  8866048
370
    -3
100
AcDbVertex
100
AcDb2dVertex
 10
361.7684125982387
 20
-1022.87187692358
 30
0.0
  0
VERTEX
  5
12D
330
123
100
AcDbEntity
  8
Graypants_Hewn48-8
 62
    36
420
  8866048
370
    -3
100
AcDbVertex
100
AcDb2dVertex
 10
362.522828813223
 20
-1024.509295103399
 30
0.0
  0
VERTEX
  5
12E
330
123
100
AcDbEntity
  8
Graypants_Hewn48-8
 62
    36
420
  8866048
370
    -3
100
AcDbVertex
100
AcDb2dVertex
 10
363.2480222051634
 20
-1026.171797409599
 30
0.0
  0
VERTEX
  5
12F
330
123
100
AcDbEntity
  8
Graypants_Hewn48-8
 62
    36
420
  8866048
370
    -3
100
AcDbVertex
100
AcDb2dVertex
 10
363.9436275128064
 20
-1027.858362097343
 30
0.0
  0
VERTEX
  5
130
330
123
100
AcDbEntity
  8
Graypants_Hewn48-8
 62
    36
420
  8866048
370
    -3
100
AcDbVertex
100
AcDb2dVertex
 10
364.6092794748988
 20
-1029.567967421795
 30
0.0
  0
VERTEX
  5
131
330
123
100
AcDbEntity
  8
Graypants_Hewn48-8
 62
    36
420
  8866048
370
    -3
100
AcDbVertex
100
AcDb2dVertex
 10
365.2446128301871
 20
-1031.299591638119
 30
0.0
  0
VERTEX
  5
132
330
123
100
AcDbEntity
  8
Graypants_Hewn48-8
 62
    36
420
  8866048
370
    -3
100
AcDbVertex
100
AcDb2dVertex
 10
365.8492623174177
 20
-1033.052213001477
 30
0.0
  0
VERTEX
  5
133
330
123
100
AcDbEntity
  8
Graypants_Hewn48-8
 62
    36
420
  8866048
370
    -3
100
AcDbVertex
100
AcDb2dVertex
 10
366.4228626753373
 20
-1034.824809767034
 30
0.0
  0
VERTEX
  5
134
330
123
100
AcDbEntity
  8
Graypants_Hewn48-8
 62
    36
420
  8866048
370
    -3
100
AcDbVertex
100
AcDb2dVertex
 10
366.9650486426926
 20
-1036.616360189952
 30
0.0
  0
VERTEX
  5
135
330
123
100
AcDbEntity
  8
Graypants_Hewn48-8
 62
    36
420
  8866048
370
    -3
100
AcDbVertex
100
AcDb2dVertex
 10
367.4749158410423
 20
-1038.423759840465
 30
0.0
  0
VERTEX
  5
136
330
123
100
AcDbEntity
  8
Graypants_Hewn48-8
 62
    36
420
  8866048
370
    -3
100
AcDbVertex
100
AcDb2dVertex
 10
367.9528500007302
 20
-1040.2479325451
 30
0.0
  0
VERTEX
  5
137
330
123
100
AcDbEntity
  8
Graypants_Hewn48-8
 62
    36
420
  8866048
370
    -3
100
AcDbVertex
100
AcDb2dVertex
 10
368.398630927143
 20
-1042.08777495753
 30
0.0
  0
VERTEX
  5
138
330
123
100
AcDbEntity
  8
Graypants_Hewn48-8
 62
    36
420
  8866048
370
    -3
100
AcDbVertex
100
AcDb2dVertex
 10
368.8120384256674
 20
-1043.942183731429
 30
0.0
  0
VERTEX
  5
139
330
123
100
AcDbEntity
  8
Graypants_Hewn48-8
 62
    36
420
  8866048
370
    -3
100
AcDbVertex
100
AcDb2dVertex
 10
369.1928523016902
 20
-1045.810055520471
 30
0.0
  0
VERTEX
  5
13A
330
123
100
AcDbEntity
  8
Graypants_Hewn48-8
 62
    36
420
  8866048
370
    -3
100
AcDbVertex
100
AcDb2dVertex
 10
369.5408523605981
 20
-1047.690286978327
 30
0.0
  0
VERTEX
  5
13B
330
123
100
AcDbEntity
  8
Graypants_Hewn48-8
 62
    36
420
  8866048
370
    -3
100
AcDbVertex
100
AcDb2dVertex
 10
369.8558184077779
 20
-1049.581774758673
 30
0.0
  0
VERTEX
  5
13C
330
123
100
AcDbEntity
  8
Graypants_Hewn48-8
 62
    36
420
  8866048
370
    -3
100
AcDbVertex
100
AcDb2dVertex
 10
370.1375302486163
 20
-1051.48341551518
 30
0.0
  0
VERTEX
  5
13D
330
123
100
AcDbEntity
  8
Graypants_Hewn48-8
 62
    36
420
  8866048
370
    -3
100
AcDbVertex
100
AcDb2dVertex
 10
370.3812065320715
 20
-1053.356246273615
 30
0.0
  0
VERTEX
  5
13E
330
123
100
AcDbEntity
  8
Graypants_Hewn48-8
 62
    36
420
  8866048
370
    -3
100
AcDbVertex
100
AcDb2dVertex
 10
370.5926338208542
 20
-1055.236663451133
 30
0.0
  0
VERTEX
  5
13F
330
123
100
AcDbEntity
  8
Graypants_Hewn48-8
 62
    36
420
  8866048
370
    -3
100
AcDbVertex
100
AcDb2dVertex
 10
370.7717328037839
 20
-1057.123586371698
 30
0.0
  0
VERTEX
  5
140
330
123
100
AcDbEntity
  8
Graypants_Hewn48-8
 62
    36
420
  8866048
370
    -3
100
AcDbVertex
100
AcDb2dVertex
 10
370.9184241696799
 20
-1059.015934359276
 30
0.0
  0
VERTEX
  5
141
330
123
100
AcDbEntity
  8
Graypants_Hewn48-8
 62
    36
420
  8866048
370
    -3
100
AcDbVertex
100
AcDb2dVertex
 10
371.0326286073617
 20
-1060.912626737833
 30
0.0
  0
VERTEX
  5
142
330
123
100
AcDbEntity
  8
Graypants_Hewn48-8
 62
    36
420
  8866048
370
    -3
100
AcDbVertex
100
AcDb2dVertex
 10
371.1142668056489
 20
-1062.812582831336
 30
0.0
  0
VERTEX
  5
143
330
123
100
AcDbEntity
  8
Graypants_Hewn48-8
 62
    36
420
  8866048
370
    -3
100
AcDbVertex
100
AcDb2dVertex
 10
371.1632594533608
 20
-1064.714721963749
 30
0.0
  0
VERTEX
  5
144
330
123
100
AcDbEntity
  8
Graypants_Hewn48-8
 62
    36
420
  8866048
370
    -3
100
AcDbVertex
100
AcDb2dVertex
 10
371.1795272393169
 20
-1066.617963459038
 30
0.0
  0
SEQEND
  5
145
330
123
100
AcDbEntity
  8
Graypants_Hewn48-8
 62
    36
420
  8866048
370
    -3
  0
LINE
  5
146
330
1F
100
AcDbEntity
  8
Graypants_Hewn48-8
 62
    36
420
  8866048
370
    -3
100
AcDbLine
 10
339.7241551146117
 20
-959.0071396446658
 30
0.0
 11
339.7514581260806
 21
-961.399137225648
 31
0.0
  0
LINE
  5
147
330
1F
100
AcDbEntity
  8
Graypants_Hewn48-8
 62
    36
420
  8866048
370
    -3
100
AcDbLine
 10
304.8011194290684
 20
-382.3593193423997
 30
0.0
 11
227.0136194291354
 21
-382.3593193443697
 31
0.0
  0
POLYLINE
  5
148
330
1F
100
AcDbEntity
  8
Graypants_Hewn48-8
 62
    36
420
  8866048
370
    -3
100
AcDb2dPolyline
 66
     1
 10
0.0
 20
0.0
 30
0.0
  0
VERTEX
  5
149
330
148
100
AcDbEntity
  8
Graypants_Hewn48-8
 62
    36
420
  8866048
370
    -3
100
AcDbVertex
100
AcDb2dVertex
 10
228.4423694298039
 20
-414.1093193443791
 30
0.0
  0
VERTEX
  5
14A
330
148
100
AcDbEntity
  8
Graypants_Hewn48-8
 62
    36
420
  8866048
370
    -3
100
AcDbVertex
100
AcDb2dVertex
 10
228.3935903186257
 20
-414.1084864150858
 30
0.0
  0
VERTEX
  5
14B
330
148
100
AcDbEntity
  8
Graypants_Hewn48-8
 62
    36
420
  8866048
370
    -3
100
AcDbVertex
100
AcDb2dVertex
 10
228.3448680817091
 20
-414.1059885983622
 30
0.0
  0
VERTEX
  5
14C
330
148
100
AcDbEntity
  8
Graypants_Hewn48-8
 62
    36
420
  8866048
370
    -3
100
AcDbVertex
100
AcDb2dVertex
 10
228.2962595270028
 20
-414.1018288065508
 30
0.0
  0
VERTEX
  5
14D
330
148
100
AcDbEntity
  8
Graypants_Hewn48-8
 62
    36
420
  8866048
370
    -3
100
AcDbVertex
100
AcDb2dVertex
 10
228.2478213299074
 20
-414.0960118897827
 30
0.0
  0
VERTEX
  5
14E
330
148
100
AcDbEntity
  8
Graypants_Hewn48-8
 62
    36
420
  8866048
370
    -3
100
AcDbVertex
100
AcDb2dVertex
 10
228.1996099671938
 20
-414.0885446303228
 30
0.0
  0
VERTEX
  5
14F
330
148
100
AcDbEntity
  8
Graypants_Hewn48-8
 62
    36
420
  8866048
370
    -3
100
AcDbVertex
100
AcDb2dVertex
 10
228.1516816511544
 20
-414.0794357346615
 30
0.0
  0
VERTEX
  5
150
330
148
100
AcDbEntity
  8
Graypants_Hewn48-8
 62
    36
420
  8866048
370
    -3
100
AcDbVertex
100
AcDb2dVertex
 10
228.1040922640617
 20
-414.0686958233637
 30
0.0
  0
VERTEX
  5
151
330
148
100
AcDbEntity
  8
Graypants_Hewn48-8
 62
    36
420
  8866048
370
    -3
100
AcDbVertex
100
AcDb2dVertex
 10
228.0568972930123
 20
-414.0563374186856
 30
0.0
  0
VERTEX
  5
152
330
148
100
AcDbEntity
  8
Graypants_Hewn48-8
 62
    36
420
  8866048
370
    -3
100
AcDbVertex
100
AcDb2dVertex
 10
228.0101517652312
 20
-414.0423749299742
 30
0.0
  0
VERTEX
  5
153
330
148
100
AcDbEntity
  8
Graypants_Hewn48-8
 62
    36
420
  8866048
370
    -3
100
AcDbVertex
100
AcDb2dVertex
 10
227.9639101839129
 20
-414.0268246368668
 30
0.0
  0
VERTEX
  5
154
330
148
100
AcDbEntity
  8
Graypants_Hewn48-8
 62
    36
420
  8866048
370
    -3
100
AcDbVertex
100
AcDb2dVertex
 10
227.9182264646727
 20
-414.0097046703094
 30
0.0
  0
VERTEX
  5
155
330
148
100
AcDbEntity
  8
Graypants_Hewn48-8
 62
    36
420
  8866048
370
    -3
100
AcDbVertex
100
AcDb2dVertex
 10
227.8731538726837
 20
-413.9910349914174
 30
0.0
  0
VERTEX
  5
156
330
148
100
AcDbEntity
  8
Graypants_Hewn48-8
 62
    36
420
  8866048
370
    -3
100
AcDbVertex
100
AcDb2dVertex
 10
227.8287449605718
 20
-413.9708373682011
 30
0.0
  0
VERTEX
  5
157
330
148
100
AcDbEntity
  8
Graypants_Hewn48-8
 62
    36
420
  8866048
370
    -3
100
AcDbVertex
100
AcDb2dVertex
 10
227.7850515071422
 20
-413.9491353501858
 30
0.0
  0
VERTEX
  5
158
330
148
100
AcDbEntity
  8
Graypants_Hewn48-8
 62
    36
420
  8866048
370
    -3
100
AcDbVertex
100
AcDb2dVertex
 10
227.742124457007
 20
-413.9259542409536
 30
0.0
  0
VERTEX
  5
159
330
148
100
AcDbEntity
  8
Graypants_Hewn48-8
 62
    36
420
  8866048
370
    -3
100
AcDbVertex
100
AcDb2dVertex
 10
227.7000138611865
 20
-413.901321068641
 30
0.0
  0
VERTEX
  5
15A
330
148
100
AcDbEntity
  8
Graypants_Hewn48-8
 62
    36
420
  8866048
370
    -3
100
AcDbVertex
100
AcDb2dVertex
 10
227.6587688187516
 20
-413.875264554425
 30
0.0
  0
VERTEX
  5
15B
330
148
100
AcDbEntity
  8
Graypants_Hewn48-8
 62
    36
420
  8866048
370
    -3
100
AcDbVertex
100
AcDb2dVertex
 10
227.6184374195768
 20
-413.8478150790357
 30
0.0
  0
VERTEX
  5
15C
330
148
100
AcDbEntity
  8
Graypants_Hewn48-8
 62
    36
420
  8866048
370
    -3
100
AcDbVertex
100
AcDb2dVertex
 10
227.5790666882696
 20
-413.8190046473334
 30
0.0
  0
VERTEX
  5
15D
330
148
100
AcDbEntity
  8
Graypants_Hewn48-8
 62
    36
420
  8866048
370
    -3
100
AcDbVertex
100
AcDb2dVertex
 10
227.5407025293414
 20
-413.7888668509927
 30
0.0
  0
VERTEX
  5
15E
330
148
100
AcDbEntity
  8
Graypants_Hewn48-8
 62
    36
420
  8866048
370
    -3
100
AcDbVertex
100
AcDb2dVertex
 10
227.5033896736854
 20
-413.757436829336
 30
0.0
  0
VERTEX
  5
15F
330
148
100
AcDbEntity
  8
Graypants_Hewn48-8
 62
    36
420
  8866048
370
    -3
100
AcDbVertex
100
AcDb2dVertex
 10
227.4671716264222
 20
-413.7247512283627
 30
0.0
  0
VERTEX
  5
160
330
148
100
AcDbEntity
  8
Graypants_Hewn48-8
 62
    36
420
  8866048
370
    -3
100
AcDbVertex
100
AcDb2dVertex
 10
227.4320906161748
 20
-413.6908481580214
 30
0.0
  0
VERTEX
  5
161
330
148
100
AcDbEntity
  8
Graypants_Hewn48-8
 62
    36
420
  8866048
370
    -3
100
AcDbVertex
100
AcDb2dVertex
 10
227.398187545832
 20
-413.6557671477755
 30
0.0
  0
VERTEX
  5
162
330
148
100
AcDbEntity
  8
Graypants_Hewn48-8
 62
    36
420
  8866048
370
    -3
100
AcDbVertex
100
AcDb2dVertex
 10
227.3655019448571
 20
-413.6195491005138
 30
0.0
  0
VERTEX
  5
163
330
148
100
AcDbEntity
  8
Graypants_Hewn48-8
 62
    36
420
  8866048
370
    -3
100
AcDbVertex
100
AcDb2dVertex
 10
227.3340719231988
 20
-413.5822362448591
 30
0.0
  0
VERTEX
  5
164
330
148
100
AcDbEntity
  8
Graypants_Hewn48-8
 62
    36
420
  8866048
370
    -3
100
AcDbVertex
100
AcDb2dVertex
 10
227.3039341268565
 20
-413.5438720859322
 30
0.0
  0
VERTEX
  5
165
330
148
100
AcDbEntity
  8
Graypants_Hewn48-8
 62
    36
420
  8866048
370
    -3
100
AcDbVertex
100
AcDb2dVertex
 10
227.2751236951525
 20
-413.5045013546262
 30
0.0
  0
VERTEX
  5
166
330
148
100
AcDbEntity
  8
Graypants_Hewn48-8
 62
    36
420
  8866048
370
    -3
100
AcDbVertex
100
AcDb2dVertex
 10
227.2476742197614
 20
-413.4641699554527
 30
0.0
  0
VERTEX
  5
167
330
148
100
AcDbEntity
  8
Graypants_Hewn48-8
 62
    36
420
  8866048
370
    -3
100
AcDbVertex
100
AcDb2dVertex
 10
227.2216177055436
 20
-413.4229249130189
 30
0.0
  0
VERTEX
  5
168
330
148
100
AcDbEntity
  8
Graypants_Hewn48-8
 62
    36
420
  8866048
370
    -3
100
AcDbVertex
100
AcDb2dVertex
 10
227.1969845332292
 20
-413.3808143171994
 30
0.0
  0
VERTEX
  5
169
330
148
100
AcDbEntity
  8
Graypants_Hewn48-8
 62
    36
420
  8866048
370
    -3
100
AcDbVertex
100
AcDb2dVertex
 10
227.1738034239951
 20
-413.3378872670652
 30
0.0
  0
VERTEX
  5
16A
330
148
100
AcDbEntity
  8
Graypants_Hewn48-8
 62
    36
420
  8866048
370
    -3
100
AcDbVertex
100
AcDb2dVertex
 10
227.1521014059779
 20
-413.2941938136365
 30
0.0
  0
VERTEX
  5
16B
330
148
100
AcDbEntity
  8
Graypants_Hewn48-8
 62
    36
420
  8866048
370
    -3
100
AcDbVertex
100
AcDb2dVertex
 10
227.1319037827597
 20
-413.2497849015256
 30
0.0
  0
VERTEX
  5
16C
330
148
100
AcDbEntity
  8
Graypants_Hewn48-8
 62
    36
420
  8866048
370
    -3
100
AcDbVertex
100
AcDb2dVertex
 10
227.1132341038658
 20
-413.2047123095373
 30
0.0
  0
VERTEX
  5
16D
330
148
100
AcDbEntity
  8
Graypants_Hewn48-8
 62
    36
420
  8866048
370
    -3
100
AcDbVertex
100
AcDb2dVertex
 10
227.0961141373064
 20
-413.1590285902979
 30
0.0
  0
VERTEX
  5
16E
330
148
100
AcDbEntity
  8
Graypants_Hewn48-8
 62
    36
420
  8866048
370
    -3
100
AcDbVertex
100
AcDb2dVertex
 10
227.080563844197
 20
-413.1127870089803
 30
0.0
  0
VERTEX
  5
16F
330
148
100
AcDbEntity
  8
Graypants_Hewn48-8
 62
    36
420
  8866048
370
    -3
100
AcDbVertex
100
AcDb2dVertex
 10
227.0666013554836
 20
-413.0660414811999
 30
0.0
  0
VERTEX
  5
170
330
148
100
AcDbEntity
  8
Graypants_Hewn48-8
 62
    36
420
  8866048
370
    -3
100
AcDbVertex
100
AcDb2dVertex
 10
227.0542429508034
 20
-413.0188465101509
 30
0.0
  0
VERTEX
  5
171
330
148
100
AcDbEntity
  8
Graypants_Hewn48-8
 62
    36
420
  8866048
370
    -3
100
AcDbVertex
100
AcDb2dVertex
 10
227.0435030395035
 20
-412.9712571230588
 30
0.0
  0
VERTEX
  5
172
330
148
100
AcDbEntity
  8
Graypants_Hewn48-8
 62
    36
420
  8866048
370
    -3
100
AcDbVertex
100
AcDb2dVertex
 10
227.0343941438402
 20
-412.9233288070197
 30
0.0
  0
VERTEX
  5
173
330
148
100
AcDbEntity
  8
Graypants_Hewn48-8
 62
    36
420
  8866048
370
    -3
100
AcDbVertex
100
AcDb2dVertex
 10
227.0269268843782
 20
-412.8751174443065
 30
0.0
  0
VERTEX
  5
174
330
148
100
AcDbEntity
  8
Graypants_Hewn48-8
 62
    36
420
  8866048
370
    -3
100
AcDbVertex
100
AcDb2dVertex
 10
227.021109967608
 20
-412.8266792472112
 30
0.0
  0
VERTEX
  5
175
330
148
100
AcDbEntity
  8
Graypants_Hewn48-8
 62
    36
420
  8866048
370
    -3
100
AcDbVertex
100
AcDb2dVertex
 10
227.0169501757945
 20
-412.7780706925052
 30
0.0
  0
VERTEX
  5
176
330
148
100
AcDbEntity
  8
Graypants_Hewn48-8
 62
    36
420
  8866048
370
    -3
100
AcDbVertex
100
AcDb2dVertex
 10
227.0144523590687
 20
-412.7293484555887
 30
0.0
  0
VERTEX
  5
177
330
148
100
AcDbEntity
  8
Graypants_Hewn48-8
 62
    36
420
  8866048
370
    -3
100
AcDbVertex
100
AcDb2dVertex
 10
227.0136194297734
 20
-412.6805693444105
 30
0.0
  0
VERTEX
  5
178
330
148
100
AcDbEntity
  8
Graypants_Hewn48-8
 62
    36
420
  8866048
370
    -3
100
AcDbVertex
100
AcDb2dVertex
 10
227.0136194291354
 20
-382.3593193443705
 30
0.0
  0
SEQEND
  5
179
330
148
100
AcDbEntity
  8
Graypants_Hewn48-8
 62
    36
420
  8866048
370
    -3
  0
POLYLINE
  5
17A
330
1F
100
AcDbEntity
  8
Graypants_Hewn48-8
 62
    36
420
  8866048
370
    -3
100
AcDb2dPolyline
 66
     1
 10
0.0
 20
0.0
 30
0.0
  0
VERTEX
  5
17B
330
17A
100
AcDbEntity
  8
Graypants_Hewn48-8
 62
    36
420
  8866048
370
    -3
100
AcDbVertex
100
AcDb2dVertex
 10
382.5886194290015
 20
-382.3593193443705
 30
0.0
  0
VERTEX
  5
17C
330
17A
100
AcDbEntity
  8
Graypants_Hewn48-8
 62
    36
420
  8866048
370
    -3
100
AcDbVertex
100
AcDb2dVertex
 10
382.588619428363
 20
-412.6805693444105
 30
0.0
  0
VERTEX
  5
17D
330
17A
100
AcDbEntity
  8
Graypants_Hewn48-8
 62
    36
420
  8866048
370
    -3
100
AcDbVertex
100
AcDb2dVertex
 10
382.5877864990676
 20
-412.7293484555887
 30
0.0
  0
VERTEX
  5
17E
330
17A
100
AcDbEntity
  8
Graypants_Hewn48-8
 62
    36
420
  8866048
370
    -3
100
AcDbVertex
100
AcDb2dVertex
 10
382.5852886823419
 20
-412.7780706925052
 30
0.0
  0
VERTEX
  5
17F
330
17A
100
AcDbEntity
  8
Graypants_Hewn48-8
 62
    36
420
  8866048
370
    -3
100
AcDbVertex
100
AcDb2dVertex
 10
382.5811288905283
 20
-412.8266792472112
 30
0.0
  0
VERTEX
  5
180
330
17A
100
AcDbEntity
  8
Graypants_Hewn48-8
 62
    36
420
  8866048
370
    -3
100
AcDbVertex
100
AcDb2dVertex
 10
382.5753119737582
 20
-412.8751174443065
 30
0.0
  0
VERTEX
  5
181
330
17A
100
AcDbEntity
  8
Graypants_Hewn48-8
 62
    36
420
  8866048
370
    -3
100
AcDbVertex
100
AcDb2dVertex
 10
382.5678447142961
 20
-412.9233288070197
 30
0.0
  0
VERTEX
  5
182
330
17A
100
AcDbEntity
  8
Graypants_Hewn48-8
 62
    36
420
  8866048
370
    -3
100
AcDbVertex
100
AcDb2dVertex
 10
382.5587358186327
 20
-412.9712571230587
 30
0.0
  0
VERTEX
  5
183
330
17A
100
AcDbEntity
  8
Graypants_Hewn48-8
 62
    36
420
  8866048
370
    -3
100
AcDbVertex
100
AcDb2dVertex
 10
382.5479959073329
 20
-413.018846510151
 30
0.0
  0
VERTEX
  5
184
330
17A
100
AcDbEntity
  8
Graypants_Hewn48-8
 62
    36
420
  8866048
370
    -3
100
AcDbVertex
100
AcDb2dVertex
 10
382.5356375026527
 20
-413.0660414811998
 30
0.0
  0
VERTEX
  5
185
330
17A
100
AcDbEntity
  8
Graypants_Hewn48-8
 62
    36
420
  8866048
370
    -3
100
AcDbVertex
100
AcDb2dVertex
 10
382.5216750139392
 20
-413.1127870089803
 30
0.0
  0
VERTEX
  5
186
330
17A
100
AcDbEntity
  8
Graypants_Hewn48-8
 62
    36
420
  8866048
370
    -3
100
AcDbVertex
100
AcDb2dVertex
 10
382.5061247208297
 20
-413.1590285902979
 30
0.0
  0
VERTEX
  5
187
330
17A
100
AcDbEntity
  8
Graypants_Hewn48-8
 62
    36
420
  8866048
370
    -3
100
AcDbVertex
100
AcDb2dVertex
 10
382.4890047542705
 20
-413.2047123095373
 30
0.0
  0
VERTEX
  5
188
330
17A
100
AcDbEntity
  8
Graypants_Hewn48-8
 62
    36
420
  8866048
370
    -3
100
AcDbVertex
100
AcDb2dVertex
 10
382.4703350753765
 20
-413.2497849015256
 30
0.0
  0
VERTEX
  5
189
330
17A
100
AcDbEntity
  8
Graypants_Hewn48-8
 62
    36
420
  8866048
370
    -3
100
AcDbVertex
100
AcDb2dVertex
 10
382.4501374521582
 20
-413.2941938136365
 30
0.0
  0
VERTEX
  5
18A
330
17A
100
AcDbEntity
  8
Graypants_Hewn48-8
 62
    36
420
  8866048
370
    -3
100
AcDbVertex
100
AcDb2dVertex
 10
382.428435434141
 20
-413.3378872670652
 30
0.0
  0
VERTEX
  5
18B
330
17A
100
AcDbEntity
  8
Graypants_Hewn48-8
 62
    36
420
  8866048
370
    -3
100
AcDbVertex
100
AcDb2dVertex
 10
382.4052543249069
 20
-413.3808143171995
 30
0.0
  0
VERTEX
  5
18C
330
17A
100
AcDbEntity
  8
Graypants_Hewn48-8
 62
    36
420
  8866048
370
    -3
100
AcDbVertex
100
AcDb2dVertex
 10
382.3806211525925
 20
-413.4229249130189
 30
0.0
  0
VERTEX
  5
18D
330
17A
100
AcDbEntity
  8
Graypants_Hewn48-8
 62
    36
420
  8866048
370
    -3
100
AcDbVertex
100
AcDb2dVertex
 10
382.3545646383748
 20
-413.4641699554526
 30
0.0
  0
VERTEX
  5
18E
330
17A
100
AcDbEntity
  8
Graypants_Hewn48-8
 62
    36
420
  8866048
370
    -3
100
AcDbVertex
100
AcDb2dVertex
 10
382.3271151629837
 20
-413.5045013546263
 30
0.0
  0
VERTEX
  5
18F
330
17A
100
AcDbEntity
  8
Graypants_Hewn48-8
 62
    36
420
  8866048
370
    -3
100
AcDbVertex
100
AcDb2dVertex
 10
382.2983047312796
 20
-413.5438720859322
 30
0.0
  0
VERTEX
  5
190
330
17A
100
AcDbEntity
  8
Graypants_Hewn48-8
 62
    36
420
  8866048
370
    -3
100
AcDbVertex
100
AcDb2dVertex
 10
382.2681669349372
 20
-413.5822362448591
 30
0.0
  0
VERTEX
  5
191
330
17A
100
AcDbEntity
  8
Graypants_Hewn48-8
 62
    36
420
  8866048
370
    -3
100
AcDbVertex
100
AcDb2dVertex
 10
382.2367369132789
 20
-413.6195491005138
 30
0.0
  0
VERTEX
  5
192
330
17A
100
AcDbEntity
  8
Graypants_Hewn48-8
 62
    36
420
  8866048
370
    -3
100
AcDbVertex
100
AcDb2dVertex
 10
382.2040513123041
 20
-413.6557671477755
 30
0.0
  0
VERTEX
  5
193
330
17A
100
AcDbEntity
  8
Graypants_Hewn48-8
 62
    36
420
  8866048
370
    -3
100
AcDbVertex
100
AcDb2dVertex
 10
382.1701482419612
 20
-413.6908481580214
 30
0.0
  0
VERTEX
  5
194
330
17A
100
AcDbEntity
  8
Graypants_Hewn48-8
 62
    36
420
  8866048
370
    -3
100
AcDbVertex
100
AcDb2dVertex
 10
382.1350672317138
 20
-413.7247512283627
 30
0.0
  0
VERTEX
  5
195
330
17A
100
AcDbEntity
  8
Graypants_Hewn48-8
 62
    36
420
  8866048
370
    -3
100
AcDbVertex
100
AcDb2dVertex
 10
382.0988491844507
 20
-413.757436829336
 30
0.0
  0
VERTEX
  5
196
330
17A
100
AcDbEntity
  8
Graypants_Hewn48-8
 62
    36
420
  8866048
370
    -3
100
AcDbVertex
100
AcDb2dVertex
 10
382.0615363287947
 20
-413.7888668509927
 30
0.0
  0
VERTEX
  5
197
330
17A
100
AcDbEntity
  8
Graypants_Hewn48-8
 62
    36
420
  8866048
370
    -3
100
AcDbVertex
100
AcDb2dVertex
 10
382.0231721698665
 20
-413.8190046473334
 30
0.0
  0
VERTEX
  5
198
330
17A
100
AcDbEntity
  8
Graypants_Hewn48-8
 62
    36
420
  8866048
370
    -3
100
AcDbVertex
100
AcDb2dVertex
 10
381.9838014385592
 20
-413.8478150790356
 30
0.0
  0
VERTEX
  5
199
330
17A
100
AcDbEntity
  8
Graypants_Hewn48-8
 62
    36
420
  8866048
370
    -3
100
AcDbVertex
100
AcDb2dVertex
 10
381.9434700393845
 20
-413.875264554425
 30
0.0
  0
VERTEX
  5
19A
330
17A
100
AcDbEntity
  8
Graypants_Hewn48-8
 62
    36
420
  8866048
370
    -3
100
AcDbVertex
100
AcDb2dVertex
 10
381.9022249969495
 20
-413.901321068641
 30
0.0
  0
VERTEX
  5
19B
330
17A
100
AcDbEntity
  8
Graypants_Hewn48-8
 62
    36
420
  8866048
370
    -3
100
AcDbVertex
100
AcDb2dVertex
 10
381.860114401129
 20
-413.9259542409536
 30
0.0
  0
VERTEX
  5
19C
330
17A
100
AcDbEntity
  8
Graypants_Hewn48-8
 62
    36
420
  8866048
370
    -3
100
AcDbVertex
100
AcDb2dVertex
 10
381.8171873509938
 20
-413.9491353501858
 30
0.0
  0
VERTEX
  5
19D
330
17A
100
AcDbEntity
  8
Graypants_Hewn48-8
 62
    36
420
  8866048
370
    -3
100
AcDbVertex
100
AcDb2dVertex
 10
381.7734938975642
 20
-413.9708373682011
 30
0.0
  0
VERTEX
  5
19E
330
17A
100
AcDbEntity
  8
Graypants_Hewn48-8
 62
    36
420
  8866048
370
    -3
100
AcDbVertex
100
AcDb2dVertex
 10
381.7290849854523
 20
-413.9910349914174
 30
0.0
  0
VERTEX
  5
19F
330
17A
100
AcDbEntity
  8
Graypants_Hewn48-8
 62
    36
420
  8866048
370
    -3
100
AcDbVertex
100
AcDb2dVertex
 10
381.6840123934633
 20
-414.0097046703094
 30
0.0
  0
VERTEX
  5
1A0
330
17A
100
AcDbEntity
  8
Graypants_Hewn48-8
 62
    36
420
  8866048
370
    -3
100
AcDbVertex
100
AcDb2dVertex
 10
381.638328674223
 20
-414.0268246368668
 30
0.0
  0
VERTEX
  5
1A1
330
17A
100
AcDbEntity
  8
Graypants_Hewn48-8
 62
    36
420
  8866048
370
    -3
100
AcDbVertex
100
AcDb2dVertex
 10
381.5920870929048
 20
-414.0423749299742
 30
0.0
  0
VERTEX
  5
1A2
330
17A
100
AcDbEntity
  8
Graypants_Hewn48-8
 62
    36
420
  8866048
370
    -3
100
AcDbVertex
100
AcDb2dVertex
 10
381.5453415651237
 20
-414.0563374186856
 30
0.0
  0
VERTEX
  5
1A3
330
17A
100
AcDbEntity
  8
Graypants_Hewn48-8
 62
    36
420
  8866048
370
    -3
100
AcDbVertex
100
AcDb2dVertex
 10
381.4981465940743
 20
-414.0686958233637
 30
0.0
  0
VERTEX
  5
1A4
330
17A
100
AcDbEntity
  8
Graypants_Hewn48-8
 62
    36
420
  8866048
370
    -3
100
AcDbVertex
100
AcDb2dVertex
 10
381.4505572069816
 20
-414.0794357346615
 30
0.0
  0
VERTEX
  5
1A5
330
17A
100
AcDbEntity
  8
Graypants_Hewn48-8
 62
    36
420
  8866048
370
    -3
100
AcDbVertex
100
AcDb2dVertex
 10
381.4026288909421
 20
-414.0885446303228
 30
0.0
  0
VERTEX
  5
1A6
330
17A
100
AcDbEntity
  8
Graypants_Hewn48-8
 62
    36
420
  8866048
370
    -3
100
AcDbVertex
100
AcDb2dVertex
 10
381.3544175282286
 20
-414.0960118897827
 30
0.0
  0
VERTEX
  5
1A7
330
17A
100
AcDbEntity
  8
Graypants_Hewn48-8
 62
    36
420
  8866048
370
    -3
100
AcDbVertex
100
AcDb2dVertex
 10
381.3059793311331
 20
-414.1018288065508
 30
0.0
  0
VERTEX
  5
1A8
330
17A
100
AcDbEntity
  8
Graypants_Hewn48-8
 62
    36
420
  8866048
370
    -3
100
AcDbVertex
100
AcDb2dVertex
 10
381.2573707764269
 20
-414.1059885983622
 30
0.0
  0
VERTEX
  5
1A9
330
17A
100
AcDbEntity
  8
Graypants_Hewn48-8
 62
    36
420
  8866048
370
    -3
100
AcDbVertex
100
AcDb2dVertex
 10
381.2086485395102
 20
-414.1084864150858
 30
0.0
  0
VERTEX
  5
1AA
330
17A
100
AcDbEntity
  8
Graypants_Hewn48-8
 62
    36
420
  8866048
370
    -3
100
AcDbVertex
100
AcDb2dVertex
 10
381.1598694283321
 20
-414.1093193443791
 30
0.0
  0
SEQEND
  5
1AB
330
17A
100
AcDbEntity
  8
Graypants_Hewn48-8
 62
    36
420
  8866048
370
    -3
  0
LINE
  5
1AC
330
1F
100
AcDbEntity
  8
Graypants_Hewn48-8
 62
    36
420
  8866048
370
    -3
100
AcDbLine
 10
382.5886194290006
 20
-382.3593193443697
 30
0.0
 11
304.8011194290684
 21
-382.3593193423997
 31
0.0
  0
LINE
  5
1AD
330
1F
100
AcDbEntity
  8
Graypants_Hewn48-8
 62
    36
420
  8866048
370
    -3
100
AcDbLine
 10
305.5948694290682
 20
-414.1093193443782
 30
0.0
 11
305.5948694401795
 21
-1073.41564000621
 31
0.0
  0
LINE
  5
1AE
330
1F
100
AcDbEntity
  8
Graypants_Hewn48-8
 62
    36
420
  8866048
370
    -3
100
AcDbLine
 10
304.0073694401799
 20
-1073.41564000621
 30
0.0
 11
304.0073694290681
 21
-414.1093193443782
 31
0.0
  0
LINE
  5
1AF
330
1F
100
AcDbEntity
  8
Graypants_Hewn48-8
 62
    36
420
  8866048
370
    -3
100
AcDbLine
 10
-304.0073754074499
 20
-415.2523193443702
 30
0.0
 11
-304.0073754074499
 21
-1073.41564000621
 31
0.0
  0
LINE
  5
1B0
330
1F
100
AcDbEntity
  8
Graypants_Hewn48-8
 62
    36
420
  8866048
370
    -3
100
AcDbLine
 10
-305.59487540745
 20
-1073.41564000621
 30
0.0
 11
-305.59487540745
 21
-415.2523193443702
 31
0.0
  0
LINE
  5
1B1
330
1F
100
AcDbEntity
  8
Graypants_Hewn48-8
 62
    36
420
  8866048
370
    -3
100
AcDbLine
 10
364.829527239317
 20
-1096.854683593601
 30
0.0
 11
364.829527239317
 21
-1066.617963459038
 31
0.0
  0
LINE
  5
1B2
330
1F
100
AcDbEntity
  8
Graypants_Hewn48-8
 62
    36
420
  8866048
370
    -3
100
AcDbLine
 10
303.7851194401821
 20
-1089.92564000621
 30
0.0
 11
299.8481194401793
 21
-1089.92564000621
 31
0.0
  0
LINE
  5
1B3
330
1F
100
AcDbEntity
  8
Graypants_Hewn48-8
 62
    36
420
  8866048
370
    -3
100
AcDbLine
 10
309.7541194401797
 20
-1073.41564000621
 30
0.0
 11
299.8481194401793
 21
-1073.41564000621
 31
0.0
  0
LINE
  5
1B4
330
1F
100
AcDbEntity
  8
Graypants_Hewn48-8
 62
    36
420
  8866048
370
    -3
100
AcDbLine
 10
303.7851194401832
 20
-1096.854721463895
 30
0.0
 11
303.7851194401833
 21
-1084.254073274684
 31
0.0
  0
LINE
  5
1B5
330
1F
100
AcDbEntity
  8
Graypants_Hewn48-8
 62
    36
420
  8866048
370
    -3
100
AcDbLine
 10
305.8171194401835
 20
-1084.254073274684
 30
0.0
 11
305.8171194401834
 21
-1096.854890006209
 31
0.0
  0
LINE
  5
1B6
330
1F
100
AcDbEntity
  8
Graypants_Hewn48-8
 62
    36
420
  8866048
370
    -3
100
AcDbLine
 10
-296.8001254074488
 20
-384.3913193443699
 30
0.0
 11
-312.8021254074488
 21
-384.3913193443699
 31
0.0
  0
LINE
  5
1B7
330
1F
100
AcDbEntity
  8
Graypants_Hewn48-8
 62
    36
420
  8866048
370
    -3
100
AcDbLine
 10
-304.8011254074502
 20
-415.2523193443702
 30
0.0
 11
-306.7569254074499
 21
-415.2523193443702
 31
0.0
  0
LINE
  5
1B8
330
1F
100
AcDbEntity
  8
Graypants_Hewn48-8
 62
    36
420
  8866048
370
    -3
100
AcDbLine
 10
-302.8453254074493
 20
-415.2523193443702
 30
0.0
 11
-304.8011254074499
 21
-415.2523193443702
 31
0.0
  0
LINE
  5
1B9
330
1F
100
AcDbEntity
  8
Graypants_Hewn48-8
 62
    36
420
  8866048
370
    -3
100
AcDbLine
 10
-304.8011254074499
 20
-407.8863193443702
 30
0.0
 11
-311.27812540745
 21
-407.8863193443702
 31
0.0
  0
LINE
  5
1BA
330
1F
100
AcDbEntity
  8
Graypants_Hewn48-8
 62
    36
420
  8866048
370
    -3
100
AcDbLine
 10
-304.8011254074499
 20
-409.9183193443699
 30
0.0
 11
-311.1979428192712
 21
-409.9183193443699
 31
0.0
  0
LINE
  5
1BB
330
1F
100
AcDbEntity
  8
Graypants_Hewn48-8
 62
    36
420
  8866048
370
    -3
100
AcDbLine
 10
-298.4043079956284
 20
-409.9183193443699
 30
0.0
 11
-304.8011254074499
 21
-409.9183193443699
 31
0.0
  0
LINE
  5
1BC
330
1F
100
AcDbEntity
  8
Graypants_Hewn48-8
 62
    36
420
  8866048
370
    -3
100
AcDbLine
 10
-298.3241254074501
 20
-407.8863193443702
 30
0.0
 11
-304.8011254074499
 21
-407.8863193443702
 31
0.0
  0
LINE
  5
1BD
330
1F
100
AcDbEntity
  8
Graypants_Hewn48-8
 62
    36
420
  8866048
370
    -3
100
AcDbLine
 10
304.8011194290684
 20
-414.1093193424443
 30
0.0
 11
228.4423694298039
 21
-414.1093193443791
 31
0.0
  0
LINE
  5
1BE
330
1F
100
AcDbEntity
  8
Graypants_Hewn48-8
 62
    36
420
  8866048
370
    -3
100
AcDbLine
 10
381.1598694283321
 20
-414.1093193443791
 30
0.0
 11
304.8011194290684
 21
-414.1093193424443
 31
0.0
  0
ARC
  5
1BF
330
1F
100
AcDbEntity
  8
Graypants_Hewn48-8
 62
    36
420
  8866048
370
    -3
100
AcDbCircle
 10
-304.8011254073937
 20
20.06449603485562
 30
0.0
 40
1.016000000053737
100
AcDbArc
 50
180.0000000002871
 51
190.484122980815
  0
ARC
  5
1C0
330
1F
100
AcDbEntity
  8
Graypants_Hewn48-8
 62
    36
420
  8866048
370
    -3
100
AcDbCircle
 10
304.8011254073515
 20
-20.06750396515528
 30
0.0
 40
1.016000000094891
210
0.0
220
0.0
230
-1.0
100
AcDbArc
 50
0.0000000003241661
 51
6.929365030156021
  0
ARC
  5
1C1
330
1F
100
AcDbEntity
  8
Graypants_Hewn48-8
 62
    36
420
  8866048
370
    -3
100
AcDbCircle
 10
-304.8011254074711
 20
20.06449603485065
 30
0.0
 40
1.01600000002378
100
AcDbArc
 50
353.1098221338495
 51
359.9999999999932
  0
LINE
  5
1C2
330
1F
100
AcDbEntity
  8
Graypants_Hewn48-8
 62
    36
420
  8866048
370
    -3
100
AcDbLine
 10
-303.8963584525727
 20
20.52549403503511
 30
0.0
 11
-303.8834561289071
 21
20.50054609809956
 31
0.0
  0
ARC
  5
1C3
330
1F
100
AcDbEntity
  8
Graypants_Hewn48-8
 62
    36
420
  8866048
370
    -3
100
AcDbCircle
 10
304.8011254074634
 20
-20.06750396515023
 30
0.0
 40
1.016000000016732
210
0.0
220
0.0
230
-1.0
100
AcDbArc
 50
169.5079240802264
 51
179.9999999999605
  0
CIRCLE
  5
1C5
330
1F
100
AcDbEntity
  8
Graypants_Hewn48-8
  6
Hidden
 62
    36
420
  8866048
370
    -3
100
AcDbCircle
 10
-304.8011194290679
 20
-0.0015039651495912
 30
0.0
 40
77.7874999999325
210
0.0
220
0.0
230
-1.0
  0
LINE
  5
1C6
330
1F
100
AcDbEntity
  8
Graypants_Hewn48-8
 62
    36
420
  8866048
370
    -3
100
AcDbLine
 10
-305.8171254074467
 20
7.934725933234729
 30
0.0
 11
-305.8171254074473
 21
20.06449603485053
 31
0.0
  0
LINE
  5
1C7
330
1F
100
AcDbEntity
  8
Graypants_Hewn48-8
 62
    36
420
  8866048
370
    -3
100
AcDbLine
 10
-303.7851254074473
 20
20.06449607383601
 30
0.0
 11
-303.7851254074463
 21
7.934725933232908
 31
0.0
  0
ARC
  5
1C8
330
1F
100
AcDbEntity
  8
Graypants_Hewn48-8
 62
    36
420
  8866048
370
    -3
100
AcDbCircle
 10
-304.8011254074474
 20
20.06449603485095
 30
0.0
 40
1.016000000000076
100
AcDbArc
 50
359.9999999999761
 51
180.0000000000239
  0
ARC
  5
1C9
330
1F
100
AcDbEntity
  8
Graypants_Hewn48-8
 62
    36
420
  8866048
370
    -3
100
AcDbCircle
 10
304.8003548114864
 20
-20.06524014810076
 30
0.0
 40
1.017669326740342
210
0.0
220
0.0
230
-1.0
100
AcDbArc
 50
243.0965429495071
 51
334.4877771502053
  0
LINE
  5
1CA
330
1F
100
AcDbEntity
  8
Graypants_Hewn48-8
 62
    36
420
  8866048
370
    -3
100
AcDbLine
 10
-305.8171254074464
 20
-20.06750402904768
 30
0.0
 11
-305.8171254074465
 21
-7.937733863532367
 31
0.0
  0
LINE
  5
1CB
330
1F
100
AcDbEntity
  8
Graypants_Hewn48-8
 62
    36
420
  8866048
370
    -3
100
AcDbLine
 10
-303.7851254074463
 20
-7.937733863533049
 30
0.0
 11
-303.7851254074467
 21
-20.06750396514953
 31
0.0
  0
ARC
  5
1CC
330
1F
100
AcDbEntity
  8
Graypants_Hewn48-8
 62
    36
420
  8866048
370
    -3
100
AcDbCircle
 10
304.8011254074465
 20
-20.06750396514974
 30
0.0
 40
1.015999999999849
210
0.0
220
0.0
230
-1.0
100
AcDbArc
 50
179.9999999999884
 51
0.0000000000116203
  0
LINE
  5
1CD
330
1F
100
AcDbEntity
  8
Graypants_Hewn48-8
 62
    36
420
  8866048
370
    -3
100
AcDbLine
 10
-303.7851254074463
 20
-1084.254073274683
 30
0.0
 11
-303.7851254074462
 21
-1096.854664125514
 31
0.0
  0
LINE
  5
1CE
330
1F
100
AcDbEntity
  8
Graypants_Hewn48-8
 62
    36
420
  8866048
370
    -3
100
AcDbLine
 10
-305.8171254074463
 20
-1096.854890006209
 30
0.0
 11
-305.8171254074462
 21
-1084.254073274684
 31
0.0
  0
LINE
  5
1CF
330
1F
100
AcDbEntity
  8
Graypants_Hewn48-8
 62
    36
420
  8866048
370
    -3
100
AcDbLine
 10
-299.84812540745
 20
-1073.41564000621
 30
0.0
 11
-309.7541254074501
 21
-1073.41564000621
 31
0.0
  0
ARC
  5
1D0
330
1F
100
AcDbEntity
  8
Graypants_Hewn48-8
 62
    36
420
  8866048
370
    -3
100
AcDbCircle
 10
-304.8000778562717
 20
-1084.2499767827
 30
0.0
 40
1.017055801122006
100
AcDbArc
 50
27.38698975062355
 51
180.2307762620551
  0
LINE
  5
1D1
330
1F
100
AcDbEntity
  8
Graypants_Hewn48-8
 62
    36
420
  8866048
370
    -3
100
AcDbLine
 10
-305.8169044994422
 20
-1089.92564000621
 30
0.0
 11
-309.7541254074501
 21
-1089.92564000621
 31
0.0
  0
LINE
  5
1D2
330
1F
100
AcDbEntity
  8
Graypants_Hewn48-8
 62
    36
420
  8866048
370
    -3
100
AcDbLine
 10
-309.7541254074501
 20
-1089.92564000621
 30
0.0
 11
-309.7541254074501
 21
-1073.41564000621
 31
0.0
  0
ARC
  5
1D3
330
1F
100
AcDbEntity
  8
Graypants_Hewn48-8
 62
    36
420
  8866048
370
    -3
100
AcDbCircle
 10
-304.8231220367837
 20
-1084.250929768874
 30
0.0
 40
1.038001389278603
100
AcDbArc
 50
359.8264839595458
 51
26.84857302320207
  0
LINE
  5
1D4
330
1F
100
AcDbEntity
  8
Graypants_Hewn48-8
 62
    36
420
  8866048
370
    -3
100
AcDbLine
 10
-299.84812540745
 20
-1073.41564000621
 30
0.0
 11
-299.84812540745
 21
-1089.92564000621
 31
0.0
  0
LINE
  5
1D5
330
1F
100
AcDbEntity
  8
Graypants_Hewn48-8
 62
    36
420
  8866048
370
    -3
100
AcDbLine
 10
-299.84812540745
 20
-1089.92564000621
 30
0.0
 11
-303.7851254074475
 21
-1089.92564000621
 31
0.0
  0
CIRCLE
  5
1D6
330
1F
100
AcDbEntity
  8
Graypants_Hewn48-8
 62
    36
420
  8866048
370
    -3
100
AcDbCircle
 10
304.8011254074488
 20
-0.0015039651495108
 30
0.0
 40
8.000999999999976
210
0.0
220
0.0
230
-1.0
  0
CIRCLE
  5
1D7
330
1F
100
AcDbEntity
  8
Graypants_Hewn48-8
  6
Continuous
 62
    36
420
  8866048
370
    -3
100
AcDbCircle
 10
-304.8011194401795
 20
-0.0015039536694078
 30
0.0
 40
4.953000000000202
210
0.0
220
0.0
230
-1.0
  0
LINE
  5
1D8
330
1F
100
AcDbEntity
  8
Graypants_Hewn48-8
  6
Continuous
 62
    36
420
  8866048
370
    -3
100
AcDbLine
 10
303.7851194401833
 20
4.846171056065354
 30
0.0
 11
303.7851194401824
 21
20.06449604632926
 31
0.0
  0
LINE
  5
1D9
330
1F
100
AcDbEntity
  8
Graypants_Hewn48-8
  6
Continuous
 62
    36
420
  8866048
370
    -3
100
AcDbLine
 10
305.8171194401825
 20
20.06449608531475
 30
0.0
 11
305.817119440183
 21
4.846171056063307
 31
0.0
  0
ARC
  5
1DA
330
1F
100
AcDbEntity
  8
Graypants_Hewn48-8
  6
Continuous
 62
    36
420
  8866048
370
    -3
100
AcDbCircle
 10
304.8011194401824
 20
20.06449604632968
 30
0.0
 40
1.01600000000002
100
AcDbArc
 50
359.9999999999761
 51
180.0000000000239
  0
LINE
  5
1DB
330
1F
100
AcDbEntity
  8
Graypants_Hewn48-8
  6
Continuous
 62
    36
420
  8866048
370
    -3
100
AcDbLine
 10
303.7851194401833
 20
-20.06750401756894
 30
0.0
 11
303.7851194401833
 21
-4.849178963403936
 31
0.0
  0
LINE
  5
1DC
330
1F
100
AcDbEntity
  8
Graypants_Hewn48-8
  6
Continuous
 62
    36
420
  8866048
370
    -3
100
AcDbLine
 10
305.8171194401835
 20
-4.849178963402344
 30
0.0
 11
305.817119440183
 21
-20.0675039536708
 31
0.0
  0
ARC
  5
1DD
330
1F
100
AcDbEntity
  8
Graypants_Hewn48-8
  6
Continuous
 62
    36
420
  8866048
370
    -3
100
AcDbCircle
 10
-304.8011194401831
 20
-20.06750395367106
 30
0.0
 40
1.015999999999849
210
0.0
220
0.0
230
-1.0
100
AcDbArc
 50
179.9999999999852
 51
0.0000000000148259
  0
LINE
  5
1DE
330
1F
100
AcDbEntity
  8
Graypants_Hewn48-8
  6
Continuous
 62
    36
420
  8866048
370
    -3
100
AcDbLine
 10
305.7058863950571
 20
20.52549404651417
 30
0.0
 11
305.7187887187229
 21
20.50054610957835
 31
0.0
  0
ARC
  5
1DF
330
1F
100
AcDbEntity
  8
Graypants_Hewn48-8
  6
Continuous
 62
    36
420
  8866048
370
    -3
100
AcDbCircle
 10
-304.8018900361431
 20
-20.06524013662204
 30
0.0
 40
1.017669326740241
210
0.0
220
0.0
230
-1.0
100
AcDbArc
 50
243.0965429495078
 51
334.4877771502055
  0
ARC
  5
1E0
330
1F
100
AcDbEntity
  8
Graypants_Hewn48-8
370
    -3
100
AcDbCircle
 10
304.80111944018
 20
-0.0015039536698819
 30
0.0
 40
0.7937500000000933
100
AcDbArc
 50
27.00000000000627
 51
187.1150388083889
  0
ARC
  5
1E1
330
1F
100
AcDbEntity
  8
Graypants_Hewn48-8
370
    -3
100
AcDbCircle
 10
304.8011194401794
 20
-0.0015039536693951
 30
0.0
 40
0.7937500000001586
100
AcDbArc
 50
206.8477549446951
 51
359.9999999999856
  0
CIRCLE
  5
1E2
330
1F
100
AcDbEntity
  8
Graypants_Hewn48-8
370
    -3
100
AcDbCircle
 10
304.8008389065201
 20
0.0007179871326263
 30
0.0
 40
0.7937500000000455
  0
CIRCLE
  5
1E3
330
1F
100
AcDbEntity
  8
Graypants_Hewn48-8
370
    -3
100
AcDbCircle
 10
304.8011194401793
 20
-0.0015039536696122
 30
0.0
 40
4.445000000000164
  0
CIRCLE
  5
1E4
330
1F
100
AcDbEntity
  8
Graypants_Hewn48-8
370
    -3
100
AcDbCircle
 10
-304.8011194401797
 20
-0.0015039536695554
 30
0.0
 40
1.984375
210
0.0
220
0.0
230
-1.0
  0
ARC
  5
1E5
330
1F
100
AcDbEntity
  8
Graypants_Hewn48-8
370
    -3
100
AcDbCircle
 10
-304.8011254074484
 20
-0.0015039651498359
 30
0.0
 40
0.7937499999999358
100
AcDbArc
 50
27.00000000000204
 51
187.1150388083993
  0
ARC
  5
1E6
330
1F
100
AcDbEntity
  8
Graypants_Hewn48-8
370
    -3
100
AcDbCircle
 10
-304.8011254074488
 20
-0.0015039651493774
 30
0.0
 40
0.7937500000002017
100
AcDbArc
 50
206.8477549447012
 51
359.9999999999787
  0
CIRCLE
  5
1E7
330
1F
100
AcDbEntity
  8
Graypants_Hewn48-8
370
    -3
100
AcDbCircle
 10
-304.8014059411082
 20
0.0007179756525522
 30
0.0
 40
0.7937500000000455
  0
CIRCLE
  5
1E8
330
1F
100
AcDbEntity
  8
Graypants_Hewn48-8
370
    -3
100
AcDbCircle
 10
-304.8011254074489
 20
-0.0015039651494817
 30
0.0
 40
4.444999999999993
  0
CIRCLE
  5
1E9
330
1F
100
AcDbEntity
  8
Graypants_Hewn48-8
370
    -3
100
AcDbCircle
 10
304.8011254074487
 20
-0.0015039651497659
 30
0.0
 40
1.984374999999886
210
0.0
220
0.0
230
-1.0
  0
LINE
  5
1EA
330
1F
100
AcDbEntity
  8
Graypants_Hewn48-8
 62
    36
420
  8866048
370
    -3
100
AcDbLine
 10
552.4499807260127
 20
-38.8862377849954
 30
0.0
 11
-552.4500212343521
 21
-38.8902602617526
 31
0.0
  0
LINE
  5
1EB
330
1F
100
AcDbEntity
  8
Graypants_Hewn48-8
 62
    36
420
  8866048
370
    -3
100
AcDbLine
 10
552.4499831449375
 20
-41.27298782442166
 30
0.0
 11
-552.4500168344896
 21
-41.27701217187031
 31
0.0
  0
LINE
  5
1EC
330
1F
100
AcDbEntity
  8
Graypants_Hewn48-8
 62
    36
420
  8866048
370
    -3
100
AcDbLine
 10
552.4499518583552
 20
-23.57070926193401
 30
0.0
 11
-552.4504129134141
 21
-23.57473641672586
 31
0.0
  0
LINE
  5
1ED
330
1F
100
AcDbEntity
  8
Graypants_Hewn48-8
 62
    36
420
  8866048
370
    -3
100
AcDbLine
 10
-552.4503166595525
 20
23.5707064583522
 30
0.0
 11
552.4500481288323
 21
23.57473361314542
 31
0.0
  0
LINE
  5
1EE
330
1F
100
AcDbEntity
  8
Graypants_Hewn48-8
 62
    36
420
  8866048
370
    -3
100
AcDbLine
 10
-552.4499761005729
 20
38.88624153017837
 30
0.0
 11
552.4500258597946
 21
38.8902640069383
 31
0.0
  0
LINE
  5
1EF
330
1F
100
AcDbEntity
  8
Graypants_Hewn48-8
 62
    36
420
  8866048
370
    -3
100
AcDbLine
 10
-552.4499831411397
 20
41.27298782818899
 30
0.0
 11
552.4500168382838
 21
41.27701217563764
 31
0.0
  0
LINE
  5
1F0
330
1F
100
AcDbEntity
  8
Graypants_Hewn48-8
 62
    36
420
  8866048
370
    -3
100
AcDbLine
 10
-552.4499999829663
 20
50.79798782815816
 30
0.0
 11
552.4500000018998
 21
50.80201217560817
 31
0.0
  0
LINE
  5
1F1
330
1F
100
AcDbEntity
  8
Graypants_Hewn48-8
 62
    36
420
  8866048
370
    -3
100
AcDbLine
 10
552.4457898455285
 20
-50.79798783972537
 30
0.0
 11
-552.4499999981342
 21
-50.80201217184175
 31
0.0
  0
LINE
  5
1F2
330
1F
100
AcDbEntity
  8
Graypants_Hewn48-8
100
AcDbLine
 10
-565.0154614518653
 20
12.87349592893325
 30
0.0
 11
-565.0154614518653
 21
-13.12650407075935
 31
0.0
  0
LINE
  5
1F3
330
1F
100
AcDbEntity
  8
Graypants_Hewn48-8
100
AcDbLine
 10
565.0154229676109
 20
12.87349592893325
 30
0.0
 11
565.0154229676109
 21
-13.12650407076207
 31
0.0
  0
LINE
  5
1F4
330
1F
100
AcDbEntity
  8
Graypants_Hewn48-8
 62
    36
420
  8866048
370
    -3
100
AcDbLine
 10
603.2500000018999
 20
-1096.854890006209
 30
0.0
 11
603.2500000018999
 21
-1298.454890006193
 31
0.0
  0
LINE
  5
1F5
330
1F
100
AcDbEntity
  8
Graypants_Hewn48-8
 62
    36
420
  8866048
370
    -3
100
AcDbLine
 10
-603.2499999981003
 20
-1298.454890006193
 30
0.0
 11
-603.2499999981003
 21
-1096.854890006209
 31
0.0
  0
LINE
  5
1F6
330
1F
100
AcDbEntity
  8
Graypants_Hewn48-8
 62
    36
420
  8866048
370
    -3
100
AcDbLine
 10
934.8113315199089
 20
-1096.854890006209
 30
0.0
 11
934.8073071724575
 21
-1096.854890006208
 31
0.0
  0
LINE
  5
1F7
330
1F
100
AcDbEntity
  8
Graypants_Hewn48-8
 62
    36
420
  8866048
370
    -3
100
AcDbLine
 10
1036.411331519907
 20
-1096.854890006208
 30
0.0
 11
1036.411331519907
 21
-1298.454890006193
 31
0.0
  0
LINE
  5
1F8
330
1F
100
AcDbEntity
  8
Graypants_Hewn48-8
 62
    36
420
  8866048
370
    -3
100
AcDbLine
 10
934.8073071724575
 20
-1096.854890006208
 30
0.0
 11
934.8073071724575
 21
-1298.454890006193
 31
0.0
  0
LINE
  5
1F9
330
1F
100
AcDbEntity
  8
Graypants_Hewn48-8
 62
    36
420
  8866048
370
    -3
100
AcDbLine
 10
985.6078153905928
 20
-1089.92564000621
 30
0.0
 11
980.6548153906297
 21
-1089.92564000621
 31
0.0
  0
LINE
  5
1FA
330
1F
100
AcDbEntity
  8
Graypants_Hewn48-8
 62
    36
420
  8866048
370
    -3
100
AcDbLine
 10
990.5608153906296
 20
-1073.41564000621
 30
0.0
 11
990.5608153906296
 21
-1083.233776433317
 31
0.0
  0
LINE
  5
1FB
330
1F
100
AcDbEntity
  8
Graypants_Hewn48-8
 62
    36
420
  8866048
370
    -3
100
AcDbLine
 10
990.5608153906296
 20
-1085.330860638627
 30
0.0
 11
990.5608153906296
 21
-1089.92564000621
 31
0.0
  0
LINE
  5
1FC
330
1F
100
AcDbEntity
  8
Graypants_Hewn48-8
 62
    36
420
  8866048
370
    -3
100
AcDbLine
 10
980.6548153906297
 20
-1089.92564000621
 30
0.0
 11
980.6548153906297
 21
-1085.330871379714
 31
0.0
  0
LINE
  5
1FD
330
1F
100
AcDbEntity
  8
Graypants_Hewn48-8
 62
    36
420
  8866048
370
    -3
100
AcDbLine
 10
980.6548153906297
 20
-1083.233785714771
 30
0.0
 11
980.6548153906297
 21
-1073.41564000621
 31
0.0
  0
LINE
  5
1FE
330
1F
100
AcDbEntity
  8
Graypants_Hewn48-8
 62
    36
420
  8866048
370
    -3
100
AcDbLine
 10
990.5608153906296
 20
-1089.92564000621
 30
0.0
 11
985.6078153905928
 21
-1089.92564000621
 31
0.0
  0
ARC
  5
1FF
330
1F
100
AcDbEntity
  8
Graypants_Hewn48-8
 62
    36
420
  8866048
370
    -3
100
AcDbCircle
 10
-985.6078211780085
 20
-1103.725632454786
 30
0.0
 40
21.08194286290684
210
0.0
220
0.0
230
-1.0
100
AcDbArc
 50
103.5880931547703
 51
160.9794952621946
  0
ARC
  5
200
330
1F
100
AcDbEntity
  8
Graypants_Hewn48-8
 62
    36
420
  8866048
370
    -3
100
AcDbCircle
 10
985.6029553005515
 20
-1103.712913256952
 30
0.0
 40
19.03637444853146
100
AcDbArc
 50
105.0659556988181
 51
117.0037955060234
  0
ARC
  5
201
330
1F
100
AcDbEntity
  8
Graypants_Hewn48-8
 62
    36
420
  8866048
370
    -3
100
AcDbCircle
 10
985.6078341179694
 20
-1103.725806015364
 30
0.0
 40
19.05007687695669
100
AcDbArc
 50
116.999262873574
 51
158.857933919776
  0
POLYLINE
  5
202
330
1F
100
AcDbEntity
  8
Graypants_Hewn48-8
 62
    36
420
  8866048
370
    -3
100
AcDb2dPolyline
 66
     1
 10
0.0
 20
0.0
 30
0.0
  0
VERTEX
  5
203
330
202
100
AcDbEntity
  8
Graypants_Hewn48-8
 62
    36
420
  8866048
370
    -3
100
AcDbVertex
100
AcDb2dVertex
 10
909.249065379081
 20
-414.1093193424442
 30
0.0
  0
VERTEX
  5
204
330
202
100
AcDbEntity
  8
Graypants_Hewn48-8
 62
    36
420
  8866048
370
    -3
100
AcDbVertex
100
AcDb2dVertex
 10
909.2002862679028
 20
-414.1084864131497
 30
0.0
  0
VERTEX
  5
205
330
202
100
AcDbEntity
  8
Graypants_Hewn48-8
 62
    36
420
  8866048
370
    -3
100
AcDbVertex
100
AcDb2dVertex
 10
909.1515640309863
 20
-414.1059885964249
 30
0.0
  0
VERTEX
  5
206
330
202
100
AcDbEntity
  8
Graypants_Hewn48-8
 62
    36
420
  8866048
370
    -3
100
AcDbVertex
100
AcDb2dVertex
 10
909.1029554762802
 20
-414.1018288046122
 30
0.0
  0
VERTEX
  5
207
330
202
100
AcDbEntity
  8
Graypants_Hewn48-8
 62
    36
420
  8866048
370
    -3
100
AcDbVertex
100
AcDb2dVertex
 10
909.0545172791848
 20
-414.0960118878429
 30
0.0
  0
VERTEX
  5
208
330
202
100
AcDbEntity
  8
Graypants_Hewn48-8
 62
    36
420
  8866048
370
    -3
100
AcDbVertex
100
AcDb2dVertex
 10
909.0063059164714
 20
-414.0885446283818
 30
0.0
  0
VERTEX
  5
209
330
202
100
AcDbEntity
  8
Graypants_Hewn48-8
 62
    36
420
  8866048
370
    -3
100
AcDbVertex
100
AcDb2dVertex
 10
908.9583776004322
 20
-414.0794357327193
 30
0.0
  0
VERTEX
  5
20A
330
202
100
AcDbEntity
  8
Graypants_Hewn48-8
 62
    36
420
  8866048
370
    -3
100
AcDbVertex
100
AcDb2dVertex
 10
908.9107882133397
 20
-414.0686958214203
 30
0.0
  0
VERTEX
  5
20B
330
202
100
AcDbEntity
  8
Graypants_Hewn48-8
 62
    36
420
  8866048
370
    -3
100
AcDbVertex
100
AcDb2dVertex
 10
908.8635932422907
 20
-414.056337416741
 30
0.0
  0
VERTEX
  5
20C
330
202
100
AcDbEntity
  8
Graypants_Hewn48-8
 62
    36
420
  8866048
370
    -3
100
AcDbVertex
100
AcDb2dVertex
 10
908.81684771451
 20
-414.0423749280284
 30
0.0
  0
VERTEX
  5
20D
330
202
100
AcDbEntity
  8
Graypants_Hewn48-8
 62
    36
420
  8866048
370
    -3
100
AcDbVertex
100
AcDb2dVertex
 10
908.7706061331921
 20
-414.0268246349198
 30
0.0
  0
VERTEX
  5
20E
330
202
100
AcDbEntity
  8
Graypants_Hewn48-8
 62
    36
420
  8866048
370
    -3
100
AcDbVertex
100
AcDb2dVertex
 10
908.7249224139523
 20
-414.0097046683613
 30
0.0
  0
VERTEX
  5
20F
330
202
100
AcDbEntity
  8
Graypants_Hewn48-8
 62
    36
420
  8866048
370
    -3
100
AcDbVertex
100
AcDb2dVertex
 10
908.6798498219638
 20
-413.9910349894681
 30
0.0
  0
VERTEX
  5
210
330
202
100
AcDbEntity
  8
Graypants_Hewn48-8
 62
    36
420
  8866048
370
    -3
100
AcDbVertex
100
AcDb2dVertex
 10
908.6354409098525
 20
-413.9708373662507
 30
0.0
  0
VERTEX
  5
211
330
202
100
AcDbEntity
  8
Graypants_Hewn48-8
 62
    36
420
  8866048
370
    -3
100
AcDbVertex
100
AcDb2dVertex
 10
908.5917474564234
 20
-413.9491353482342
 30
0.0
  0
VERTEX
  5
212
330
202
100
AcDbEntity
  8
Graypants_Hewn48-8
 62
    36
420
  8866048
370
    -3
100
AcDbVertex
100
AcDb2dVertex
 10
908.5488204062888
 20
-413.925954239001
 30
0.0
  0
VERTEX
  5
213
330
202
100
AcDbEntity
  8
Graypants_Hewn48-8
 62
    36
420
  8866048
370
    -3
100
AcDbVertex
100
AcDb2dVertex
 10
908.5067098104688
 20
-413.9013210666873
 30
0.0
  0
VERTEX
  5
214
330
202
100
AcDbEntity
  8
Graypants_Hewn48-8
 62
    36
420
  8866048
370
    -3
100
AcDbVertex
100
AcDb2dVertex
 10
908.4654647680346
 20
-413.8752645524703
 30
0.0
  0
VERTEX
  5
215
330
202
100
AcDbEntity
  8
Graypants_Hewn48-8
 62
    36
420
  8866048
370
    -3
100
AcDbVertex
100
AcDb2dVertex
 10
908.4251333688605
 20
-413.8478150770799
 30
0.0
  0
VERTEX
  5
216
330
202
100
AcDbEntity
  8
Graypants_Hewn48-8
 62
    36
420
  8866048
370
    -3
100
AcDbVertex
100
AcDb2dVertex
 10
908.3857626375541
 20
-413.8190046453766
 30
0.0
  0
VERTEX
  5
217
330
202
100
AcDbEntity
  8
Graypants_Hewn48-8
 62
    36
420
  8866048
370
    -3
100
AcDbVertex
100
AcDb2dVertex
 10
908.3473984786266
 20
-413.7888668490349
 30
0.0
  0
VERTEX
  5
218
330
202
100
AcDbEntity
  8
Graypants_Hewn48-8
 62
    36
420
  8866048
370
    -3
100
AcDbVertex
100
AcDb2dVertex
 10
908.3100856229714
 20
-413.7574368273773
 30
0.0
  0
VERTEX
  5
219
330
202
100
AcDbEntity
  8
Graypants_Hewn48-8
 62
    36
420
  8866048
370
    -3
100
AcDbVertex
100
AcDb2dVertex
 10
908.273867575709
 20
-413.7247512264031
 30
0.0
  0
VERTEX
  5
21A
330
202
100
AcDbEntity
  8
Graypants_Hewn48-8
 62
    36
420
  8866048
370
    -3
100
AcDbVertex
100
AcDb2dVertex
 10
908.2387865654625
 20
-413.690848156061
 30
0.0
  0
VERTEX
  5
21B
330
202
100
AcDbEntity
  8
Graypants_Hewn48-8
 62
    36
420
  8866048
370
    -3
100
AcDbVertex
100
AcDb2dVertex
 10
908.2048834951205
 20
-413.6557671458141
 30
0.0
  0
VERTEX
  5
21C
330
202
100
AcDbEntity
  8
Graypants_Hewn48-8
 62
    36
420
  8866048
370
    -3
100
AcDbVertex
100
AcDb2dVertex
 10
908.1721978941465
 20
-413.6195490985516
 30
0.0
  0
VERTEX
  5
21D
330
202
100
AcDbEntity
  8
Graypants_Hewn48-8
 62
    36
420
  8866048
370
    -3
100
AcDbVertex
100
AcDb2dVertex
 10
908.1407678724892
 20
-413.5822362428962
 30
0.0
  0
VERTEX
  5
21E
330
202
100
AcDbEntity
  8
Graypants_Hewn48-8
 62
    36
420
  8866048
370
    -3
100
AcDbVertex
100
AcDb2dVertex
 10
908.1106300761479
 20
-413.5438720839685
 30
0.0
  0
VERTEX
  5
21F
330
202
100
AcDbEntity
  8
Graypants_Hewn48-8
 62
    36
420
  8866048
370
    -3
100
AcDbVertex
100
AcDb2dVertex
 10
908.0818196444447
 20
-413.5045013526617
 30
0.0
  0
VERTEX
  5
220
330
202
100
AcDbEntity
  8
Graypants_Hewn48-8
 62
    36
420
  8866048
370
    -3
100
AcDbVertex
100
AcDb2dVertex
 10
908.0543701690547
 20
-413.4641699534875
 30
0.0
  0
VERTEX
  5
221
330
202
100
AcDbEntity
  8
Graypants_Hewn48-8
 62
    36
420
  8866048
370
    -3
100
AcDbVertex
100
AcDb2dVertex
 10
908.028313654838
 20
-413.4229249110531
 30
0.0
  0
VERTEX
  5
222
330
202
100
AcDbEntity
  8
Graypants_Hewn48-8
 62
    36
420
  8866048
370
    -3
100
AcDbVertex
100
AcDb2dVertex
 10
908.0036804825246
 20
-413.380814315233
 30
0.0
  0
VERTEX
  5
223
330
202
100
AcDbEntity
  8
Graypants_Hewn48-8
 62
    36
420
  8866048
370
    -3
100
AcDbVertex
100
AcDb2dVertex
 10
907.9804993732917
 20
-413.3378872650982
 30
0.0
  0
VERTEX
  5
224
330
202
100
AcDbEntity
  8
Graypants_Hewn48-8
 62
    36
420
  8866048
370
    -3
100
AcDbVertex
100
AcDb2dVertex
 10
907.9587973552756
 20
-413.2941938116689
 30
0.0
  0
VERTEX
  5
225
330
202
100
AcDbEntity
  8
Graypants_Hewn48-8
 62
    36
420
  8866048
370
    -3
100
AcDbVertex
100
AcDb2dVertex
 10
907.9385997320585
 20
-413.2497848995575
 30
0.0
  0
VERTEX
  5
226
330
202
100
AcDbEntity
  8
Graypants_Hewn48-8
 62
    36
420
  8866048
370
    -3
100
AcDbVertex
100
AcDb2dVertex
 10
907.9199300531657
 20
-413.2047123075688
 30
0.0
  0
VERTEX
  5
227
330
202
100
AcDbEntity
  8
Graypants_Hewn48-8
 62
    36
420
  8866048
370
    -3
100
AcDbVertex
100
AcDb2dVertex
 10
907.9028100866074
 20
-413.1590285883289
 30
0.0
  0
VERTEX
  5
228
330
202
100
AcDbEntity
  8
Graypants_Hewn48-8
 62
    36
420
  8866048
370
    -3
100
AcDbVertex
100
AcDb2dVertex
 10
907.8872597934992
 20
-413.1127870070109
 30
0.0
  0
VERTEX
  5
229
330
202
100
AcDbEntity
  8
Graypants_Hewn48-8
 62
    36
420
  8866048
370
    -3
100
AcDbVertex
100
AcDb2dVertex
 10
907.8732973047869
 20
-413.0660414792301
 30
0.0
  0
VERTEX
  5
22A
330
202
100
AcDbEntity
  8
Graypants_Hewn48-8
 62
    36
420
  8866048
370
    -3
100
AcDbVertex
100
AcDb2dVertex
 10
907.860938900108
 20
-413.0188465081809
 30
0.0
  0
VERTEX
  5
22B
330
202
100
AcDbEntity
  8
Graypants_Hewn48-8
 62
    36
420
  8866048
370
    -3
100
AcDbVertex
100
AcDb2dVertex
 10
907.8501989888092
 20
-412.9712571210884
 30
0.0
  0
VERTEX
  5
22C
330
202
100
AcDbEntity
  8
Graypants_Hewn48-8
 62
    36
420
  8866048
370
    -3
100
AcDbVertex
100
AcDb2dVertex
 10
907.841090093147
 20
-412.9233288050491
 30
0.0
  0
VERTEX
  5
22D
330
202
100
AcDbEntity
  8
Graypants_Hewn48-8
 62
    36
420
  8866048
370
    -3
100
AcDbVertex
100
AcDb2dVertex
 10
907.8336228336864
 20
-412.8751174423357
 30
0.0
  0
VERTEX
  5
22E
330
202
100
AcDbEntity
  8
Graypants_Hewn48-8
 62
    36
420
  8866048
370
    -3
100
AcDbVertex
100
AcDb2dVertex
 10
907.8278059169173
 20
-412.8266792452403
 30
0.0
  0
VERTEX
  5
22F
330
202
100
AcDbEntity
  8
Graypants_Hewn48-8
 62
    36
420
  8866048
370
    -3
100
AcDbVertex
100
AcDb2dVertex
 10
907.823646125105
 20
-412.7780706905342
 30
0.0
  0
VERTEX
  5
230
330
202
100
AcDbEntity
  8
Graypants_Hewn48-8
 62
    36
420
  8866048
370
    -3
100
AcDbVertex
100
AcDb2dVertex
 10
907.8211483083804
 20
-412.7293484536176
 30
0.0
  0
VERTEX
  5
231
330
202
100
AcDbEntity
  8
Graypants_Hewn48-8
 62
    36
420
  8866048
370
    -3
100
AcDbVertex
100
AcDb2dVertex
 10
907.8203153790864
 20
-412.6805693424394
 30
0.0
  0
VERTEX
  5
232
330
202
100
AcDbEntity
  8
Graypants_Hewn48-8
 62
    36
420
  8866048
370
    -3
100
AcDbVertex
100
AcDb2dVertex
 10
907.8203153792165
 20
-382.3593193423994
 30
0.0
  0
SEQEND
  5
233
330
202
100
AcDbEntity
  8
Graypants_Hewn48-8
 62
    36
420
  8866048
370
    -3
  0
POLYLINE
  5
234
330
1F
100
AcDbEntity
  8
Graypants_Hewn48-8
 62
    36
420
  8866048
370
    -3
100
AcDb2dPolyline
 66
     1
 10
0.0
 20
0.0
 30
0.0
  0
VERTEX
  5
235
330
234
100
AcDbEntity
  8
Graypants_Hewn48-8
 62
    36
420
  8866048
370
    -3
100
AcDbVertex
100
AcDb2dVertex
 10
1063.395315379083
 20
-382.3593193463414
 30
0.0
  0
VERTEX
  5
236
330
234
100
AcDbEntity
  8
Graypants_Hewn48-8
 62
    36
420
  8866048
370
    -3
100
AcDbVertex
100
AcDb2dVertex
 10
1063.395315377676
 20
-412.6805693463814
 30
0.0
  0
VERTEX
  5
237
330
234
100
AcDbEntity
  8
Graypants_Hewn48-8
 62
    36
420
  8866048
370
    -3
100
AcDbVertex
100
AcDb2dVertex
 10
1063.394482448379
 20
-412.7293484575595
 30
0.0
  0
VERTEX
  5
238
330
234
100
AcDbEntity
  8
Graypants_Hewn48-8
 62
    36
420
  8866048
370
    -3
100
AcDbVertex
100
AcDb2dVertex
 10
1063.391984631652
 20
-412.778070694476
 30
0.0
  0
VERTEX
  5
239
330
234
100
AcDbEntity
  8
Graypants_Hewn48-8
 62
    36
420
  8866048
370
    -3
100
AcDbVertex
100
AcDb2dVertex
 10
1063.387824839837
 20
-412.8266792491819
 30
0.0
  0
VERTEX
  5
23A
330
234
100
AcDbEntity
  8
Graypants_Hewn48-8
 62
    36
420
  8866048
370
    -3
100
AcDbVertex
100
AcDb2dVertex
 10
1063.382007923066
 20
-412.8751174462769
 30
0.0
  0
VERTEX
  5
23B
330
234
100
AcDbEntity
  8
Graypants_Hewn48-8
 62
    36
420
  8866048
370
    -3
100
AcDbVertex
100
AcDb2dVertex
 10
1063.374540663603
 20
-412.92332880899
 30
0.0
  0
VERTEX
  5
23C
330
234
100
AcDbEntity
  8
Graypants_Hewn48-8
 62
    36
420
  8866048
370
    -3
100
AcDbVertex
100
AcDb2dVertex
 10
1063.365431767938
 20
-412.9712571250288
 30
0.0
  0
VERTEX
  5
23D
330
234
100
AcDbEntity
  8
Graypants_Hewn48-8
 62
    36
420
  8866048
370
    -3
100
AcDbVertex
100
AcDb2dVertex
 10
1063.354691856637
 20
-413.0188465121207
 30
0.0
  0
VERTEX
  5
23E
330
234
100
AcDbEntity
  8
Graypants_Hewn48-8
 62
    36
420
  8866048
370
    -3
100
AcDbVertex
100
AcDb2dVertex
 10
1063.342333451956
 20
-413.0660414831693
 30
0.0
  0
VERTEX
  5
23F
330
234
100
AcDbEntity
  8
Graypants_Hewn48-8
 62
    36
420
  8866048
370
    -3
100
AcDbVertex
100
AcDb2dVertex
 10
1063.328370963241
 20
-413.1127870109494
 30
0.0
  0
VERTEX
  5
240
330
234
100
AcDbEntity
  8
Graypants_Hewn48-8
 62
    36
420
  8866048
370
    -3
100
AcDbVertex
100
AcDb2dVertex
 10
1063.31282067013
 20
-413.1590285922666
 30
0.0
  0
VERTEX
  5
241
330
234
100
AcDbEntity
  8
Graypants_Hewn48-8
 62
    36
420
  8866048
370
    -3
100
AcDbVertex
100
AcDb2dVertex
 10
1063.29570070357
 20
-413.2047123115057
 30
0.0
  0
VERTEX
  5
242
330
234
100
AcDbEntity
  8
Graypants_Hewn48-8
 62
    36
420
  8866048
370
    -3
100
AcDbVertex
100
AcDb2dVertex
 10
1063.277031024675
 20
-413.2497849034934
 30
0.0
  0
VERTEX
  5
243
330
234
100
AcDbEntity
  8
Graypants_Hewn48-8
 62
    36
420
  8866048
370
    -3
100
AcDbVertex
100
AcDb2dVertex
 10
1063.256833401455
 20
-413.2941938156039
 30
0.0
  0
VERTEX
  5
244
330
234
100
AcDbEntity
  8
Graypants_Hewn48-8
 62
    36
420
  8866048
370
    -3
100
AcDbVertex
100
AcDb2dVertex
 10
1063.235131383437
 20
-413.337887269032
 30
0.0
  0
VERTEX
  5
245
330
234
100
AcDbEntity
  8
Graypants_Hewn48-8
 62
    36
420
  8866048
370
    -3
100
AcDbVertex
100
AcDb2dVertex
 10
1063.211950274202
 20
-413.3808143191655
 30
0.0
  0
VERTEX
  5
246
330
234
100
AcDbEntity
  8
Graypants_Hewn48-8
 62
    36
420
  8866048
370
    -3
100
AcDbVertex
100
AcDb2dVertex
 10
1063.187317101887
 20
-413.4229249149844
 30
0.0
  0
VERTEX
  5
247
330
234
100
AcDbEntity
  8
Graypants_Hewn48-8
 62
    36
420
  8866048
370
    -3
100
AcDbVertex
100
AcDb2dVertex
 10
1063.161260587668
 20
-413.4641699574175
 30
0.0
  0
VERTEX
  5
248
330
234
100
AcDbEntity
  8
Graypants_Hewn48-8
 62
    36
420
  8866048
370
    -3
100
AcDbVertex
100
AcDb2dVertex
 10
1063.133811112276
 20
-413.5045013565903
 30
0.0
  0
VERTEX
  5
249
330
234
100
AcDbEntity
  8
Graypants_Hewn48-8
 62
    36
420
  8866048
370
    -3
100
AcDbVertex
100
AcDb2dVertex
 10
1063.105000680571
 20
-413.5438720878956
 30
0.0
  0
VERTEX
  5
24A
330
234
100
AcDbEntity
  8
Graypants_Hewn48-8
 62
    36
420
  8866048
370
    -3
100
AcDbVertex
100
AcDb2dVertex
 10
1063.074862884228
 20
-413.5822362468218
 30
0.0
  0
VERTEX
  5
24B
330
234
100
AcDbEntity
  8
Graypants_Hewn48-8
 62
    36
420
  8866048
370
    -3
100
AcDbVertex
100
AcDb2dVertex
 10
1063.043432862568
 20
-413.6195491024756
 30
0.0
  0
VERTEX
  5
24C
330
234
100
AcDbEntity
  8
Graypants_Hewn48-8
 62
    36
420
  8866048
370
    -3
100
AcDbVertex
100
AcDb2dVertex
 10
1063.010747261592
 20
-413.6557671497365
 30
0.0
  0
VERTEX
  5
24D
330
234
100
AcDbEntity
  8
Graypants_Hewn48-8
 62
    36
420
  8866048
370
    -3
100
AcDbVertex
100
AcDb2dVertex
 10
1062.976844191249
 20
-413.6908481599815
 30
0.0
  0
VERTEX
  5
24E
330
234
100
AcDbEntity
  8
Graypants_Hewn48-8
 62
    36
420
  8866048
370
    -3
100
AcDbVertex
100
AcDb2dVertex
 10
1062.941763181
 20
-413.7247512303219
 30
0.0
  0
VERTEX
  5
24F
330
234
100
AcDbEntity
  8
Graypants_Hewn48-8
 62
    36
420
  8866048
370
    -3
100
AcDbVertex
100
AcDb2dVertex
 10
1062.905545133736
 20
-413.7574368312943
 30
0.0
  0
VERTEX
  5
250
330
234
100
AcDbEntity
  8
Graypants_Hewn48-8
 62
    36
420
  8866048
370
    -3
100
AcDbVertex
100
AcDb2dVertex
 10
1062.86823227808
 20
-413.78886685295
 30
0.0
  0
VERTEX
  5
251
330
234
100
AcDbEntity
  8
Graypants_Hewn48-8
 62
    36
420
  8866048
370
    -3
100
AcDbVertex
100
AcDb2dVertex
 10
1062.829868119151
 20
-413.8190046492898
 30
0.0
  0
VERTEX
  5
252
330
234
100
AcDbEntity
  8
Graypants_Hewn48-8
 62
    36
420
  8866048
370
    -3
100
AcDbVertex
100
AcDb2dVertex
 10
1062.790497387843
 20
-413.8478150809911
 30
0.0
  0
VERTEX
  5
253
330
234
100
AcDbEntity
  8
Graypants_Hewn48-8
 62
    36
420
  8866048
370
    -3
100
AcDbVertex
100
AcDb2dVertex
 10
1062.750165988667
 20
-413.8752645563795
 30
0.0
  0
VERTEX
  5
254
330
234
100
AcDbEntity
  8
Graypants_Hewn48-8
 62
    36
420
  8866048
370
    -3
100
AcDbVertex
100
AcDb2dVertex
 10
1062.708920946232
 20
-413.9013210705944
 30
0.0
  0
VERTEX
  5
255
330
234
100
AcDbEntity
  8
Graypants_Hewn48-8
 62
    36
420
  8866048
370
    -3
100
AcDbVertex
100
AcDb2dVertex
 10
1062.666810350411
 20
-413.9259542429059
 30
0.0
  0
VERTEX
  5
256
330
234
100
AcDbEntity
  8
Graypants_Hewn48-8
 62
    36
420
  8866048
370
    -3
100
AcDbVertex
100
AcDb2dVertex
 10
1062.623883300275
 20
-413.9491353521369
 30
0.0
  0
VERTEX
  5
257
330
234
100
AcDbEntity
  8
Graypants_Hewn48-8
 62
    36
420
  8866048
370
    -3
100
AcDbVertex
100
AcDb2dVertex
 10
1062.580189846845
 20
-413.9708373701512
 30
0.0
  0
VERTEX
  5
258
330
234
100
AcDbEntity
  8
Graypants_Hewn48-8
 62
    36
420
  8866048
370
    -3
100
AcDbVertex
100
AcDb2dVertex
 10
1062.535780934732
 20
-413.9910349933663
 30
0.0
  0
VERTEX
  5
259
330
234
100
AcDbEntity
  8
Graypants_Hewn48-8
 62
    36
420
  8866048
370
    -3
100
AcDbVertex
100
AcDb2dVertex
 10
1062.490708342743
 20
-414.0097046722572
 30
0.0
  0
VERTEX
  5
25A
330
234
100
AcDbEntity
  8
Graypants_Hewn48-8
 62
    36
420
  8866048
370
    -3
100
AcDbVertex
100
AcDb2dVertex
 10
1062.445024623502
 20
-414.0268246388134
 30
0.0
  0
VERTEX
  5
25B
330
234
100
AcDbEntity
  8
Graypants_Hewn48-8
 62
    36
420
  8866048
370
    -3
100
AcDbVertex
100
AcDb2dVertex
 10
1062.398783042184
 20
-414.0423749319197
 30
0.0
  0
VERTEX
  5
25C
330
234
100
AcDbEntity
  8
Graypants_Hewn48-8
 62
    36
420
  8866048
370
    -3
100
AcDbVertex
100
AcDb2dVertex
 10
1062.352037514402
 20
-414.0563374206299
 30
0.0
  0
VERTEX
  5
25D
330
234
100
AcDbEntity
  8
Graypants_Hewn48-8
 62
    36
420
  8866048
370
    -3
100
AcDbVertex
100
AcDb2dVertex
 10
1062.304842543352
 20
-414.0686958253069
 30
0.0
  0
VERTEX
  5
25E
330
234
100
AcDbEntity
  8
Graypants_Hewn48-8
 62
    36
420
  8866048
370
    -3
100
AcDbVertex
100
AcDb2dVertex
 10
1062.257253156259
 20
-414.0794357366034
 30
0.0
  0
VERTEX
  5
25F
330
234
100
AcDbEntity
  8
Graypants_Hewn48-8
 62
    36
420
  8866048
370
    -3
100
AcDbVertex
100
AcDb2dVertex
 10
1062.20932484022
 20
-414.0885446322635
 30
0.0
  0
VERTEX
  5
260
330
234
100
AcDbEntity
  8
Graypants_Hewn48-8
 62
    36
420
  8866048
370
    -3
100
AcDbVertex
100
AcDb2dVertex
 10
1062.161113477506
 20
-414.0960118917222
 30
0.0
  0
VERTEX
  5
261
330
234
100
AcDbEntity
  8
Graypants_Hewn48-8
 62
    36
420
  8866048
370
    -3
100
AcDbVertex
100
AcDb2dVertex
 10
1062.11267528041
 20
-414.101828808489
 30
0.0
  0
VERTEX
  5
262
330
234
100
AcDbEntity
  8
Graypants_Hewn48-8
 62
    36
420
  8866048
370
    -3
100
AcDbVertex
100
AcDb2dVertex
 10
1062.064066725704
 20
-414.1059886002992
 30
0.0
  0
VERTEX
  5
263
330
234
100
AcDbEntity
  8
Graypants_Hewn48-8
 62
    36
420
  8866048
370
    -3
100
AcDbVertex
100
AcDb2dVertex
 10
1062.015344488787
 20
-414.1084864170215
 30
0.0
  0
VERTEX
  5
264
330
234
100
AcDbEntity
  8
Graypants_Hewn48-8
 62
    36
420
  8866048
370
    -3
100
AcDbVertex
100
AcDb2dVertex
 10
1061.966565377609
 20
-414.1093193463136
 30
0.0
  0
SEQEND
  5
265
330
234
100
AcDbEntity
  8
Graypants_Hewn48-8
 62
    36
420
  8866048
370
    -3
  0
LINE
  5
266
330
1F
100
AcDbEntity
  8
Graypants_Hewn48-8
 62
    36
420
  8866048
370
    -3
100
AcDbLine
 10
1020.241193984788
 20
-1066.617963459038
 30
0.0
 11
1020.241193984788
 21
-1096.854890006209
 31
0.0
  0
POLYLINE
  5
267
330
1F
100
AcDbEntity
  8
Graypants_Hewn48-8
 62
    36
420
  8866048
370
    -3
100
AcDb2dPolyline
 66
     1
 10
0.0
 20
0.0
 30
0.0
  0
VERTEX
  5
268
330
267
100
AcDbEntity
  8
Graypants_Hewn48-8
 62
    36
420
  8866048
370
    -3
100
AcDbVertex
100
AcDb2dVertex
 10
1013.891193984788
 20
-1066.617963459038
 30
0.0
  0
VERTEX
  5
269
330
267
100
AcDbEntity
  8
Graypants_Hewn48-8
 62
    36
420
  8866048
370
    -3
100
AcDbVertex
100
AcDb2dVertex
 10
1013.875856616932
 20
-1064.824044644578
 30
0.0
  0
VERTEX
  5
26A
330
267
100
AcDbEntity
  8
Graypants_Hewn48-8
 62
    36
420
  8866048
370
    -3
100
AcDbVertex
100
AcDb2dVertex
 10
1013.829673869993
 20
-1063.031192221868
 30
0.0
  0
VERTEX
  5
26B
330
267
100
AcDbEntity
  8
Graypants_Hewn48-8
 62
    36
420
  8866048
370
    -3
100
AcDbVertex
100
AcDb2dVertex
 10
1013.75273215756
 20
-1061.240498503653
 30
0.0
  0
VERTEX
  5
26C
330
267
100
AcDbEntity
  8
Graypants_Hewn48-8
 62
    36
420
  8866048
370
    -3
100
AcDbVertex
100
AcDb2dVertex
 10
1013.645117893222
 20
-1059.45305580268
 30
0.0
  0
VERTEX
  5
26D
330
267
100
AcDbEntity
  8
Graypants_Hewn48-8
 62
    36
420
  8866048
370
    -3
100
AcDbVertex
100
AcDb2dVertex
 10
1013.506917490569
 20
-1057.669956431696
 30
0.0
  0
VERTEX
  5
26E
330
267
100
AcDbEntity
  8
Graypants_Hewn48-8
 62
    36
420
  8866048
370
    -3
100
AcDbVertex
100
AcDb2dVertex
 10
1013.338217363189
 20
-1055.892292703448
 30
0.0
  0
VERTEX
  5
26F
330
267
100
AcDbEntity
  8
Graypants_Hewn48-8
 62
    36
420
  8866048
370
    -3
100
AcDbVertex
100
AcDb2dVertex
 10
1013.139103924673
 20
-1054.121156930682
 30
0.0
  0
VERTEX
  5
270
330
267
100
AcDbEntity
  8
Graypants_Hewn48-8
 62
    36
420
  8866048
370
    -3
100
AcDbVertex
100
AcDb2dVertex
 10
1012.909663588609
 20
-1052.357641426144
 30
0.0
  0
VERTEX
  5
271
330
267
100
AcDbEntity
  8
Graypants_Hewn48-8
 62
    36
420
  8866048
370
    -3
100
AcDbVertex
100
AcDb2dVertex
 10
1012.644773647974
 20
-1050.569527039185
 30
0.0
  0
VERTEX
  5
272
330
267
100
AcDbEntity
  8
Graypants_Hewn48-8
 62
    36
420
  8866048
370
    -3
100
AcDbVertex
100
AcDb2dVertex
 10
1012.348719873507
 20
-1048.791518838617
 30
0.0
  0
VERTEX
  5
273
330
267
100
AcDbEntity
  8
Graypants_Hewn48-8
 62
    36
420
  8866048
370
    -3
100
AcDbVertex
100
AcDb2dVertex
 10
1012.021748908296
 20
-1047.024728755219
 30
0.0
  0
VERTEX
  5
274
330
267
100
AcDbEntity
  8
Graypants_Hewn48-8
 62
    36
420
  8866048
370
    -3
100
AcDbVertex
100
AcDb2dVertex
 10
1011.664107395429
 20
-1045.270268719767
 30
0.0
  0
VERTEX
  5
275
330
267
100
AcDbEntity
  8
Graypants_Hewn48-8
 62
    36
420
  8866048
370
    -3
100
AcDbVertex
100
AcDb2dVertex
 10
1011.276041977993
 20
-1043.52925066304
 30
0.0
  0
VERTEX
  5
276
330
267
100
AcDbEntity
  8
Graypants_Hewn48-8
 62
    36
420
  8866048
370
    -3
100
AcDbVertex
100
AcDb2dVertex
 10
1010.857799299077
 20
-1041.802786515817
 30
0.0
  0
VERTEX
  5
277
330
267
100
AcDbEntity
  8
Graypants_Hewn48-8
 62
    36
420
  8866048
370
    -3
100
AcDbVertex
100
AcDb2dVertex
 10
1010.409626001769
 20
-1040.091988208876
 30
0.0
  0
VERTEX
  5
278
330
267
100
AcDbEntity
  8
Graypants_Hewn48-8
 62
    36
420
  8866048
370
    -3
100
AcDbVertex
100
AcDb2dVertex
 10
1009.931768729155
 20
-1038.397967672994
 30
0.0
  0
VERTEX
  5
279
330
267
100
AcDbEntity
  8
Graypants_Hewn48-8
 62
    36
420
  8866048
370
    -3
100
AcDbVertex
100
AcDb2dVertex
 10
1009.425090792567
 20
-1036.723703638583
 30
0.0
  0
VERTEX
  5
27A
330
267
100
AcDbEntity
  8
Graypants_Hewn48-8
 62
    36
420
  8866048
370
    -3
100
AcDbVertex
100
AcDb2dVertex
 10
1008.889451797803
 20
-1035.068296005209
 30
0.0
  0
VERTEX
  5
27B
330
267
100
AcDbEntity
  8
Graypants_Hewn48-8
 62
    36
420
  8866048
370
    -3
100
AcDbVertex
100
AcDb2dVertex
 10
1008.325264663578
 20
-1033.432757862655
 30
0.0
  0
VERTEX
  5
27C
330
267
100
AcDbEntity
  8
Graypants_Hewn48-8
 62
    36
420
  8866048
370
    -3
100
AcDbVertex
100
AcDb2dVertex
 10
1007.73294230861
 20
-1031.818102300705
 30
0.0
  0
VERTEX
  5
27D
330
267
100
AcDbEntity
  8
Graypants_Hewn48-8
 62
    36
420
  8866048
370
    -3
100
AcDbVertex
100
AcDb2dVertex
 10
1007.112897651616
 20
-1030.225342409141
 30
0.0
  0
VERTEX
  5
27E
330
267
100
AcDbEntity
  8
Graypants_Hewn48-8
 62
    36
420
  8866048
370
    -3
100
AcDbVertex
100
AcDb2dVertex
 10
1006.465543611312
 20
-1028.655491277747
 30
0.0
  0
VERTEX
  5
27F
330
267
100
AcDbEntity
  8
Graypants_Hewn48-8
 62
    36
420
  8866048
370
    -3
100
AcDbVertex
100
AcDb2dVertex
 10
1005.791293106414
 20
-1027.109561996307
 30
0.0
  0
VERTEX
  5
280
330
267
100
AcDbEntity
  8
Graypants_Hewn48-8
 62
    36
420
  8866048
370
    -3
100
AcDbVertex
100
AcDb2dVertex
 10
1005.09055905564
 20
-1025.588567654603
 30
0.0
  0
VERTEX
  5
281
330
267
100
AcDbEntity
  8
Graypants_Hewn48-8
 62
    36
420
  8866048
370
    -3
100
AcDbVertex
100
AcDb2dVertex
 10
1004.379169029603
 20
-1024.124352225411
 30
0.0
  0
VERTEX
  5
282
330
267
100
AcDbEntity
  8
Graypants_Hewn48-8
 62
    36
420
  8866048
370
    -3
100
AcDbVertex
100
AcDb2dVertex
 10
1003.643326173941
 20
-1022.68589804615
 30
0.0
  0
VERTEX
  5
283
330
267
100
AcDbEntity
  8
Graypants_Hewn48-8
 62
    36
420
  8866048
370
    -3
100
AcDbVertex
100
AcDb2dVertex
 10
1002.883546190414
 20
-1021.274028133293
 30
0.0
  0
VERTEX
  5
284
330
267
100
AcDbEntity
  8
Graypants_Hewn48-8
 62
    36
420
  8866048
370
    -3
100
AcDbVertex
100
AcDb2dVertex
 10
1002.100344780779
 20
-1019.889565503315
 30
0.0
  0
VERTEX
  5
285
330
267
100
AcDbEntity
  8
Graypants_Hewn48-8
 62
    36
420
  8866048
370
    -3
100
AcDbVertex
100
AcDb2dVertex
 10
1001.294237646796
 20
-1018.533333172692
 30
0.0
  0
VERTEX
  5
286
330
267
100
AcDbEntity
  8
Graypants_Hewn48-8
 62
    36
420
  8866048
370
    -3
100
AcDbVertex
100
AcDb2dVertex
 10
1000.465740490222
 20
-1017.2061541579
 30
0.0
  0
VERTEX
  5
287
330
267
100
AcDbEntity
  8
Graypants_Hewn48-8
 62
    36
420
  8866048
370
    -3
100
AcDbVertex
100
AcDb2dVertex
 10
999.6153690128159
 20
-1015.908851475411
 30
0.0
  0
VERTEX
  5
288
330
267
100
AcDbEntity
  8
Graypants_Hewn48-8
 62
    36
420
  8866048
370
    -3
100
AcDbVertex
100
AcDb2dVertex
 10
998.7436389163358
 20
-1014.642248141703
 30
0.0
  0
SEQEND
  5
289
330
267
100
AcDbEntity
  8
Graypants_Hewn48-8
 62
    36
420
  8866048
370
    -3
  0
POLYLINE
  5
28A
330
1F
100
AcDbEntity
  8
Graypants_Hewn48-8
 62
    36
420
  8866048
370
    -3
100
AcDb2dPolyline
 66
     1
 10
0.0
 20
0.0
 30
0.0
  0
VERTEX
  5
28B
330
28A
100
AcDbEntity
  8
Graypants_Hewn48-8
 62
    36
420
  8866048
370
    -3
100
AcDbVertex
100
AcDb2dVertex
 10
1003.933180364931
 20
-1010.982854816982
 30
0.0
  0
VERTEX
  5
28C
330
28A
100
AcDbEntity
  8
Graypants_Hewn48-8
 62
    36
420
  8866048
370
    -3
100
AcDbVertex
100
AcDb2dVertex
 10
1004.884944728047
 20
-1012.365652500024
 30
0.0
  0
VERTEX
  5
28D
330
28A
100
AcDbEntity
  8
Graypants_Hewn48-8
 62
    36
420
  8866048
370
    -3
100
AcDbVertex
100
AcDb2dVertex
 10
1005.812001128788
 20
-1013.779724979648
 30
0.0
  0
VERTEX
  5
28E
330
28A
100
AcDbEntity
  8
Graypants_Hewn48-8
 62
    36
420
  8866048
370
    -3
100
AcDbVertex
100
AcDb2dVertex
 10
1006.713896002429
 20
-1015.224196046913
 30
0.0
  0
VERTEX
  5
28F
330
28A
100
AcDbEntity
  8
Graypants_Hewn48-8
 62
    36
420
  8866048
370
    -3
100
AcDbVertex
100
AcDb2dVertex
 10
1007.590175784246
 20
-1016.698189492878
 30
0.0
  0
VERTEX
  5
290
330
28A
100
AcDbEntity
  8
Graypants_Hewn48-8
 62
    36
420
  8866048
370
    -3
100
AcDbVertex
100
AcDb2dVertex
 10
1008.440386909514
 20
-1018.2008291086
 30
0.0
  0
VERTEX
  5
291
330
28A
100
AcDbEntity
  8
Graypants_Hewn48-8
 62
    36
420
  8866048
370
    -3
100
AcDbVertex
100
AcDb2dVertex
 10
1009.264075813509
 20
-1019.731238685139
 30
0.0
  0
VERTEX
  5
292
330
28A
100
AcDbEntity
  8
Graypants_Hewn48-8
 62
    36
420
  8866048
370
    -3
100
AcDbVertex
100
AcDb2dVertex
 10
1010.060788931507
 20
-1021.288542013553
 30
0.0
  0
VERTEX
  5
293
330
28A
100
AcDbEntity
  8
Graypants_Hewn48-8
 62
    36
420
  8866048
370
    -3
100
AcDbVertex
100
AcDb2dVertex
 10
1010.830072698783
 20
-1022.871862884901
 30
0.0
  0
VERTEX
  5
294
330
28A
100
AcDbEntity
  8
Graypants_Hewn48-8
 62
    36
420
  8866048
370
    -3
100
AcDbVertex
100
AcDb2dVertex
 10
1011.58448945691
 20
-1024.509281499651
 30
0.0
  0
VERTEX
  5
295
330
28A
100
AcDbEntity
  8
Graypants_Hewn48-8
 62
    36
420
  8866048
370
    -3
100
AcDbVertex
100
AcDb2dVertex
 10
1012.309683375587
 20
-1026.171784276977
 30
0.0
  0
VERTEX
  5
296
330
28A
100
AcDbEntity
  8
Graypants_Hewn48-8
 62
    36
420
  8866048
370
    -3
100
AcDbVertex
100
AcDb2dVertex
 10
1013.005289191882
 20
-1027.858349468208
 30
0.0
  0
VERTEX
  5
297
330
28A
100
AcDbEntity
  8
Graypants_Hewn48-8
 62
    36
420
  8866048
370
    -3
100
AcDbVertex
100
AcDb2dVertex
 10
1013.670941642867
 20
-1029.567955324672
 30
0.0
  0
VERTEX
  5
298
330
28A
100
AcDbEntity
  8
Graypants_Hewn48-8
 62
    36
420
  8866048
370
    -3
100
AcDbVertex
100
AcDb2dVertex
 10
1014.306275465609
 20
-1031.299580097698
 30
0.0
  0
VERTEX
  5
299
330
28A
100
AcDbEntity
  8
Graypants_Hewn48-8
 62
    36
420
  8866048
370
    -3
100
AcDbVertex
100
AcDb2dVertex
 10
1014.910925397178
 20
-1033.052202038615
 30
0.0
  0
VERTEX
  5
29A
330
28A
100
AcDbEntity
  8
Graypants_Hewn48-8
 62
    36
420
  8866048
370
    -3
100
AcDbVertex
100
AcDb2dVertex
 10
1015.484526174644
 20
-1034.824799398751
 30
0.0
  0
VERTEX
  5
29B
330
28A
100
AcDbEntity
  8
Graypants_Hewn48-8
 62
    36
420
  8866048
370
    -3
100
AcDbVertex
100
AcDb2dVertex
 10
1016.026712535076
 20
-1036.616350429434
 30
0.0
  0
VERTEX
  5
29C
330
28A
100
AcDbEntity
  8
Graypants_Hewn48-8
 62
    36
420
  8866048
370
    -3
100
AcDbVertex
100
AcDb2dVertex
 10
1016.536580131056
 20
-1038.423750816894
 30
0.0
  0
VERTEX
  5
29D
330
28A
100
AcDbEntity
  8
Graypants_Hewn48-8
 62
    36
420
  8866048
370
    -3
100
AcDbVertex
100
AcDb2dVertex
 10
1017.014514662297
 20
-1040.247924288921
 30
0.0
  0
VERTEX
  5
29E
330
28A
100
AcDbEntity
  8
Graypants_Hewn48-8
 62
    36
420
  8866048
370
    -3
100
AcDbVertex
100
AcDb2dVertex
 10
1017.460295933233
 20
-1042.087767494446
 30
0.0
  0
VERTEX
  5
29F
330
28A
100
AcDbEntity
  8
Graypants_Hewn48-8
 62
    36
420
  8866048
370
    -3
100
AcDbVertex
100
AcDb2dVertex
 10
1017.873703748297
 20
-1043.942177082404
 30
0.0
  0
VERTEX
  5
2A0
330
28A
100
AcDbEntity
  8
Graypants_Hewn48-8
 62
    36
420
  8866048
370
    -3
100
AcDbVertex
100
AcDb2dVertex
 10
1018.254517911925
 20
-1045.810049701727
 30
0.0
  0
VERTEX
  5
2A1
330
28A
100
AcDbEntity
  8
Graypants_Hewn48-8
 62
    36
420
  8866048
370
    -3
100
AcDbVertex
100
AcDb2dVertex
 10
1018.602518228549
 20
-1047.690282001348
 30
0.0
  0
VERTEX
  5
2A2
330
28A
100
AcDbEntity
  8
Graypants_Hewn48-8
 62
    36
420
  8866048
370
    -3
100
AcDbVertex
100
AcDb2dVertex
 10
1018.917484502605
 20
-1049.581770630201
 30
0.0
  0
VERTEX
  5
2A3
330
28A
100
AcDbEntity
  8
Graypants_Hewn48-8
 62
    36
420
  8866048
370
    -3
100
AcDbVertex
100
AcDb2dVertex
 10
1019.199196538525
 20
-1051.483412237219
 30
0.0
  0
VERTEX
  5
2A4
330
28A
100
AcDbEntity
  8
Graypants_Hewn48-8
 62
    36
420
  8866048
370
    -3
100
AcDbVertex
100
AcDb2dVertex
 10
1019.442872927572
 20
-1053.356243381295
 30
0.0
  0
VERTEX
  5
2A5
330
28A
100
AcDbEntity
  8
Graypants_Hewn48-8
 62
    36
420
  8866048
370
    -3
100
AcDbVertex
100
AcDb2dVertex
 10
1019.654300309034
 20
-1055.236660959572
 30
0.0
  0
VERTEX
  5
2A6
330
28A
100
AcDbEntity
  8
Graypants_Hewn48-8
 62
    36
420
  8866048
370
    -3
100
AcDbVertex
100
AcDb2dVertex
 10
1019.833399371238
 20
-1057.1235842919
 30
0.0
  0
VERTEX
  5
2A7
330
28A
100
AcDbEntity
  8
Graypants_Hewn48-8
 62
    36
420
  8866048
370
    -3
100
AcDbVertex
100
AcDb2dVertex
 10
1019.980090802509
 20
-1059.015932698128
 30
0.0
  0
VERTEX
  5
2A8
330
28A
100
AcDbEntity
  8
Graypants_Hewn48-8
 62
    36
420
  8866048
370
    -3
100
AcDbVertex
100
AcDb2dVertex
 10
1020.094295291174
 20
-1060.912625498107
 30
0.0
  0
VERTEX
  5
2A9
330
28A
100
AcDbEntity
  8
Graypants_Hewn48-8
 62
    36
420
  8866048
370
    -3
100
AcDbVertex
100
AcDb2dVertex
 10
1020.175933525558
 20
-1062.812582011685
 30
0.0
  0
VERTEX
  5
2AA
330
28A
100
AcDbEntity
  8
Graypants_Hewn48-8
 62
    36
420
  8866048
370
    -3
100
AcDbVertex
100
AcDb2dVertex
 10
1020.224926193987
 20
-1064.714721558712
 30
0.0
  0
VERTEX
  5
2AB
330
28A
100
AcDbEntity
  8
Graypants_Hewn48-8
 62
    36
420
  8866048
370
    -3
100
AcDbVertex
100
AcDb2dVertex
 10
1020.241193984788
 20
-1066.617963459038
 30
0.0
  0
SEQEND
  5
2AC
330
28A
100
AcDbEntity
  8
Graypants_Hewn48-8
 62
    36
420
  8866048
370
    -3
  0
POLYLINE
  5
2AD
330
1F
100
AcDbEntity
  8
Graypants_Hewn48-8
 62
    36
420
  8866048
370
    -3
100
AcDb2dPolyline
 66
     1
 10
0.0
 20
0.0
 30
0.0
  0
VERTEX
  5
2AE
330
2AD
100
AcDbEntity
  8
Graypants_Hewn48-8
 62
    36
420
  8866048
370
    -3
100
AcDbVertex
100
AcDb2dVertex
 10
988.7854289376974
 20
-959.0071396446657
 30
0.0
  0
VERTEX
  5
2AF
330
2AD
100
AcDbEntity
  8
Graypants_Hewn48-8
 62
    36
420
  8866048
370
    -3
100
AcDbVertex
100
AcDb2dVertex
 10
988.8007726733703
 20
-960.8010711349937
 30
0.0
  0
VERTEX
  5
2B0
330
2AD
100
AcDbEntity
  8
Graypants_Hewn48-8
 62
    36
420
  8866048
370
    -3
100
AcDbVertex
100
AcDb2dVertex
 10
988.8469606154217
 20
-962.5939265697151
 30
0.0
  0
VERTEX
  5
2B1
330
2AD
100
AcDbEntity
  8
Graypants_Hewn48-8
 62
    36
420
  8866048
370
    -3
100
AcDbVertex
100
AcDb2dVertex
 10
988.9239068354246
 20
-964.3846168440064
 30
0.0
  0
VERTEX
  5
2B2
330
2AD
100
AcDbEntity
  8
Graypants_Hewn48-8
 62
    36
420
  8866048
370
    -3
100
AcDbVertex
100
AcDb2dVertex
 10
989.0315254049515
 20
-966.1720528530435
 30
0.0
  0
VERTEX
  5
2B3
330
2AD
100
AcDbEntity
  8
Graypants_Hewn48-8
 62
    36
420
  8866048
370
    -3
100
AcDbVertex
100
AcDb2dVertex
 10
989.1697303955749
 20
-967.9551454920027
 30
0.0
  0
VERTEX
  5
2B4
330
2AD
100
AcDbEntity
  8
Graypants_Hewn48-8
 62
    36
420
  8866048
370
    -3
100
AcDbVertex
100
AcDb2dVertex
 10
989.3384358788674
 20
-969.7328056560601
 30
0.0
  0
VERTEX
  5
2B5
330
2AD
100
AcDbEntity
  8
Graypants_Hewn48-8
 62
    36
420
  8866048
370
    -3
100
AcDbVertex
100
AcDb2dVertex
 10
989.5375559264015
 20
-971.5039442403919
 30
0.0
  0
VERTEX
  5
2B6
330
2AD
100
AcDbEntity
  8
Graypants_Hewn48-8
 62
    36
420
  8866048
370
    -3
100
AcDbVertex
100
AcDb2dVertex
 10
989.7670046097501
 20
-973.2674721401742
 30
0.0
  0
VERTEX
  5
2B7
330
2AD
100
AcDbEntity
  8
Graypants_Hewn48-8
 62
    36
420
  8866048
370
    -3
100
AcDbVertex
100
AcDb2dVertex
 10
990.0318998669267
 20
-975.0555765610832
 30
0.0
  0
VERTEX
  5
2B8
330
2AD
100
AcDbEntity
  8
Graypants_Hewn48-8
 62
    36
420
  8866048
370
    -3
100
AcDbVertex
100
AcDb2dVertex
 10
990.3279585179363
 20
-976.8335753880945
 30
0.0
  0
VERTEX
  5
2B9
330
2AD
100
AcDbEntity
  8
Graypants_Hewn48-8
 62
    36
420
  8866048
370
    -3
100
AcDbVertex
100
AcDb2dVertex
 10
990.6549339240831
 20
-978.6003565702767
 30
0.0
  0
VERTEX
  5
2BA
330
2AD
100
AcDbEntity
  8
Graypants_Hewn48-8
 62
    36
420
  8866048
370
    -3
100
AcDbVertex
100
AcDb2dVertex
 10
991.0125794466712
 20
-980.3548080566991
 30
0.0
  0
VERTEX
  5
2BB
330
2AD
100
AcDbEntity
  8
Graypants_Hewn48-8
 62
    36
420
  8866048
370
    -3
100
AcDbVertex
100
AcDb2dVertex
 10
991.4006484470045
 20
-982.0958177964303
 30
0.0
  0
VERTEX
  5
2BC
330
2AD
100
AcDbEntity
  8
Graypants_Hewn48-8
 62
    36
420
  8866048
370
    -3
100
AcDbVertex
100
AcDb2dVertex
 10
991.818894286387
 20
-983.822273738539
 30
0.0
  0
VERTEX
  5
2BD
330
2AD
100
AcDbEntity
  8
Graypants_Hewn48-8
 62
    36
420
  8866048
370
    -3
100
AcDbVertex
100
AcDb2dVertex
 10
992.2670703261227
 20
-985.5330638320943
 30
0.0
  0
VERTEX
  5
2BE
330
2AD
100
AcDbEntity
  8
Graypants_Hewn48-8
 62
    36
420
  8866048
370
    -3
100
AcDbVertex
100
AcDb2dVertex
 10
992.7449299275158
 20
-987.2270760261649
 30
0.0
  0
VERTEX
  5
2BF
330
2AD
100
AcDbEntity
  8
Graypants_Hewn48-8
 62
    36
420
  8866048
370
    -3
100
AcDbVertex
100
AcDb2dVertex
 10
993.251615536482
 20
-988.9013498820793
 30
0.0
  0
VERTEX
  5
2C0
330
2AD
100
AcDbEntity
  8
Graypants_Hewn48-8
 62
    36
420
  8866048
370
    -3
100
AcDbVertex
100
AcDb2dVertex
 10
993.7872624875711
 20
-990.5567667545376
 30
0.0
  0
VERTEX
  5
2C1
330
2AD
100
AcDbEntity
  8
Graypants_Hewn48-8
 62
    36
420
  8866048
370
    -3
100
AcDbVertex
100
AcDb2dVertex
 10
994.3514579243375
 20
-992.1923136357125
 30
0.0
  0
VERTEX
  5
2C2
330
2AD
100
AcDbEntity
  8
Graypants_Hewn48-8
 62
    36
420
  8866048
370
    -3
100
AcDbVertex
100
AcDb2dVertex
 10
994.9437889903355
 20
-993.8069775177762
 30
0.0
  0
VERTEX
  5
2C3
330
2AD
100
AcDbEntity
  8
Graypants_Hewn48-8
 62
    36
420
  8866048
370
    -3
100
AcDbVertex
100
AcDb2dVertex
 10
995.5638428291193
 20
-995.3997453929014
 30
0.0
  0
VERTEX
  5
2C4
330
2AD
100
AcDbEntity
  8
Graypants_Hewn48-8
 62
    36
420
  8866048
370
    -3
100
AcDbVertex
100
AcDb2dVertex
 10
996.2112065842429
 20
-996.9696042532607
 30
0.0
  0
VERTEX
  5
2C5
330
2AD
100
AcDbEntity
  8
Graypants_Hewn48-8
 62
    36
420
  8866048
370
    -3
100
AcDbVertex
100
AcDb2dVertex
 10
996.8854673992605
 20
-998.5155410910264
 30
0.0
  0
VERTEX
  5
2C6
330
2AD
100
AcDbEntity
  8
Graypants_Hewn48-8
 62
    36
420
  8866048
370
    -3
100
AcDbVertex
100
AcDb2dVertex
 10
997.5862124177265
 20
-1000.036542898371
 30
0.0
  0
VERTEX
  5
2C7
330
2AD
100
AcDbEntity
  8
Graypants_Hewn48-8
 62
    36
420
  8866048
370
    -3
100
AcDbVertex
100
AcDb2dVertex
 10
998.2976044421437
 20
-1001.500746836002
 30
0.0
  0
VERTEX
  5
2C8
330
2AD
100
AcDbEntity
  8
Graypants_Hewn48-8
 62
    36
420
  8866048
370
    -3
100
AcDbVertex
100
AcDb2dVertex
 10
999.0334529865676
 20
-1002.939198096921
 30
0.0
  0
VERTEX
  5
2C9
330
2AD
100
AcDbEntity
  8
Graypants_Hewn48-8
 62
    36
420
  8866048
370
    -3
100
AcDbVertex
100
AcDb2dVertex
 10
999.7932410346234
 20
-1004.351070830689
 30
0.0
  0
VERTEX
  5
2CA
330
2AD
100
AcDbEntity
  8
Graypants_Hewn48-8
 62
    36
420
  8866048
370
    -3
100
AcDbVertex
100
AcDb2dVertex
 10
1000.576451569936
 20
-1005.73553918687
 30
0.0
  0
VERTEX
  5
2CB
330
2AD
100
AcDbEntity
  8
Graypants_Hewn48-8
 62
    36
420
  8866048
370
    -3
100
AcDbVertex
100
AcDb2dVertex
 10
1001.382567576131
 20
-1007.091777315028
 30
0.0
  0
VERTEX
  5
2CC
330
2AD
100
AcDbEntity
  8
Graypants_Hewn48-8
 62
    36
420
  8866048
370
    -3
100
AcDbVertex
100
AcDb2dVertex
 10
1002.211072036834
 20
-1008.418959364725
 30
0.0
  0
VERTEX
  5
2CD
330
2AD
100
AcDbEntity
  8
Graypants_Hewn48-8
 62
    36
420
  8866048
370
    -3
100
AcDbVertex
100
AcDb2dVertex
 10
1003.06144793567
 20
-1009.716259485523
 30
0.0
  0
VERTEX
  5
2CE
330
2AD
100
AcDbEntity
  8
Graypants_Hewn48-8
 62
    36
420
  8866048
370
    -3
100
AcDbVertex
100
AcDb2dVertex
 10
1003.933178256263
 20
-1010.982851826987
 30
0.0
  0
SEQEND
  5
2CF
330
2AD
100
AcDbEntity
  8
Graypants_Hewn48-8
 62
    36
420
  8866048
370
    -3
  0
LINE
  5
2D0
330
1F
100
AcDbEntity
  8
Graypants_Hewn48-8
 62
    36
420
  8866048
370
    -3
100
AcDbLine
 10
982.435428937697
 20
-959.0071396446693
 30
0.0
 11
982.4354289373896
 21
-414.109319342446
 31
0.0
  0
LINE
  5
2D1
330
1F
100
AcDbEntity
  8
Graypants_Hewn48-8
 62
    36
420
  8866048
370
    -3
100
AcDbLine
 10
988.78542893739
 20
-414.1093193424424
 30
0.0
 11
988.7854289376974
 21
-959.0071396446657
 31
0.0
  0
ARC
  5
2D2
330
1F
100
AcDbEntity
  8
Graypants_Hewn48-8
 62
    36
420
  8866048
370
    -3
100
AcDbCircle
 10
985.6077555993078
 20
-1103.72580515748
 30
0.0
 40
19.050112470746
100
AcDbArc
 50
21.141706931389
 51
74.92984270264996
  0
ARC
  5
2D3
330
1F
100
AcDbEntity
  8
Graypants_Hewn48-8
 62
    36
420
  8866048
370
    -3
100
AcDbCircle
 10
-985.6078312270429
 20
-1103.725687536794
 30
0.0
 40
21.0819924617951
210
0.0
220
0.0
230
-1.0
100
AcDbArc
 50
19.020616614209
 51
76.41187896604622
  0
LINE
  5
2D4
330
1F
100
AcDbEntity
  8
Graypants_Hewn48-8
 62
    36
420
  8866048
370
    -3
100
AcDbLine
 10
1013.891193984788
 20
-1096.854890006209
 30
0.0
 11
1013.891193984788
 21
-1066.617963459038
 31
0.0
  0
LINE
  5
2D5
330
1F
100
AcDbEntity
  8
Graypants_Hewn48-8
 62
    36
420
  8866048
370
    -3
100
AcDbLine
 10
934.8113315199089
 20
-1298.454890006193
 30
0.0
 11
934.8073071724575
 21
-1298.454890006193
 31
0.0
  0
LINE
  5
2D6
330
1F
100
AcDbEntity
  8
Graypants_Hewn48-8
 62
    36
420
  8866048
370
    -3
100
AcDbLine
 10
1036.411331519907
 20
-1096.854890006209
 30
0.0
 11
934.8113315199089
 21
-1096.854890006209
 31
0.0
  0
LINE
  5
2D7
330
1F
100
AcDbEntity
  8
Graypants_Hewn48-8
 62
    36
420
  8866048
370
    -3
100
AcDbLine
 10
1036.411331519907
 20
-1298.454890006193
 30
0.0
 11
934.8113315199089
 21
-1298.454890006193
 31
0.0
  0
LINE
  5
2D8
330
1F
100
AcDbEntity
  8
Graypants_Hewn48-8
 62
    36
420
  8866048
370
    -3
100
AcDbLine
 10
985.6078153905928
 20
-1073.41564000621
 30
0.0
 11
980.6548153906297
 21
-1073.41564000621
 31
0.0
  0
ARC
  5
2D9
330
1F
100
AcDbEntity
  8
Graypants_Hewn48-8
 62
    36
420
  8866048
370
    -3
100
AcDbCircle
 10
995.7291537038684
 20
-1084.282318535973
 30
0.0
 40
5.273628870249823
100
AcDbArc
 50
168.5316009852134
 51
191.4683990147841
  0
ARC
  5
2DA
330
1F
100
AcDbEntity
  8
Graypants_Hewn48-8
 62
    36
420
  8866048
370
    -3
100
AcDbCircle
 10
975.4864697667634
 20
-1084.28232854724
 30
0.0
 40
5.273636180024109
100
AcDbArc
 50
348.5316090065888
 51
11.46839099336588
  0
LINE
  5
2DB
330
1F
100
AcDbEntity
  8
Graypants_Hewn48-8
 62
    36
420
  8866048
370
    -3
100
AcDbLine
 10
990.5608153906296
 20
-1073.41564000621
 30
0.0
 11
985.6078153905928
 21
-1073.41564000621
 31
0.0
  0
LINE
  5
2DC
330
1F
100
AcDbEntity
  8
Graypants_Hewn48-8
 62
    36
420
  8866048
370
    -3
100
AcDbLine
 10
1063.395315379082
 20
-382.3593193463397
 30
0.0
 11
907.8203153792174
 21
-382.3593193423995
 31
0.0
  0
ARC
  5
2DD
330
1F
100
AcDbEntity
  8
Graypants_Hewn48-8
 62
    36
420
  8866048
370
    -3
100
AcDbCircle
 10
-552.4500000018672
 20
0.0020121756079612
 30
0.0
 40
41.2750000000331
210
0.0
220
0.0
230
-1.0
100
AcDbArc
 50
90.00002337142604
 51
270.0000233999014
  0
ARC
  5
2DE
330
1F
100
AcDbEntity
  8
Graypants_Hewn48-8
 62
    36
420
  8866048
370
    -3
100
AcDbCircle
 10
552.4499999980671
 20
-0.0020121718406629
 30
0.0
 40
41.27500000003307
210
0.0
220
0.0
230
-1.0
100
AcDbArc
 50
270.0000233714343
 51
90.00002339989823
  0
ARC
  5
2DF
330
1F
100
AcDbEntity
  8
Graypants_Hewn48-8
 62
    36
420
  8866048
370
    -3
100
AcDbCircle
 10
552.449994385934
 20
-0.0020093657896041
 30
0.0
 40
38.88825089597226
210
0.0
220
0.0
230
-1.0
100
AcDbArc
 50
270.0000395569615
 51
90.00002694063099
  0
ARC
  5
2E0
330
1F
100
AcDbEntity
  8
Graypants_Hewn48-8
 62
    36
420
  8866048
370
    -3
100
AcDbCircle
 10
-552.4499990113787
 20
0.0020131109738486
 30
0.0
 40
38.88825089597371
210
0.0
220
0.0
230
-1.0
100
AcDbArc
 50
90.00003955695814
 51
270.0000269406383
  0
ARC
  5
2E1
330
1F
100
AcDbEntity
  8
Graypants_Hewn48-8
 62
    36
420
  8866048
370
    -3
100
AcDbCircle
 10
552.4503647863498
 20
-0.0020149791869244
 30
0.0
 40
23.57272143758806
210
0.0
220
0.0
230
-1.0
100
AcDbArc
 50
270.0001169774847
 51
90.00011697683591
  0
ARC
  5
2E2
330
1F
100
AcDbEntity
  8
Graypants_Hewn48-8
 62
    36
420
  8866048
370
    -3
100
AcDbCircle
 10
-552.4500000017692
 20
0.0020121756056754
 30
0.0
 40
23.57272143758887
210
0.0
220
0.0
230
-1.0
100
AcDbArc
 50
90.00011697748197
 51
270.0001170172244
  0
ARC
  5
2E3
330
1F
100
AcDbEntity
  8
Graypants_Hewn48-8
 62
    36
420
  8866048
370
    -3
100
AcDbCircle
 10
-552.4500000019007
 20
0.0020121756089087
 30
0.0
 40
50.79999999999926
210
0.0
220
0.0
230
-1.0
100
AcDbArc
 50
89.99999999999898
 51
270.0000000256058
  0
ARC
  5
2E4
330
1F
100
AcDbEntity
  8
Graypants_Hewn48-8
 62
    36
420
  8866048
370
    -3
100
AcDbCircle
 10
552.4500000019002
 20
-0.002012171841818
 30
0.0
 40
50.79999999999993
210
0.0
220
0.0
230
-1.0
100
AcDbArc
 50
269.9999999957525
 51
90.00000002135494
  0
LINE
  5
2E5
330
1F
100
AcDbEntity
  8
Graypants_Hewn48-8
  6
Continuous
 62
    36
420
  8866048
370
    -3
100
AcDbLine
 10
-570.0154614518658
 20
12.87349592893325
 30
0.0
 11
-565.0154614518653
 21
12.87349592893325
 31
0.0
  0
LINE
  5
2E6
330
1F
100
AcDbEntity
  8
Graypants_Hewn48-8
  6
Continuous
 62
    36
420
  8866048
370
    -3
100
AcDbLine
 10
-565.0154614518653
 20
-13.12650407076207
 30
0.0
 11
-570.0154614518658
 21
-13.12650407076207
 31
0.0
  0
LINE
  5
2E7
330
1F
100
AcDbEntity
  8
Graypants_Hewn48-8
  6
Continuous
 62
    36
420
  8866048
370
    -3
100
AcDbLine
 10
570.0154229676118
 20
-13.12650407076207
 30
0.0
 11
565.0154229676109
 21
-13.12650407076207
 31
0.0
  0
LINE
  5
2E8
330
1F
100
AcDbEntity
  8
Graypants_Hewn48-8
  6
Continuous
 62
    36
420
  8866048
370
    -3
100
AcDbLine
 10
565.0154229676109
 20
12.87349592893325
 30
0.0
 11
570.0154229676118
 21
12.87349592893325
 31
0.0
  0
LINE
  5
2E9
330
1F
100
AcDbEntity
  8
Graypants_Hewn48-8
  6
Continuous
 62
    36
420
  8866048
370
    -3
100
AcDbLine
 10
-570.0154614518658
 20
-10.2308060595391
 30
0.0
 11
-570.0154614518658
 21
12.87349592893325
 31
0.0
  0
LINE
  5
2EA
330
1F
100
AcDbEntity
  8
Graypants_Hewn48-8
  6
Continuous
 62
    36
420
  8866048
370
    -3
100
AcDbLine
 10
-570.0154614518658
 20
-13.12650407076253
 30
0.0
 11
-570.0154614518658
 21
-10.2308060595391
 31
0.0
  0
LINE
  5
2EB
330
1F
100
AcDbEntity
  8
Graypants_Hewn48-8
  6
Continuous
 62
    36
420
  8866048
370
    -3
100
AcDbLine
 10
570.0154229676118
 20
-10.2308060595391
 30
0.0
 11
570.0154229676118
 21
12.87349592893325
 31
0.0
  0
LINE
  5
2EC
330
1F
100
AcDbEntity
  8
Graypants_Hewn48-8
  6
Continuous
 62
    36
420
  8866048
370
    -3
100
AcDbLine
 10
570.0154229676118
 20
-13.12650407076253
 30
0.0
 11
570.0154229676118
 21
-10.2308060595391
 31
0.0
  0
LINE
  5
2ED
330
1F
100
AcDbEntity
  8
Graypants_Hewn48-8
  6
Continuous
 62
    36
420
  8866048
370
    -3
100
AcDbLine
 10
-565.0154614518653
 20
12.87349592893325
 30
0.0
 11
-305.802675620507
 21
12.87349592893325
 31
0.0
  0
LINE
  5
2EE
330
1F
100
AcDbEntity
  8
Graypants_Hewn48-8
  6
Continuous
 62
    36
420
  8866048
370
    -3
100
AcDbLine
 10
-303.7708447915772
 20
12.87349592893325
 30
0.0
 11
228.1008021253315
 21
12.87349592893325
 31
0.0
  0
LINE
  5
2EF
330
1F
100
AcDbEntity
  8
Graypants_Hewn48-8
  6
Continuous
 62
    36
420
  8866048
370
    -3
100
AcDbLine
 10
381.530247661728
 20
12.87349592893325
 30
0.0
 11
565.0154229676109
 21
12.87349592893325
 31
0.0
  0
LINE
  5
2F0
330
1F
100
AcDbEntity
  8
Graypants_Hewn48-8
  6
Continuous
 62
    36
420
  8866048
370
    -3
100
AcDbLine
 10
-565.0154614518653
 20
-13.12650407075935
 30
0.0
 11
-305.8028142316759
 21
-13.12650407075935
 31
0.0
  0
LINE
  5
2F1
330
1F
100
AcDbEntity
  8
Graypants_Hewn48-8
  6
Continuous
 62
    36
420
  8866048
370
    -3
100
AcDbLine
 10
-303.770547823498
 20
-13.12650407075935
 30
0.0
 11
228.1431786836956
 21
-13.12650407075935
 31
0.0
  0
LINE
  5
2F2
330
1F
100
AcDbEntity
  8
Graypants_Hewn48-8
  6
Continuous
 62
    36
420
  8866048
370
    -3
100
AcDbLine
 10
381.4881577359811
 20
-13.12650407075935
 30
0.0
 11
565.0154229676109
 21
-13.12650407075935
 31
0.0
  0
LINE
  5
2F3
330
1F
100
AcDbEntity
  8
Graypants_Hewn48-8
 62
    36
420
  8866048
370
    -3
100
AcDbLine
 10
603.2500000018999
 20
-1096.854890006209
 30
0.0
 11
-603.2500000019002
 21
-1096.854890006209
 31
0.0
  0
LINE
  5
2F4
330
1F
100
AcDbEntity
  8
Graypants_Hewn48-8
 62
    36
420
  8866048
370
    -3
100
AcDbLine
 10
603.2500000018999
 20
-1298.454890006193
 30
0.0
 11
-603.2499999981003
 21
-1298.454890006193
 31
0.0
  0
LINE
  5
2F5
330
1F
100
AcDbEntity
  8
Graypants_Hewn48-8
  6
Continuous
 62
    36
420
  8866048
370
    -3
100
AcDbLine
 10
986.401565389041
 20
-988.1441985969232
 30
0.0
 11
986.401565390629
 21
-1073.41564000621
 31
0.0
  0
LINE
  5
2F6
330
1F
100
AcDbEntity
  8
Graypants_Hewn48-8
  6
Continuous
 62
    36
420
  8866048
370
    -3
100
AcDbLine
 10
984.8140653906294
 20
-1073.41564000621
 30
0.0
 11
984.8140653889213
 21
-981.7347736865075
 31
0.0
  0
LINE
  5
2F7
330
1F
100
AcDbEntity
  8
Graypants_Hewn48-8
 62
    36
420
  8866048
370
    -3
100
AcDbLine
 10
1061.966565377609
 20
-414.1093193463137
 30
0.0
 11
987.5614222185068
 21
-414.1093193444286
 31
0.0
  0
LINE
  5
2F8
330
1F
100
AcDbEntity
  8
Graypants_Hewn48-8
 62
    36
420
  8866048
370
    -3
100
AcDbLine
 10
983.6520138725438
 20
-414.1093193443295
 30
0.0
 11
909.249065379081
 21
-414.1093193424442
 31
0.0
  0
POLYLINE
  5
2F9
330
1F
100
AcDbEntity
  8
Graypants_Hewn48-8
 62
    36
420
  8866048
370
    -3
100
AcDb2dPolyline
 66
     1
 10
0.0
 20
0.0
 30
0.0
  0
VERTEX
  5
2FA
330
2F9
100
AcDbEntity
  8
Graypants_Hewn48-8
 62
    36
420
  8866048
370
    -3
100
AcDbVertex
100
AcDb2dVertex
 10
998.7436411278832
 20
-1014.642251277577
 30
0.0
  0
VERTEX
  5
2FB
330
2F9
100
AcDbEntity
  8
Graypants_Hewn48-8
 62
    36
420
  8866048
370
    -3
100
AcDbVertex
100
AcDb2dVertex
 10
997.791875327329
 20
-1013.259463322011
 30
0.0
  0
VERTEX
  5
2FC
330
2F9
100
AcDbEntity
  8
Graypants_Hewn48-8
 62
    36
420
  8866048
370
    -3
100
AcDbVertex
100
AcDb2dVertex
 10
996.8648137914773
 20
-1011.845392692759
 30
0.0
  0
VERTEX
  5
2FD
330
2F9
100
AcDbEntity
  8
Graypants_Hewn48-8
 62
    36
420
  8866048
370
    -3
100
AcDbVertex
100
AcDb2dVertex
 10
995.96291128759
 20
-1010.400918314958
 30
0.0
  0
VERTEX
  5
2FE
330
2F9
100
AcDbEntity
  8
Graypants_Hewn48-8
 62
    36
420
  8866048
370
    -3
100
AcDbVertex
100
AcDb2dVertex
 10
995.0866225829287
 20
-1008.926919113743
 30
0.0
  0
VERTEX
  5
2FF
330
2F9
100
AcDbEntity
  8
Graypants_Hewn48-8
 62
    36
420
  8866048
370
    -3
100
AcDbVertex
100
AcDb2dVertex
 10
994.2364024447552
 20
-1007.424274014252
 30
0.0
  0
VERTEX
  5
300
330
2F9
100
AcDbEntity
  8
Graypants_Hewn48-8
 62
    36
420
  8866048
370
    -3
100
AcDbVertex
100
AcDb2dVertex
 10
993.4127056403312
 20
-1005.893861941621
 30
0.0
  0
VERTEX
  5
301
330
2F9
100
AcDbEntity
  8
Graypants_Hewn48-8
 62
    36
420
  8866048
370
    -3
100
AcDbVertex
100
AcDb2dVertex
 10
992.6159869369184
 20
-1004.336561820987
 30
0.0
  0
VERTEX
  5
302
330
2F9
100
AcDbEntity
  8
Graypants_Hewn48-8
 62
    36
420
  8866048
370
    -3
100
AcDbVertex
100
AcDb2dVertex
 10
991.8467011017783
 20
-1002.753252577486
 30
0.0
  0
VERTEX
  5
303
330
2F9
100
AcDbEntity
  8
Graypants_Hewn48-8
 62
    36
420
  8866048
370
    -3
100
AcDbVertex
100
AcDb2dVertex
 10
991.0922728763189
 20
-1001.11582575632
 30
0.0
  0
VERTEX
  5
304
330
2F9
100
AcDbEntity
  8
Graypants_Hewn48-8
 62
    36
420
  8866048
370
    -3
100
AcDbVertex
100
AcDb2dVertex
 10
990.3670681970258
 20
-999.4533146588265
 30
0.0
  0
VERTEX
  5
305
330
2F9
100
AcDbEntity
  8
Graypants_Hewn48-8
 62
    36
420
  8866048
370
    -3
100
AcDbVertex
100
AcDb2dVertex
 10
989.6714522637841
 20
-997.7667409608089
 30
0.0
  0
VERTEX
  5
306
330
2F9
100
AcDbEntity
  8
Graypants_Hewn48-8
 62
    36
420
  8866048
370
    -3
100
AcDbVertex
100
AcDb2dVertex
 10
989.0057902764795
 20
-996.0571263380712
 30
0.0
  0
VERTEX
  5
307
330
2F9
100
AcDbEntity
  8
Graypants_Hewn48-8
 62
    36
420
  8866048
370
    -3
100
AcDbVertex
100
AcDb2dVertex
 10
988.3704474349975
 20
-994.3254924664164
 30
0.0
  0
VERTEX
  5
308
330
2F9
100
AcDbEntity
  8
Graypants_Hewn48-8
 62
    36
420
  8866048
370
    -3
100
AcDbVertex
100
AcDb2dVertex
 10
987.7657889392235
 20
-992.5728610216487
 30
0.0
  0
VERTEX
  5
309
330
2F9
100
AcDbEntity
  8
Graypants_Hewn48-8
 62
    36
420
  8866048
370
    -3
100
AcDbVertex
100
AcDb2dVertex
 10
987.1921799890432
 20
-990.8002536795714
 30
0.0
  0
VERTEX
  5
30A
330
2F9
100
AcDbEntity
  8
Graypants_Hewn48-8
 62
    36
420
  8866048
370
    -3
100
AcDbVertex
100
AcDb2dVertex
 10
986.6499857843419
 20
-989.008692115988
 30
0.0
  0
VERTEX
  5
30B
330
2F9
100
AcDbEntity
  8
Graypants_Hewn48-8
 62
    36
420
  8866048
370
    -3
100
AcDbVertex
100
AcDb2dVertex
 10
986.4015315630086
 20
-988.144208152662
 30
0.0
  0
SEQEND
  5
30C
330
2F9
100
AcDbEntity
  8
Graypants_Hewn48-8
 62
    36
420
  8866048
370
    -3
  0
ARC
  5
30D
330
1F
100
AcDbEntity
  8
Graypants_Hewn48-8
 62
    36
420
  8866048
370
    -3
100
AcDbCircle
 10
-1091.345390936372
 20
-959.0970929032509
 30
0.0
 40
108.9099991467339
210
0.0
220
0.0
230
-1.0
100
AcDbArc
 50
348.0032169364637
 51
0.0473229519468904
  0
LINE
  5
30E
330
1F
100
AcDbEntity
  8
Graypants_Hewn48-8
  6
Continuous
 62
    36
420
  8866048
370
    -3
100
AcDbLine
 10
305.8314000560522
 20
12.87349592893325
 30
0.0
 11
381.5299979645442
 21
12.87349592893325
 31
0.0
  0
LINE
  5
30F
330
1F
100
AcDbEntity
  8
Graypants_Hewn48-8
  6
Continuous
 62
    36
420
  8866048
370
    -3
100
AcDbLine
 10
228.1008021253319
 20
12.87349592893325
 30
0.0
 11
303.799400056052
 21
12.87349592893325
 31
0.0
  0
LINE
  5
310
330
1F
100
AcDbEntity
  8
Graypants_Hewn48-8
  6
Continuous
 62
    36
420
  8866048
370
    -3
100
AcDbLine
 10
305.8314000560526
 20
-13.12650407075935
 30
0.0
 11
381.4876214061806
 21
-13.12650407075935
 31
0.0
  0
LINE
  5
311
330
1F
100
AcDbEntity
  8
Graypants_Hewn48-8
  6
Continuous
 62
    36
420
  8866048
370
    -3
100
AcDbLine
 10
228.1436582876286
 20
-13.12650407075935
 30
0.0
 11
303.799400056052
 21
-13.12650407075935
 31
0.0
  0
LINE
  5
312
330
1F
100
AcDbEntity
  8
Graypants_Hewn48-8
  6
Continuous
 62
    36
420
  8866048
370
    -3
100
AcDbLine
 10
985.6078153791495
 20
-384.3913193443698
 30
0.0
 11
977.6068153791493
 21
-384.3913193443698
 31
0.0
  0
LINE
  5
313
330
1F
100
AcDbEntity
  8
Graypants_Hewn48-8
  6
Continuous
 62
    36
420
  8866048
370
    -3
100
AcDbLine
 10
986.6238153792392
 20
-409.9183193443698
 30
0.0
 11
986.6238153792392
 21
-408.6483193443701
 31
0.0
  0
LINE
  5
314
330
1F
100
AcDbEntity
  8
Graypants_Hewn48-8
  6
Continuous
 62
    36
420
  8866048
370
    -3
100
AcDbLine
 10
984.59181537924
 20
-408.6483193443701
 30
0.0
 11
984.59181537924
 21
-409.9183193443698
 31
0.0
  0
LINE
  5
315
330
1F
100
AcDbEntity
  8
Graypants_Hewn48-8
  6
Continuous
 62
    36
420
  8866048
370
    -3
100
AcDbLine
 10
984.59181537924
 20
-408.6483193443701
 30
0.0
 11
986.6238153792392
 21
-408.6483193443703
 31
0.0
  0
LINE
  5
316
330
1F
100
AcDbEntity
  8
Graypants_Hewn48-8
  6
Continuous
 62
    36
420
  8866048
370
    -3
100
AcDbLine
 10
984.59181537924
 20
-409.9183193443698
 30
0.0
 11
979.1308153791506
 21
-409.9183193443698
 31
0.0
  0
LINE
  5
317
330
1F
100
AcDbEntity
  8
Graypants_Hewn48-8
  6
Continuous
 62
    36
420
  8866048
370
    -3
100
AcDbLine
 10
991.6403153791498
 20
-384.39131934437
 30
0.0
 11
991.6403153791498
 21
-407.8863193443715
 31
0.0
  0
LINE
  5
318
330
1F
100
AcDbEntity
  8
Graypants_Hewn48-8
  6
Continuous
 62
    36
420
  8866048
370
    -3
100
AcDbLine
 10
979.5753153791493
 20
-407.8863193443715
 30
0.0
 11
979.5753153791493
 21
-384.39131934437
 31
0.0
  0
LINE
  5
319
330
1F
100
AcDbEntity
  8
Graypants_Hewn48-8
  6
Continuous
 62
    36
420
  8866048
370
    -3
100
AcDbLine
 10
993.6088153791497
 20
-382.3593193443701
 30
0.0
 11
993.6088153791497
 21
-384.3913193443698
 31
0.0
  0
LINE
  5
31A
330
1F
100
AcDbEntity
  8
Graypants_Hewn48-8
  6
Continuous
 62
    36
420
  8866048
370
    -3
100
AcDbLine
 10
977.6068153791493
 20
-384.3913193443698
 30
0.0
 11
977.6068153791493
 21
-382.3593193443701
 31
0.0
  0
LINE
  5
31B
330
1F
100
AcDbEntity
  8
Graypants_Hewn48-8
  6
Continuous
 62
    36
420
  8866048
370
    -3
100
AcDbLine
 10
993.6088153791497
 20
-384.3913193443698
 30
0.0
 11
985.6078153791495
 21
-384.3913193443698
 31
0.0
  0
LINE
  5
31C
330
1F
100
AcDbEntity
  8
Graypants_Hewn48-8
  6
Continuous
 62
    36
420
  8866048
370
    -3
100
AcDbLine
 10
987.5535984922653
 20
-409.9183193442859
 30
0.0
 11
987.5636153791511
 21
-415.2523193443701
 31
0.0
  0
LINE
  5
31D
330
1F
100
AcDbEntity
  8
Graypants_Hewn48-8
  6
Continuous
 62
    36
420
  8866048
370
    -3
100
AcDbLine
 10
983.6520153791507
 20
-415.2523193443701
 30
0.0
 11
983.6519827051998
 21
-409.9183193443685
 31
0.0
  0
LINE
  5
31E
330
1F
100
AcDbEntity
  8
Graypants_Hewn48-8
  6
Continuous
 62
    36
420
  8866048
370
    -3
100
AcDbLine
 10
992.0848153791503
 20
-409.9183193443698
 30
0.0
 11
986.6238153792392
 21
-409.9183193443698
 31
0.0
  0
LINE
  5
31F
330
1F
100
AcDbEntity
  8
Graypants_Hewn48-8
  6
Continuous
 62
    36
420
  8866048
370
    -3
100
AcDbLine
 10
979.1308153791506
 20
-409.9183193443698
 30
0.0
 11
979.1308153791506
 21
-407.8863193443701
 31
0.0
  0
LINE
  5
320
330
1F
100
AcDbEntity
  8
Graypants_Hewn48-8
  6
Continuous
 62
    36
420
  8866048
370
    -3
100
AcDbLine
 10
992.0848153791503
 20
-407.8863193443701
 30
0.0
 11
992.0848153791503
 21
-409.9183193443698
 31
0.0
  0
LINE
  5
321
330
1F
100
AcDbEntity
  8
Graypants_Hewn48-8
  6
Continuous
 62
    36
420
  8866048
370
    -3
100
AcDbLine
 10
992.0848153791512
 20
-407.8863193443701
 30
0.0
 11
979.1308153791506
 21
-407.8863193443701
 31
0.0
  0
LINE
  5
322
330
1F
100
AcDbEntity
  8
Graypants_Hewn48-8
 62
    36
420
  8866048
370
    -3
100
AcDbLine
 10
-570.0154614518658
 20
-12.82650396976639
 30
0.0
 11
-570.015461451866
 21
-10.23080605954092
 31
0.0
  0
LINE
  5
323
330
1F
100
AcDbEntity
  8
Graypants_Hewn48-8
 62
    36
420
  8866048
370
    -3
100
AcDbLine
 10
381.5299979645442
 20
12.87349592893143
 30
0.0
 11
381.5302314490341
 21
12.87349592893143
 31
0.0
  0
LINE
  5
324
330
1F
100
AcDbEntity
  8
Graypants_Hewn48-8
 62
    36
420
  8866048
370
    -3
100
AcDbLine
 10
381.5299979645442
 20
12.8734958272963
 30
0.0
 11
381.5302313751918
 21
12.8734958272963
 31
0.0
  0
LINE
  5
325
330
1F
100
AcDbEntity
  8
Graypants_Hewn48-8
 62
    36
420
  8866048
370
    -3
100
AcDbLine
 10
228.1436301548374
 20
-13.12650396975905
 30
0.0
 11
228.1431786836961
 21
-13.12650396975905
 31
0.0
  0
LINE
  5
326
330
1F
100
AcDbEntity
  8
Graypants_Hewn48-8
 62
    36
420
  8866048
370
    -3
100
AcDbLine
 10
381.4882175082639
 20
-13.12650396975905
 30
0.0
 11
381.4876214061806
 21
-13.12650396975905
 31
0.0
  0
LINE
  5
327
330
1F
100
AcDbEntity
  8
Graypants_Hewn48-8
 62
    36
420
  8866048
370
    -3
100
AcDbLine
 10
381.4876214061806
 20
-13.12650407076116
 30
0.0
 11
381.4882174348813
 21
-13.12650407076116
 31
0.0
  0
LINE
  5
328
330
1F
100
AcDbEntity
  8
Graypants_Hewn48-8
 62
    36
420
  8866048
370
    -3
100
AcDbLine
 10
228.1431786836961
 20
-13.12650407076116
 30
0.0
 11
228.1436300814548
 21
-13.12650407076116
 31
0.0
  0
LINE
  5
329
330
1F
100
AcDbEntity
  8
Graypants_Hewn48-8
  6
Continuous
 62
    36
420
  8866048
370
    -3
100
AcDbLine
 10
986.4015653783663
 20
-415.2523193443701
 30
0.0
 11
986.401565389041
 21
-988.1441985969232
 31
0.0
  0
LINE
  5
32A
330
1F
100
AcDbEntity
  8
Graypants_Hewn48-8
  6
Continuous
 62
    36
420
  8866048
370
    -3
100
AcDbLine
 10
984.8140653889213
 20
-981.7347736865075
 30
0.0
 11
984.8140653783666
 21
-415.2523193443702
 31
0.0
  0
LINE
  5
32B
330
1F
100
AcDbEntity
  8
Graypants_Hewn48-8
  6
Continuous
 62
    36
420
  8866048
370
    -3
100
AcDbLine
 10
987.5636153791511
 20
-415.2523193443701
 30
0.0
 11
983.6520153791507
 21
-415.2523193443701
 31
0.0
  0
LINE
  5
32C
330
1F
100
AcDbEntity
  8
Graypants_Hewn48-8
  6
Continuous
 62
    36
420
  8866048
370
    -3
100
AcDbLine
 10
-303.770844791577
 20
-13.12650407075935
 30
0.0
 11
-303.770547823498
 21
-13.12650407075935
 31
0.0
  0
ENDSEC
  0
SECTION
  2
OBJECTS
  0
DICTIONARY
  5
C
330
0
100
AcDbDictionary
281
     1
  3
ACAD_DETAILVIEWSTYLE
350
368
  3
ACAD_GROUP
350
D
  3
ACAD_LAYOUT
350
1A
  3
ACAD_MATERIAL
350
43
  3
ACAD_MLEADERSTYLE
350
6B
  3
ACAD_MLINESTYLE
350
17
  3
ACAD_PLOTSETTINGS
350
19
  3
ACAD_PLOTSTYLENAME
350
E
  3
ACAD_SCALELIST
350
47
  3
ACAD_SECTIONVIEWSTYLE
350
369
  3
ACAD_TABLESTYLE
350
69
  3
ACAD_VISUALSTYLE
350
2A
  3
AcDbVariableDictionary
350
32D
  3
ACDB_RECOMPOSE_DATA
350
365
  0
SUN
  5
6D
330
29
100
AcDbSun
 90
        1
290
     0
 63
     7
421
 16777215
 40
1.0
291
     1
 91
  2455826
 92
 54000000
292
     0
 70
     2
 71
   256
280
     1
  0
DICTIONARY
  5
368
102
{ACAD_REACTORS
330
C
102
}
330
C
100
AcDbDictionary
281
     1
  0
DICTIONARY
  5
D
102
{ACAD_REACTORS
330
C
102
}
330
C
100
AcDbDictionary
281
     1
  0
DICTIONARY
  5
1A
102
{ACAD_REACTORS
330
C
102
}
330
C
100
AcDbDictionary
281
     1
  3
Layout1
350
1E
  3
Layout2
350
26
  3
Model
350
22
  0
DICTIONARY
  5
43
102
{ACAD_REACTORS
330
C
102
}
330
C
100
AcDbDictionary
281
     1
  3
ByBlock
350
45
  3
ByLayer
350
44
  3
Global
350
46
  0
DICTIONARY
  5
6B
102
{ACAD_REACTORS
330
C
102
}
330
C
100
AcDbDictionary
281
     1
  3
Standard
350
6C
  0
DICTIONARY
  5
17
102
{ACAD_REACTORS
330
C
102
}
330
C
100
AcDbDictionary
281
     1
  3
Standard
350
18
  0
DICTIONARY
  5
19
102
{ACAD_REACTORS
330
C
102
}
330
C
100
AcDbDictionary
281
     1
  0
ACDBDICTIONARYWDFLT
  5
E
102
{ACAD_REACTORS
330
C
102
}
330
C
100
AcDbDictionary
281
     1
  3
Normal
350
F
100
AcDbDictionaryWithDefault
340
F
  0
DICTIONARY
  5
47
102
{ACAD_REACTORS
330
C
102
}
330
C
100
AcDbDictionary
281
     1
  3
A0
350
48
  3
A1
350
49
  3
A2
350
4A
  3
A3
350
4B
  3
A4
350
4C
  3
A5
350
4D
  3
A6
350
4E
  3
A7
350
4F
  3
A8
350
50
  3
A9
350
51
  3
B0
350
52
  3
B1
350
53
  3
B2
350
54
  3
B3
350
55
  3
B4
350
56
  3
B5
350
57
  3
B6
350
58
  3
B7
350
59
  3
B8
350
5A
  3
B9
350
5B
  3
C0
350
5C
  3
C1
350
5D
  3
C2
350
5E
  3
C3
350
5F
  3
C4
350
60
  3
C5
350
61
  3
C6
350
62
  3
C7
350
63
  3
C8
350
64
  3
C9
350
65
  3
D0
350
66
  3
D1
350
67
  3
D2
350
68
  0
DICTIONARY
  5
369
102
{ACAD_REACTORS
330
C
102
}
330
C
100
AcDbDictionary
281
     1
  0
DICTIONARY
  5
69
102
{ACAD_REACTORS
330
C
102
}
330
C
100
AcDbDictionary
281
     1
  3
Standard
350
6A
  0
DICTIONARY
  5
2A
102
{ACAD_REACTORS
330
C
102
}
330
C
100
AcDbDictionary
281
     1
  3
2dWireframe
350
2F
  3
Basic
350
32
  3
Brighten
350
36
  3
ColorChange
350
3A
  3
Conceptual
350
34
  3
Dim
350
35
  3
EdgeColorOff
350
3D
  3
Facepattern
350
39
  3
Flat
350
2B
  3
FlatWithEdges
350
2C
  3
Gouraud
350
2D
  3
GouraudWithEdges
350
2E
  3
Hidden
350
31
  3
JitterOff
350
3B
  3
Linepattern
350
38
  3
OverhangOff
350
3C
  3
Realistic
350
33
  3
Shaded
350
42
  3
Shaded with edges
350
41
  3
Shades of Gray
350
3E
  3
Sketchy
350
3F
  3
Thicken
350
37
  3
Wireframe
350
30
  3
X-Ray
350
40
  0
DICTIONARY
  5
32D
102
{ACAD_REACTORS
330
C
102
}
330
C
100
AcDbDictionary
281
     1
  3
CANNOSCALE
350
32E
  3
CMLEADERSTYLE
350
367
  3
CTABLESTYLE
350
366
  3
XCLIPFRAME
350
32F
  0
XRECORD
  5
365
102
{ACAD_REACTORS
330
C
102
}
330
C
100
AcDbXrecord
280
     1
 90
        1
330
6A
  0
LAYOUT
  5
1E
102
{ACAD_REACTORS
330
1A
102
}
330
1A
100
AcDbPlotSettings
  1

  2
none_device
  4

  6

 40
0.0
 41
0.0
 42
0.0
 43
0.0
 44
0.0
 45
0.0
 46
0.0
 47
0.0
 48
0.0
 49
0.0
140
0.0
141
0.0
142
1.0
143
1.0
 70
   688
 72
     0
 73
     0
 74
     5
  7

 75
    16
 76
     0
 77
     2
 78
   300
147
1.0
148
0.0
149
0.0
100
AcDbLayout
  1
Layout1
 70
     1
 71
     1
 10
0.0
 20
0.0
 11
12.0
 21
9.0
 12
0.0
 22
0.0
 32
0.0
 14
1.000000000000000E+20
 24
1.000000000000000E+20
 34
1.000000000000000E+20
 15
-1.000000000000000E+20
 25
-1.000000000000000E+20
 35
-1.000000000000000E+20
146
0.0
 13
0.0
 23
0.0
 33
0.0
 16
1.0
 26
0.0
 36
0.0
 17
0.0
 27
1.0
 37
0.0
 76
     0
330
1B
  0
LAYOUT
  5
26
102
{ACAD_REACTORS
330
1A
102
}
330
1A
100
AcDbPlotSettings
  1

  2
none_device
  4

  6

 40
0.0
 41
0.0
 42
0.0
 43
0.0
 44
0.0
 45
0.0
 46
0.0
 47
0.0
 48
0.0
 49
0.0
140
0.0
141
0.0
142
1.0
143
1.0
 70
   688
 72
     0
 73
     0
 74
     5
  7

 75
    16
 76
     0
 77
     2
 78
   300
147
1.0
148
0.0
149
0.0
100
AcDbLayout
  1
Layout2
 70
     1
 71
     2
 10
0.0
 20
0.0
 11
0.0
 21
0.0
 12
0.0
 22
0.0
 32
0.0
 14
0.0
 24
0.0
 34
0.0
 15
0.0
 25
0.0
 35
0.0
146
0.0
 13
0.0
 23
0.0
 33
0.0
 16
1.0
 26
0.0
 36
0.0
 17
0.0
 27
1.0
 37
0.0
 76
     0
330
23
  0
LAYOUT
  5
22
102
{ACAD_REACTORS
330
1A
102
}
330
1A
100
AcDbPlotSettings
  1

  2
none_device
  4
Letter_(8.50_x_11.00_Inches)
  6

 40
6.35
 41
6.35
 42
6.35000508
 43
6.35000508
 44
215.9
 45
279.4
 46
0.0
 47
0.0
 48
0.0
 49
0.0
140
0.0
141
0.0
142
1.0
143
1.0
 70
  1712
 72
     0
 73
     0
 74
     0
  7

 75
     0
 76
     0
 77
     2
 78
   300
147
1.0
148
0.0
149
0.0
100
AcDbLayout
  1
Model
 70
     1
 71
     0
 10
0.0
 20
0.0
 11
12.0
 21
9.0
 12
0.0
 22
0.0
 32
0.0
 14
1.000000000000000E+20
 24
1.000000000000000E+20
 34
1.000000000000000E+20
 15
-1.000000000000000E+20
 25
-1.000000000000000E+20
 35
-1.000000000000000E+20
146
0.0
 13
0.0
 23
0.0
 33
0.0
 16
1.0
 26
0.0
 36
0.0
 17
0.0
 27
1.0
 37
0.0
 76
     0
330
1F
331
29
  0
MATERIAL
  5
45
102
{ACAD_REACTORS
330
43
102
}
330
43
100
AcDbMaterial
  1
ByBlock
 72
     1
 94
      127
  0
MATERIAL
  5
44
102
{ACAD_REACTORS
330
43
102
}
330
43
100
AcDbMaterial
  1
ByLayer
 72
     1
 94
      127
  0
MATERIAL
  5
46
102
{ACAD_REACTORS
330
43
102
}
330
43
100
AcDbMaterial
  1
Global
 72
     1
 94
      127
  0
MLEADERSTYLE
  5
6C
102
{ACAD_REACTORS
330
6B
102
}
102
{ACAD_XDICTIONARY
360
363
102
}
330
6B
100
AcDbMLeaderStyle
170
     2
171
     1
172
     0
 90
        2
 40
0.0
 41
0.0
173
     1
 91
-1056964608
340
14
 92
       -2
290
     1
 42
0.09
291
     1
 43
0.36
  3
Standard
341
0
 44
0.18
300

342
11
174
     1
178
     6
175
     1
176
     0
 93
-1056964608
 45
0.18
292
     0
297
     0
 46
0.18
343
0
 94
-1056964608
 47
1.0
 49
1.0
140
1.0
293
     1
141
0.0
294
     1
177
     0
142
1.0
295
     0
296
     0
143
0.125
1001
ACAD_MLEADERVER
1070
     2
  0
MLINESTYLE
  5
18
102
{ACAD_REACTORS
330
17
102
}
330
17
100
AcDbMlineStyle
  2
Standard
 70
     0
  3

 62
   256
 51
90.0
 52
90.0
 71
     2
 49
0.5
 62
   256
  6
BYLAYER
 49
-0.5
 62
   256
  6
BYLAYER
  0
ACDBPLACEHOLDER
  5
F
102
{ACAD_REACTORS
330
E
102
}
330
E
  0
SCALE
  5
48
102
{ACAD_REACTORS
330
47
102
}
330
47
100
AcDbScale
 70
     0
300
1:1
140
1.0
141
1.0
290
     1
  0
SCALE
  5
49
102
{ACAD_REACTORS
330
47
102
}
330
47
100
AcDbScale
 70
     0
300
1:2
140
1.0
141
2.0
290
     0
  0
SCALE
  5
4A
102
{ACAD_REACTORS
330
47
102
}
330
47
100
AcDbScale
 70
     0
300
1:4
140
1.0
141
4.0
290
     0
  0
SCALE
  5
4B
102
{ACAD_REACTORS
330
47
102
}
330
47
100
AcDbScale
 70
     0
300
1:5
140
1.0
141
5.0
290
     0
  0
SCALE
  5
4C
102
{ACAD_REACTORS
330
47
102
}
330
47
100
AcDbScale
 70
     0
300
1:8
140
1.0
141
8.0
290
     0
  0
SCALE
  5
4D
102
{ACAD_REACTORS
330
47
102
}
330
47
100
AcDbScale
 70
     0
300
1:10
140
1.0
141
10.0
290
     0
  0
SCALE
  5
4E
102
{ACAD_REACTORS
330
47
102
}
330
47
100
AcDbScale
 70
     0
300
1:16
140
1.0
141
16.0
290
     0
  0
SCALE
  5
4F
102
{ACAD_REACTORS
330
47
102
}
330
47
100
AcDbScale
 70
     0
300
1:20
140
1.0
141
20.0
290
     0
  0
SCALE
  5
50
102
{ACAD_REACTORS
330
47
102
}
330
47
100
AcDbScale
 70
     0
300
1:30
140
1.0
141
30.0
290
     0
  0
SCALE
  5
51
102
{ACAD_REACTORS
330
47
102
}
330
47
100
AcDbScale
 70
     0
300
1:40
140
1.0
141
40.0
290
     0
  0
SCALE
  5
52
102
{ACAD_REACTORS
330
47
102
}
330
47
100
AcDbScale
 70
     0
300
1:50
140
1.0
141
50.0
290
     0
  0
SCALE
  5
53
102
{ACAD_REACTORS
330
47
102
}
330
47
100
AcDbScale
 70
     0
300
1:100
140
1.0
141
100.0
290
     0
  0
SCALE
  5
54
102
{ACAD_REACTORS
330
47
102
}
330
47
100
AcDbScale
 70
     0
300
2:1
140
2.0
141
1.0
290
     0
  0
SCALE
  5
55
102
{ACAD_REACTORS
330
47
102
}
330
47
100
AcDbScale
 70
     0
300
4:1
140
4.0
141
1.0
290
     0
  0
SCALE
  5
56
102
{ACAD_REACTORS
330
47
102
}
330
47
100
AcDbScale
 70
     0
300
8:1
140
8.0
141
1.0
290
     0
  0
SCALE
  5
57
102
{ACAD_REACTORS
330
47
102
}
330
47
100
AcDbScale
 70
     0
300
10:1
140
10.0
141
1.0
290
     0
  0
SCALE
  5
58
102
{ACAD_REACTORS
330
47
102
}
330
47
100
AcDbScale
 70
     0
300
100:1
140
100.0
141
1.0
290
     0
  0
SCALE
  5
59
102
{ACAD_REACTORS
330
47
102
}
330
47
100
AcDbScale
 70
     0
300
1/128" = 1'-0"
140
0.0078125
141
12.0
290
     0
  0
SCALE
  5
5A
102
{ACAD_REACTORS
330
47
102
}
330
47
100
AcDbScale
 70
     0
300
1/64" = 1'-0"
140
0.015625
141
12.0
290
     0
  0
SCALE
  5
5B
102
{ACAD_REACTORS
330
47
102
}
330
47
100
AcDbScale
 70
     0
300
1/32" = 1'-0"
140
0.03125
141
12.0
290
     0
  0
SCALE
  5
5C
102
{ACAD_REACTORS
330
47
102
}
330
47
100
AcDbScale
 70
     0
300
1/16" = 1'-0"
140
0.0625
141
12.0
290
     0
  0
SCALE
  5
5D
102
{ACAD_REACTORS
330
47
102
}
330
47
100
AcDbScale
 70
     0
300
3/32" = 1'-0"
140
0.09375
141
12.0
290
     0
  0
SCALE
  5
5E
102
{ACAD_REACTORS
330
47
102
}
330
47
100
AcDbScale
 70
     0
300
1/8" = 1'-0"
140
0.125
141
12.0
290
     0
  0
SCALE
  5
5F
102
{ACAD_REACTORS
330
47
102
}
330
47
100
AcDbScale
 70
     0
300
3/16" = 1'-0"
140
0.1875
141
12.0
290
     0
  0
SCALE
  5
60
102
{ACAD_REACTORS
330
47
102
}
330
47
100
AcDbScale
 70
     0
300
1/4" = 1'-0"
140
0.25
141
12.0
290
     0
  0
SCALE
  5
61
102
{ACAD_REACTORS
330
47
102
}
330
47
100
AcDbScale
 70
     0
300
3/8" = 1'-0"
140
0.375
141
12.0
290
     0
  0
SCALE
  5
62
102
{ACAD_REACTORS
330
47
102
}
330
47
100
AcDbScale
 70
     0
300
1/2" = 1'-0"
140
0.5
141
12.0
290
     0
  0
SCALE
  5
63
102
{ACAD_REACTORS
330
47
102
}
330
47
100
AcDbScale
 70
     0
300
3/4" = 1'-0"
140
0.75
141
12.0
290
     0
  0
SCALE
  5
64
102
{ACAD_REACTORS
330
47
102
}
330
47
100
AcDbScale
 70
     0
300
1" = 1'-0"
140
1.0
141
12.0
290
     0
  0
SCALE
  5
65
102
{ACAD_REACTORS
330
47
102
}
330
47
100
AcDbScale
 70
     0
300
1-1/2" = 1'-0"
140
1.5
141
12.0
290
     0
  0
SCALE
  5
66
102
{ACAD_REACTORS
330
47
102
}
330
47
100
AcDbScale
 70
     0
300
3" = 1'-0"
140
3.0
141
12.0
290
     0
  0
SCALE
  5
67
102
{ACAD_REACTORS
330
47
102
}
330
47
100
AcDbScale
 70
     0
300
6" = 1'-0"
140
6.0
141
12.0
290
     0
  0
SCALE
  5
68
102
{ACAD_REACTORS
330
47
102
}
330
47
100
AcDbScale
 70
     0
300
1'-0" = 1'-0"
140
12.0
141
12.0
290
     0
  0
TABLESTYLE
  5
6A
102
{ACAD_REACTORS
330
69
102
}
102
{ACAD_XDICTIONARY
360
360
102
}
330
69
100
AcDbTableStyle
  3
Standard
 70
     0
 71
     0
 40
0.06
 41
0.06
280
     0
281
     0
  7
Standard
140
0.18
170
     2
 62
     0
 63
   257
283
     0
 90
        4
 91
        0
  1

274
    -2
284
     1
 64
     0
275
    -2
285
     1
 65
     0
276
    -2
286
     1
 66
     0
277
    -2
287
     1
 67
     0
278
    -2
288
     1
 68
     0
279
    -2
289
     1
 69
     0
  7
Standard
140
0.25
170
     5
 62
     0
 63
   257
283
     0
 90
        4
 91
        0
  1

274
    -2
284
     1
 64
     0
275
    -2
285
     1
 65
     0
276
    -2
286
     1
 66
     0
277
    -2
287
     1
 67
     0
278
    -2
288
     1
 68
     0
279
    -2
289
     1
 69
     0
  7
Standard
140
0.18
170
     5
 62
     0
 63
   257
283
     0
 90
        4
 91
        0
  1

274
    -2
284
     1
 64
     0
275
    -2
285
     1
 65
     0
276
    -2
286
     1
 66
     0
277
    -2
287
     1
 67
     0
278
    -2
288
     1
 68
     0
279
    -2
289
     1
 69
     0
  0
VISUALSTYLE
  5
2F
102
{ACAD_REACTORS
330
2A
102
}
102
{ACAD_XDICTIONARY
360
338
102
}
330
2A
100
AcDbVisualStyle
  2
2dWireframe
 70
     4
 71
     0
 72
     2
 73
     0
 90
        0
 40
0.6
 41
30.0
 62
     5
 63
     7
421
 16777215
 74
     1
 91
        4
 64
     7
 65
   257
 75
     1
175
     1
 42
1.0
 92
        0
 66
   257
 43
1.0
 76
     1
 77
     6
 78
     2
 67
     7
 79
     5
170
     0
171
     0
290
     0
174
     0
 93
        1
 44
0.0
173
     0
291
     0
 45
0.0
  0
VISUALSTYLE
  5
32
102
{ACAD_REACTORS
330
2A
102
}
102
{ACAD_XDICTIONARY
360
33E
102
}
330
2A
100
AcDbVisualStyle
  2
Basic
 70
     7
 71
     1
 72
     0
 73
     1
 90
        0
 40
0.6
 41
30.0
 62
     5
 63
     7
421
 16777215
 74
     0
 91
        4
 64
     7
 65
   257
 75
     1
175
     1
 42
1.0
 92
        8
 66
     7
 43
1.0
 76
     1
 77
     6
 78
     2
 67
     7
 79
     5
170
     0
171
     0
290
     0
174
     0
 93
        1
 44
0.0
173
     0
291
     1
 45
0.0
  0
VISUALSTYLE
  5
36
102
{ACAD_REACTORS
330
2A
102
}
102
{ACAD_XDICTIONARY
360
346
102
}
330
2A
100
AcDbVisualStyle
  2
Brighten
 70
    12
 71
     2
 72
     2
 73
     0
 90
        0
 40
0.6
 41
30.0
 62
     5
 63
     7
421
 16777215
 74
     1
 91
        4
 64
     7
 65
   257
 75
     1
175
     1
 42
1.0
 92
        8
 66
     7
 43
1.0
 76
     1
 77
     6
 78
     2
 67
     7
 79
     5
170
     0
171
     0
290
     0
174
     0
 93
        1
 44
50.0
173
     0
291
     1
 45
0.0
  0
VISUALSTYLE
  5
3A
102
{ACAD_REACTORS
330
2A
102
}
102
{ACAD_XDICTIONARY
360
34E
102
}
330
2A
100
AcDbVisualStyle
  2
ColorChange
 70
    16
 71
     2
 72
     2
 73
     3
 90
        0
 40
0.6
 41
30.0
 62
     5
 63
     8
421
  8421504
 74
     1
 91
        4
 64
     7
 65
   257
 75
     1
175
     1
 42
1.0
 92
        8
 66
     8
424
  8421504
 43
1.0
 76
     1
 77
     6
 78
     2
 67
     7
 79
     5
170
     0
171
     0
290
     0
174
     0
 93
        1
 44
0.0
173
     0
291
     1
 45
0.0
  0
VISUALSTYLE
  5
34
102
{ACAD_REACTORS
330
2A
102
}
102
{ACAD_XDICTIONARY
360
342
102
}
330
2A
100
AcDbVisualStyle
  2
Conceptual
 70
     9
 71
     3
 72
     2
 73
     0
 90
        0
 40
0.6
 41
30.0
 62
     5
 63
     7
421
 16777215
 74
     2
 91
        2
 64
     7
 65
   257
 75
     1
175
     1
 42
179.0
 92
        8
 66
     7
 43
1.0
 76
     1
 77
     6
 78
     2
 67
     7
 79
     3
170
     0
171
     0
290
     0
174
     0
 93
        1
 44
0.0
173
     0
291
     0
 45
0.0
  0
VISUALSTYLE
  5
35
102
{ACAD_REACTORS
330
2A
102
}
102
{ACAD_XDICTIONARY
360
344
102
}
330
2A
100
AcDbVisualStyle
  2
Dim
 70
    11
 71
     2
 72
     2
 73
     0
 90
        0
 40
0.6
 41
30.0
 62
     5
 63
     7
421
 16777215
 74
     1
 91
        4
 64
     7
 65
   257
 75
     1
175
     1
 42
1.0
 92
        8
 66
     7
 43
1.0
 76
     1
 77
     6
 78
     2
 67
     7
 79
     5
170
     0
171
     0
290
     0
174
     0
 93
        1
 44
-50.0
173
     0
291
     1
 45
0.0
  0
VISUALSTYLE
  5
3D
102
{ACAD_REACTORS
330
2A
102
}
102
{ACAD_XDICTIONARY
360
354
102
}
330
2A
100
AcDbVisualStyle
  2
EdgeColorOff
 70
    22
 71
     2
 72
     2
 73
     0
 90
        0
 40
0.6
 41
30.0
 62
     5
 63
     7
421
 16777215
 74
     1
 91
        4
 64
     7
 65
   257
 75
     1
175
     1
 42
1.0
 92
        8
 66
     7
 43
1.0
 76
     1
 77
     6
 78
     2
 67
     7
 79
     5
170
     0
171
     0
290
     0
174
     0
 93
        1
 44
0.0
173
     0
291
     1
 45
0.0
  0
VISUALSTYLE
  5
39
102
{ACAD_REACTORS
330
2A
102
}
102
{ACAD_XDICTIONARY
360
34C
102
}
330
2A
100
AcDbVisualStyle
  2
Facepattern
 70
    15
 71
     2
 72
     2
 73
     0
 90
        0
 40
0.6
 41
30.0
 62
     5
 63
     7
421
 16777215
 74
     1
 91
        4
 64
     7
 65
   257
 75
     1
175
     1
 42
1.0
 92
        8
 66
     7
 43
1.0
 76
     1
 77
     6
 78
     2
 67
     7
 79
     5
170
     0
171
     0
290
     0
174
     0
 93
        1
 44
0.0
173
     0
291
     1
 45
0.0
  0
VISUALSTYLE
  5
2B
102
{ACAD_REACTORS
330
2A
102
}
102
{ACAD_XDICTIONARY
360
330
102
}
330
2A
100
AcDbVisualStyle
  2
Flat
 70
     0
 71
     2
 72
     1
 73
     1
 90
        2
 40
0.6
 41
30.0
 62
     5
 63
     7
421
 16777215
 74
     0
 91
        0
 64
     7
 65
   257
 75
     1
175
     1
 42
1.0
 92
        8
 66
     7
 43
1.0
 76
     1
 77
     6
 78
     2
 67
     7
 79
     5
170
     0
171
     0
290
     0
174
     0
 93
       13
 44
0.0
173
     0
291
     1
 45
0.0
  0
VISUALSTYLE
  5
2C
102
{ACAD_REACTORS
330
2A
102
}
102
{ACAD_XDICTIONARY
360
332
102
}
330
2A
100
AcDbVisualStyle
  2
FlatWithEdges
 70
     1
 71
     2
 72
     1
 73
     1
 90
        2
 40
0.6
 41
30.0
 62
     5
 63
     7
421
 16777215
 74
     1
 91
        0
 64
     7
 65
   257
 75
     1
175
     1
 42
1.0
 92
        0
 66
   257
 43
1.0
 76
     1
 77
     6
 78
     2
 67
     7
 79
     5
170
     0
171
     0
290
     0
174
     0
 93
       13
 44
0.0
173
     0
291
     1
 45
0.0
  0
VISUALSTYLE
  5
2D
102
{ACAD_REACTORS
330
2A
102
}
102
{ACAD_XDICTIONARY
360
334
102
}
330
2A
100
AcDbVisualStyle
  2
Gouraud
 70
     2
 71
     2
 72
     2
 73
     1
 90
        2
 40
0.6
 41
30.0
 62
     5
 63
     7
421
 16777215
 74
     0
 91
        0
 64
     7
 65
   257
 75
     1
175
     1
 42
1.0
 92
        0
 66
     7
 43
1.0
 76
     1
 77
     6
 78
     2
 67
     7
 79
     5
170
     0
171
     0
290
     0
174
     0
 93
       13
 44
0.0
173
     0
291
     1
 45
0.0
  0
VISUALSTYLE
  5
2E
102
{ACAD_REACTORS
330
2A
102
}
102
{ACAD_XDICTIONARY
360
336
102
}
330
2A
100
AcDbVisualStyle
  2
GouraudWithEdges
 70
     3
 71
     2
 72
     2
 73
     1
 90
        2
 40
0.6
 41
30.0
 62
     5
 63
     7
421
 16777215
 74
     1
 91
        0
 64
     7
 65
   257
 75
     1
175
     1
 42
1.0
 92
        0
 66
   257
 43
1.0
 76
     1
 77
     6
 78
     2
 67
     7
 79
     5
170
     0
171
     0
290
     0
174
     0
 93
       13
 44
0.0
173
     0
291
     1
 45
0.0
  0
VISUALSTYLE
  5
31
102
{ACAD_REACTORS
330
2A
102
}
102
{ACAD_XDICTIONARY
360
33C
102
}
330
2A
100
AcDbVisualStyle
  2
Hidden
 70
     6
 71
     1
 72
     2
 73
     2
 90
        0
 40
0.6
 41
30.0
 62
     5
 63
     7
421
 16777215
 74
     2
 91
        2
 64
     7
 65
   257
 75
     2
175
     1
 42
40.0
 92
        0
 66
   257
 43
1.0
 76
     1
 77
     6
 78
     2
 67
     7
 79
     3
170
     0
171
     0
290
     0
174
     0
 93
        1
 44
0.0
173
     0
291
     0
 45
0.0
  0
VISUALSTYLE
  5
3B
102
{ACAD_REACTORS
330
2A
102
}
102
{ACAD_XDICTIONARY
360
350
102
}
330
2A
100
AcDbVisualStyle
  2
JitterOff
 70
    20
 71
     2
 72
     2
 73
     0
 90
        0
 40
0.6
 41
30.0
 62
     5
 63
     7
421
 16777215
 74
     1
 91
        4
 64
     7
 65
   257
 75
     1
175
     1
 42
1.0
 92
       10
 66
     7
 43
1.0
 76
     1
 77
     6
 78
     2
 67
     7
 79
     5
170
     0
171
     0
290
     0
174
     0
 93
        1
 44
0.0
173
     0
291
     1
 45
0.0
  0
VISUALSTYLE
  5
38
102
{ACAD_REACTORS
330
2A
102
}
102
{ACAD_XDICTIONARY
360
34A
102
}
330
2A
100
AcDbVisualStyle
  2
Linepattern
 70
    14
 71
     2
 72
     2
 73
     0
 90
        0
 40
0.6
 41
30.0
 62
     5
 63
     7
421
 16777215
 74
     1
 91
        4
 64
     7
 65
   257
 75
     7
175
     7
 42
1.0
 92
        8
 66
     7
 43
1.0
 76
     1
 77
     6
 78
     2
 67
     7
 79
     5
170
     0
171
     0
290
     0
174
     0
 93
        1
 44
0.0
173
     0
291
     1
 45
0.0
  0
VISUALSTYLE
  5
3C
102
{ACAD_REACTORS
330
2A
102
}
102
{ACAD_XDICTIONARY
360
352
102
}
330
2A
100
AcDbVisualStyle
  2
OverhangOff
 70
    21
 71
     2
 72
     2
 73
     0
 90
        0
 40
0.6
 41
30.0
 62
     5
 63
     7
421
 16777215
 74
     1
 91
        4
 64
     7
 65
   257
 75
     1
175
     1
 42
1.0
 92
        9
 66
     7
 43
1.0
 76
     1
 77
     6
 78
     2
 67
     7
 79
     5
170
     0
171
     0
290
     0
174
     0
 93
        1
 44
0.0
173
     0
291
     1
 45
0.0
  0
VISUALSTYLE
  5
33
102
{ACAD_REACTORS
330
2A
102
}
102
{ACAD_XDICTIONARY
360
340
102
}
330
2A
100
AcDbVisualStyle
  2
Realistic
 70
     8
 71
     2
 72
     3
 73
     0
 90
        2
 40
0.6
 41
30.0
 62
     5
 63
     7
421
 16777215
 74
     0
 91
        0
 64
     7
 65
   257
 75
     1
175
     1
 42
1.0
 92
        8
 66
   257
 43
1.0
 76
     1
 77
     6
 78
     2
 67
     7
 79
     3
170
     0
171
     0
290
     0
174
     0
 93
       13
 44
0.0
173
     0
291
     0
 45
0.0
  0
VISUALSTYLE
  5
42
102
{ACAD_REACTORS
330
2A
102
}
102
{ACAD_XDICTIONARY
360
35E
102
}
330
2A
100
AcDbVisualStyle
  2
Shaded
 70
    27
 71
     2
 72
     2
 73
     1
 90
        2
 40
0.6
 41
30.0
 62
     5
 63
     7
421
 16777215
 74
     0
 91
        4
 64
     7
 65
   257
 75
     1
175
     1
 42
1.0
 92
        8
 66
   257
 43
1.0
 76
     1
 77
     6
 78
     2
 67
     8
425
  7895160
 79
     3
170
     0
171
     0
290
     0
174
     0
 93
        5
 44
0.0
173
     0
291
     0
 45
0.0
  0
VISUALSTYLE
  5
41
102
{ACAD_REACTORS
330
2A
102
}
102
{ACAD_XDICTIONARY
360
35C
102
}
330
2A
100
AcDbVisualStyle
  2
Shaded with edges
 70
    26
 71
     2
 72
     2
 73
     1
 90
        2
 40
0.6
 41
30.0
 62
     5
 63
     7
421
 16777215
 74
     1
 91
       10
 64
     7
 65
   257
 75
     2
175
     1
 42
1.0
 92
        8
 66
   257
 43
1.0
 76
     1
 77
     6
 78
     2
 67
     7
 79
     3
170
     0
171
     0
290
     0
174
     0
 93
        5
 44
0.0
173
     0
291
     0
 45
0.0
  0
VISUALSTYLE
  5
3E
102
{ACAD_REACTORS
330
2A
102
}
102
{ACAD_XDICTIONARY
360
356
102
}
330
2A
100
AcDbVisualStyle
  2
Shades of Gray
 70
    23
 71
     2
 72
     2
 73
     3
 90
        0
 40
0.6
 41
30.0
 62
     5
 63
     7
421
 16777215
 74
     2
 91
        2
 64
     7
 65
     7
 75
     1
175
     1
 42
40.0
 92
        8
 66
     7
 43
1.0
 76
     1
 77
     6
 78
     2
 67
     7
 79
     3
170
     0
171
     0
290
     0
174
     0
 93
        1
 44
0.0
173
     0
291
     0
 45
0.0
  0
VISUALSTYLE
  5
3F
102
{ACAD_REACTORS
330
2A
102
}
102
{ACAD_XDICTIONARY
360
358
102
}
330
2A
100
AcDbVisualStyle
  2
Sketchy
 70
    24
 71
     1
 72
     2
 73
     2
 90
        0
 40
0.6
 41
30.0
 62
     5
 63
     7
421
 16777215
 74
     2
 91
        2
 64
     7
 65
     7
 75
     1
175
     1
 42
40.0
 92
       11
 66
     7
 43
1.0
 76
     1
 77
     6
 78
     2
 67
     7
 79
     6
170
     0
171
     0
290
     0
174
     0
 93
        1
 44
0.0
173
     0
291
     0
 45
0.0
  0
VISUALSTYLE
  5
37
102
{ACAD_REACTORS
330
2A
102
}
102
{ACAD_XDICTIONARY
360
348
102
}
330
2A
100
AcDbVisualStyle
  2
Thicken
 70
    13
 71
     2
 72
     2
 73
     0
 90
        0
 40
0.6
 41
30.0
 62
     5
 63
     7
421
 16777215
 74
     1
 91
        4
 64
     7
 65
   257
 75
     1
175
     1
 42
1.0
 92
       12
 66
     7
 43
1.0
 76
     1
 77
     6
 78
     2
 67
     7
 79
     5
170
     0
171
     0
290
     0
174
     0
 93
        1
 44
0.0
173
     0
291
     1
 45
0.0
  0
VISUALSTYLE
  5
30
102
{ACAD_REACTORS
330
2A
102
}
102
{ACAD_XDICTIONARY
360
33A
102
}
330
2A
100
AcDbVisualStyle
  2
Wireframe
 70
     5
 71
     0
 72
     2
 73
     0
 90
        0
 40
0.6
 41
30.0
 62
     5
 63
     7
421
 16777215
 74
     1
 91
        4
 64
     7
 65
   257
 75
     1
175
     1
 42
1.0
 92
        0
 66
   257
 43
1.0
 76
     1
 77
     6
 78
     2
 67
     7
 79
     3
170
     0
171
     0
290
     0
174
     0
 93
        1
 44
0.0
173
     0
291
     0
 45
0.0
  0
VISUALSTYLE
  5
40
102
{ACAD_REACTORS
330
2A
102
}
102
{ACAD_XDICTIONARY
360
35A
102
}
330
2A
100
AcDbVisualStyle
  2
X-Ray
 70
    25
 71
     2
 72
     2
 73
     1
 90
        1
 40
0.5
 41
30.0
 62
     5
 63
     7
421
 16777215
 74
     1
 91
        0
 64
     7
 65
   257
 75
     1
175
     1
 42
1.0
 92
        8
 66
     7
 43
1.0
 76
     1
 77
     6
 78
     2
 67
     7
 79
     3
170
     0
171
     0
290
     0
174
     0
 93
       13
 44
0.0
173
     0
291
     0
 45
0.0
  0
DICTIONARYVAR
  5
32E
102
{ACAD_REACTORS
330
32D
102
}
330
32D
100
DictionaryVariables
280
     0
  1
1:1
  0
DICTIONARYVAR
  5
367
102
{ACAD_REACTORS
330
32D
102
}
330
32D
100
DictionaryVariables
280
     0
  1
Standard
  0
DICTIONARYVAR
  5
366
102
{ACAD_REACTORS
330
32D
102
}
330
32D
100
DictionaryVariables
280
     0
  1
Standard
  0
DICTIONARYVAR
  5
32F
102
{ACAD_REACTORS
330
32D
102
}
330
32D
100
DictionaryVariables
280
     0
  1
2
  0
DICTIONARY
  5
363
330
6C
100
AcDbDictionary
280
     1
281
     1
  3
ACAD_XREC_ROUNDTRIP
360
364
  0
DICTIONARY
  5
360
330
6A
100
AcDbDictionary
280
     1
281
     1
  3
ACAD_ROUNDTRIP_2008_TABLESTYLE_CELLSTYLEMAP
360
361
  0
DICTIONARY
  5
338
330
2F
100
AcDbDictionary
280
     1
281
     1
  3
ACAD_XREC_ROUNDTRIP
360
339
  0
DICTIONARY
  5
33E
330
32
100
AcDbDictionary
280
     1
281
     1
  3
ACAD_XREC_ROUNDTRIP
360
33F
  0
DICTIONARY
  5
346
330
36
100
AcDbDictionary
280
     1
281
     1
  3
ACAD_XREC_ROUNDTRIP
360
347
  0
DICTIONARY
  5
34E
330
3A
100
AcDbDictionary
280
     1
281
     1
  3
ACAD_XREC_ROUNDTRIP
360
34F
  0
DICTIONARY
  5
342
330
34
100
AcDbDictionary
280
     1
281
     1
  3
ACAD_XREC_ROUNDTRIP
360
343
  0
DICTIONARY
  5
344
330
35
100
AcDbDictionary
280
     1
281
     1
  3
ACAD_XREC_ROUNDTRIP
360
345
  0
DICTIONARY
  5
354
330
3D
100
AcDbDictionary
280
     1
281
     1
  3
ACAD_XREC_ROUNDTRIP
360
355
  0
DICTIONARY
  5
34C
330
39
100
AcDbDictionary
280
     1
281
     1
  3
ACAD_XREC_ROUNDTRIP
360
34D
  0
DICTIONARY
  5
330
330
2B
100
AcDbDictionary
280
     1
281
     1
  3
ACAD_XREC_ROUNDTRIP
360
331
  0
DICTIONARY
  5
332
330
2C
100
AcDbDictionary
280
     1
281
     1
  3
ACAD_XREC_ROUNDTRIP
360
333
  0
DICTIONARY
  5
334
330
2D
100
AcDbDictionary
280
     1
281
     1
  3
ACAD_XREC_ROUNDTRIP
360
335
  0
DICTIONARY
  5
336
330
2E
100
AcDbDictionary
280
     1
281
     1
  3
ACAD_XREC_ROUNDTRIP
360
337
  0
DICTIONARY
  5
33C
330
31
100
AcDbDictionary
280
     1
281
     1
  3
ACAD_XREC_ROUNDTRIP
360
33D
  0
DICTIONARY
  5
350
330
3B
100
AcDbDictionary
280
     1
281
     1
  3
ACAD_XREC_ROUNDTRIP
360
351
  0
DICTIONARY
  5
34A
330
38
100
AcDbDictionary
280
     1
281
     1
  3
ACAD_XREC_ROUNDTRIP
360
34B
  0
DICTIONARY
  5
352
330
3C
100
AcDbDictionary
280
     1
281
     1
  3
ACAD_XREC_ROUNDTRIP
360
353
  0
DICTIONARY
  5
340
330
33
100
AcDbDictionary
280
     1
281
     1
  3
ACAD_XREC_ROUNDTRIP
360
341
  0
DICTIONARY
  5
35E
330
42
100
AcDbDictionary
280
     1
281
     1
  3
ACAD_XREC_ROUNDTRIP
360
35F
  0
DICTIONARY
  5
35C
330
41
100
AcDbDictionary
280
     1
281
     1
  3
ACAD_XREC_ROUNDTRIP
360
35D
  0
DICTIONARY
  5
356
330
3E
100
AcDbDictionary
280
     1
281
     1
  3
ACAD_XREC_ROUNDTRIP
360
357
  0
DICTIONARY
  5
358
330
3F
100
AcDbDictionary
280
     1
281
     1
  3
ACAD_XREC_ROUNDTRIP
360
359
  0
DICTIONARY
  5
348
330
37
100
AcDbDictionary
280
     1
281
     1
  3
ACAD_XREC_ROUNDTRIP
360
349
  0
DICTIONARY
  5
33A
330
30
100
AcDbDictionary
280
     1
281
     1
  3
ACAD_XREC_ROUNDTRIP
360
33B
  0
DICTIONARY
  5
35A
330
40
100
AcDbDictionary
280
     1
281
     1
  3
ACAD_XREC_ROUNDTRIP
360
35B
  0
XRECORD
  5
364
102
{ACAD_REACTORS
330
363
102
}
330
363
100
AcDbXrecord
280
     1
102
ACAD_ROUNDTRIP_2010_MLEADER_STYLE
  0
CELLSTYLEMAP
  5
361
102
{ACAD_REACTORS
330
360
102
}
330
360
100
AcDbCellStyleMap
 90
        3
300
CELLSTYLE
  1
TABLEFORMAT_BEGIN
 90
        5
170
     1
 91
        0
 92
    32768
 62
   257
 93
        1
300
CONTENTFORMAT
  1
CONTENTFORMAT_BEGIN
 90
        0
 91
        0
 92
        4
 93
        0
300

 40
0.0
140
1.0
 94
        5
 62
     0
340
11
144
0.25
309
CONTENTFORMAT_END
171
     1
301
MARGIN
  1
CELLMARGIN_BEGIN
 40
0.06
 40
0.06
 40
0.06
 40
0.06
 40
0.06
 40
0.06
309
CELLMARGIN_END
 94
        6
 95
        1
302
GRIDFORMAT
  1
GRIDFORMAT_BEGIN
 90
        0
 91
        1
 62
     0
 92
       -2
340
14
 93
        0
 40
0.045
309
GRIDFORMAT_END
 95
        2
302
GRIDFORMAT
  1
GRIDFORMAT_BEGIN
 90
        0
 91
        1
 62
     0
 92
       -2
340
14
 93
        0
 40
0.045
309
GRIDFORMAT_END
 95
        4
302
GRIDFORMAT
  1
GRIDFORMAT_BEGIN
 90
        0
 91
        1
 62
     0
 92
       -2
340
14
 93
        0
 40
0.045
309
GRIDFORMAT_END
 95
        8
302
GRIDFORMAT
  1
GRIDFORMAT_BEGIN
 90
        0
 91
        1
 62
     0
 92
       -2
340
14
 93
        0
 40
0.045
309
GRIDFORMAT_END
 95
       16
302
GRIDFORMAT
  1
GRIDFORMAT_BEGIN
 90
        0
 91
        1
 62
     0
 92
       -2
340
14
 93
        0
 40
0.045
309
GRIDFORMAT_END
 95
       32
302
GRIDFORMAT
  1
GRIDFORMAT_BEGIN
 90
        0
 91
        1
 62
     0
 92
       -2
340
14
 93
        0
 40
0.045
309
GRIDFORMAT_END
309
TABLEFORMAT_END
  1
CELLSTYLE_BEGIN
 90
        1
 91
        1
300
_TITLE
309
CELLSTYLE_END
300
CELLSTYLE
  1
TABLEFORMAT_BEGIN
 90
        5
170
     1
 91
        0
 92
        0
 62
   257
 93
        1
300
CONTENTFORMAT
  1
CONTENTFORMAT_BEGIN
 90
        0
 91
        0
 92
        4
 93
        0
300

 40
0.0
140
1.0
 94
        5
 62
     0
340
11
144
0.18
309
CONTENTFORMAT_END
171
     1
301
MARGIN
  1
CELLMARGIN_BEGIN
 40
0.06
 40
0.06
 40
0.06
 40
0.06
 40
0.06
 40
0.06
309
CELLMARGIN_END
 94
        6
 95
        1
302
GRIDFORMAT
  1
GRIDFORMAT_BEGIN
 90
        0
 91
        1
 62
     0
 92
       -2
340
14
 93
        0
 40
0.045
309
GRIDFORMAT_END
 95
        2
302
GRIDFORMAT
  1
GRIDFORMAT_BEGIN
 90
        0
 91
        1
 62
     0
 92
       -2
340
14
 93
        0
 40
0.045
309
GRIDFORMAT_END
 95
        4
302
GRIDFORMAT
  1
GRIDFORMAT_BEGIN
 90
        0
 91
        1
 62
     0
 92
       -2
340
14
 93
        0
 40
0.045
309
GRIDFORMAT_END
 95
        8
302
GRIDFORMAT
  1
GRIDFORMAT_BEGIN
 90
        0
 91
        1
 62
     0
 92
       -2
340
14
 93
        0
 40
0.045
309
GRIDFORMAT_END
 95
       16
302
GRIDFORMAT
  1
GRIDFORMAT_BEGIN
 90
        0
 91
        1
 62
     0
 92
       -2
340
14
 93
        0
 40
0.045
309
GRIDFORMAT_END
 95
       32
302
GRIDFORMAT
  1
GRIDFORMAT_BEGIN
 90
        0
 91
        1
 62
     0
 92
       -2
340
14
 93
        0
 40
0.045
309
GRIDFORMAT_END
309
TABLEFORMAT_END
  1
CELLSTYLE_BEGIN
 90
        2
 91
        1
300
_HEADER
309
CELLSTYLE_END
300
CELLSTYLE
  1
TABLEFORMAT_BEGIN
 90
        5
170
     1
 91
        0
 92
        0
 62
   257
 93
        1
300
CONTENTFORMAT
  1
CONTENTFORMAT_BEGIN
 90
        0
 91
        0
 92
        4
 93
        0
300

 40
0.0
140
1.0
 94
        2
 62
     0
340
11
144
0.18
309
CONTENTFORMAT_END
171
     1
301
MARGIN
  1
CELLMARGIN_BEGIN
 40
0.06
 40
0.06
 40
0.06
 40
0.06
 40
0.06
 40
0.06
309
CELLMARGIN_END
 94
        6
 95
        1
302
GRIDFORMAT
  1
GRIDFORMAT_BEGIN
 90
        0
 91
        1
 62
     0
 92
       -2
340
14
 93
        0
 40
0.045
309
GRIDFORMAT_END
 95
        2
302
GRIDFORMAT
  1
GRIDFORMAT_BEGIN
 90
        0
 91
        1
 62
     0
 92
       -2
340
14
 93
        0
 40
0.045
309
GRIDFORMAT_END
 95
        4
302
GRIDFORMAT
  1
GRIDFORMAT_BEGIN
 90
        0
 91
        1
 62
     0
 92
       -2
340
14
 93
        0
 40
0.045
309
GRIDFORMAT_END
 95
        8
302
GRIDFORMAT
  1
GRIDFORMAT_BEGIN
 90
        0
 91
        1
 62
     0
 92
       -2
340
14
 93
        0
 40
0.045
309
GRIDFORMAT_END
 95
       16
302
GRIDFORMAT
  1
GRIDFORMAT_BEGIN
 90
        0
 91
        1
 62
     0
 92
       -2
340
14
 93
        0
 40
0.045
309
GRIDFORMAT_END
 95
       32
302
GRIDFORMAT
  1
GRIDFORMAT_BEGIN
 90
        0
 91
        1
 62
     0
 92
       -2
340
14
 93
        0
 40
0.045
309
GRIDFORMAT_END
309
TABLEFORMAT_END
  1
CELLSTYLE_BEGIN
 90
        3
 91
        2
300
_DATA
309
CELLSTYLE_END
  0
XRECORD
  5
339
102
{ACAD_REACTORS
330
338
102
}
330
338
100
AcDbXrecord
280
     1
102
RTVSPropertyOp0
 70
     1
102
RTVSPropertyOp1
 70
     1
102
RTVSPropertyOp2
 70
     1
102
RTVSPropertyOp3
 70
     1
102
RTVSPropertyOp4
 70
     1
102
RTVSPropertyOp5
 70
     1
102
RTVSPropertyOp6
 70
     1
102
RTVSPropertyOp7
 70
     1
102
RTVSPropertyOp8
 70
     1
102
RTVSPropertyOp9
 70
     1
102
RTVSPropertyOp10
 70
     1
102
RTVSPropertyOp11
 70
     1
102
RTVSPropertyOp12
 70
     1
102
RTVSPropertyOp13
 70
     1
102
RTVSPropertyOp14
 70
     1
102
RTVSPropertyOp15
 70
     1
102
RTVSPropertyOp16
 70
     1
102
RTVSPropertyOp17
 70
     1
102
RTVSPropertyOp18
 70
     1
102
RTVSPropertyOp19
 70
     1
102
RTVSPropertyOp20
 70
     1
102
RTVSPropertyOp21
 70
     1
102
RTVSPropertyOp22
 70
     1
102
RTVSPropertyOp23
 70
     1
102
RTVSPropertyOp24
 70
     1
102
RTVSPropertyOp25
 70
     1
102
RTVSPropertyOp26
 70
     1
102
RTVSPropertyOp27
 70
     1
102
RTVSPropertyOp28
 70
     1
102
RTVSPropertyOp29
 70
     1
102
RTVSPropertyOp30
 70
     1
102
RTVSPropertyOp31
 70
     1
102
RTVSPropertyOp32
 70
     1
102
RTVSPropertyOp33
 70
     1
102
RTVSPropertyOp34
 70
     1
102
RTVSPropertyOp35
 70
     1
102
RTVSPropertyOp36
 70
     1
102
RTVSPropertyOp37
 70
     1
102
RTVSPropertyOp38
 70
     1
102
RTVSPropertyOp39
 70
     1
102
RTVSPropertyOp40
 70
     1
102
RTVSPropertyOp41
 70
     1
102
RTVSPropertyOp42
 70
     1
102
RTVSPropertyOp43
 70
     1
102
RTVSPropertyOp44
 70
     1
102
RTVSPropertyOp45
 70
     1
102
RTVSPropertyOp46
 70
     1
102
RTVSPropertyOp47
 70
     1
102
RTVSPropertyOp48
 70
     1
102
RTVSPropertyOp49
 70
     1
102
RTVSPropertyOp50
 70
     1
102
RTVSPropertyOp51
 70
     0
102
RTVSPropertyOp52
 70
     0
102
RTVSPropertyOp53
 70
     1
102
RTVSPropertyOp54
 70
     1
102
RTVSPropertyOp55
 70
     1
102
RTVSPropertyOp56
 70
     1
102
RTVSPropertyOp57
 70
     1
102
RTVSPost2010Prop28
280
     1
102
RTVSPost2010PropOp28
 70
     1
102
RTVSPost2010Prop29
280
     1
102
RTVSPost2010PropOp29
 70
     1
102
RTVSPost2010Prop30
280
     0
102
RTVSPost2010PropOp30
 70
     1
102
RTVSPost2010Prop31
280
     0
102
RTVSPost2010PropOp31
 70
     1
102
RTVSPost2010Prop32
280
     0
102
RTVSPost2010PropOp32
 70
     1
102
RTVSPost2010Prop33
280
     0
102
RTVSPost2010PropOp33
 70
     1
102
RTVSPost2010Prop34
280
     0
102
RTVSPost2010PropOp34
 70
     1
102
RTVSPost2010Prop35
280
     0
102
RTVSPost2010PropOp35
 70
     1
102
RTVSPost2010Prop36
280
     0
102
RTVSPost2010PropOp36
 70
     1
102
RTVSPost2010Prop37
 90
       50
102
RTVSPost2010PropOp37
 70
     1
102
RTVSPost2010Prop38
140
0.0
102
RTVSPost2010PropOp38
 70
     1
102
RTVSPost2010Prop39
140
1.0
102
RTVSPost2010PropOp39
 70
     1
102
RTVSPost2010Prop40
 90
        0
102
RTVSPost2010PropOp40
 70
     1
102
RTVSPost2010Prop41ColorIndex
 90
      178
102
RTVSPost2010Prop41ColorRGB
 90
        0
102
RTVSPost2010PropOp41
 70
     1
102
RTVSPost2010Prop42
 90
       50
102
RTVSPost2010PropOp42
 70
     1
102
RTVSPost2010Prop43
 90
        3
102
RTVSPost2010PropOp43
 70
     1
102
RTVSPost2010Prop44ColorIndex
 90
        5
102
RTVSPost2010Prop44ColorRGB
 90
      255
102
RTVSPost2010PropOp44
 70
     1
102
RTVSPost2010Prop45
280
     0
102
RTVSPost2010PropOp45
 70
     1
102
RTVSPost2010Prop46
 90
       50
102
RTVSPost2010PropOp46
 70
     1
102
RTVSPost2010Prop47
 90
       50
102
RTVSPost2010PropOp47
 70
     1
102
RTVSPost2010Prop48
 90
       50
102
RTVSPost2010PropOp48
 70
     1
102
RTVSPost2010Prop49
280
     0
102
RTVSPost2010PropOp49
 70
     1
102
RTVSPost2010Prop50
 90
       50
102
RTVSPost2010PropOp50
 70
     1
102
RTVSPost2010Prop51ColorIndex
 90
      256
102
RTVSPost2010Prop51ColorRGB
 90
-16777216
102
RTVSPost2010PropOp51
 70
     0
102
RTVSPost2010Prop52
140
1.0
102
RTVSPost2010PropOp52
 70
     0
102
RTVSPost2010Prop53
 90
        2
102
RTVSPost2010PropOp53
 70
     1
102
RTVSPost2010Prop54
  1
strokes_ogs.tif
102
RTVSPost2010PropOp54
 70
     1
102
RTVSPost2010Prop55
280
     0
102
RTVSPost2010PropOp55
 70
     1
102
RTVSPost2010Prop56
140
1.0
102
RTVSPost2010PropOp56
 70
     1
102
RTVSPost2010Prop57
140
1.0
102
RTVSPost2010PropOp57
 70
     1
  0
XRECORD
  5
33F
102
{ACAD_REACTORS
330
33E
102
}
330
33E
100
AcDbXrecord
280
     1
102
RTVSPropertyOp0
 70
     1
102
RTVSPropertyOp1
 70
     1
102
RTVSPropertyOp2
 70
     1
102
RTVSPropertyOp3
 70
     1
102
RTVSPropertyOp4
 70
     1
102
RTVSPropertyOp5
 70
     1
102
RTVSPropertyOp6
 70
     1
102
RTVSPropertyOp7
 70
     1
102
RTVSPropertyOp8
 70
     1
102
RTVSPropertyOp9
 70
     1
102
RTVSPropertyOp10
 70
     1
102
RTVSPropertyOp11
 70
     1
102
RTVSPropertyOp12
 70
     1
102
RTVSPropertyOp13
 70
     1
102
RTVSPropertyOp14
 70
     1
102
RTVSPropertyOp15
 70
     1
102
RTVSPropertyOp16
 70
     1
102
RTVSPropertyOp17
 70
     1
102
RTVSPropertyOp18
 70
     1
102
RTVSPropertyOp19
 70
     1
102
RTVSPropertyOp20
 70
     1
102
RTVSPropertyOp21
 70
     1
102
RTVSPropertyOp22
 70
     1
102
RTVSPropertyOp23
 70
     1
102
RTVSPropertyOp24
 70
     1
102
RTVSPropertyOp25
 70
     1
102
RTVSPropertyOp26
 70
     1
102
RTVSPropertyOp27
 70
     1
102
RTVSPropertyOp28
 70
     1
102
RTVSPropertyOp29
 70
     1
102
RTVSPropertyOp30
 70
     1
102
RTVSPropertyOp31
 70
     1
102
RTVSPropertyOp32
 70
     1
102
RTVSPropertyOp33
 70
     1
102
RTVSPropertyOp34
 70
     1
102
RTVSPropertyOp35
 70
     1
102
RTVSPropertyOp36
 70
     1
102
RTVSPropertyOp37
 70
     1
102
RTVSPropertyOp38
 70
     1
102
RTVSPropertyOp39
 70
     1
102
RTVSPropertyOp40
 70
     1
102
RTVSPropertyOp41
 70
     1
102
RTVSPropertyOp42
 70
     1
102
RTVSPropertyOp43
 70
     1
102
RTVSPropertyOp44
 70
     1
102
RTVSPropertyOp45
 70
     1
102
RTVSPropertyOp46
 70
     1
102
RTVSPropertyOp47
 70
     1
102
RTVSPropertyOp48
 70
     1
102
RTVSPropertyOp49
 70
     1
102
RTVSPropertyOp50
 70
     1
102
RTVSPropertyOp51
 70
     0
102
RTVSPropertyOp52
 70
     0
102
RTVSPropertyOp53
 70
     1
102
RTVSPropertyOp54
 70
     1
102
RTVSPropertyOp55
 70
     1
102
RTVSPropertyOp56
 70
     1
102
RTVSPropertyOp57
 70
     1
102
RTVSPost2010Prop28
280
     0
102
RTVSPost2010PropOp28
 70
     1
102
RTVSPost2010Prop29
280
     1
102
RTVSPost2010PropOp29
 70
     1
102
RTVSPost2010Prop30
280
     1
102
RTVSPost2010PropOp30
 70
     1
102
RTVSPost2010Prop31
280
     0
102
RTVSPost2010PropOp31
 70
     1
102
RTVSPost2010Prop32
280
     0
102
RTVSPost2010PropOp32
 70
     1
102
RTVSPost2010Prop33
280
     0
102
RTVSPost2010PropOp33
 70
     1
102
RTVSPost2010Prop34
280
     0
102
RTVSPost2010PropOp34
 70
     1
102
RTVSPost2010Prop35
280
     0
102
RTVSPost2010PropOp35
 70
     1
102
RTVSPost2010Prop36
280
     0
102
RTVSPost2010PropOp36
 70
     1
102
RTVSPost2010Prop37
 90
       50
102
RTVSPost2010PropOp37
 70
     1
102
RTVSPost2010Prop38
140
0.0
102
RTVSPost2010PropOp38
 70
     1
102
RTVSPost2010Prop39
140
1.0
102
RTVSPost2010PropOp39
 70
     1
102
RTVSPost2010Prop40
 90
        0
102
RTVSPost2010PropOp40
 70
     1
102
RTVSPost2010Prop41ColorIndex
 90
      178
102
RTVSPost2010Prop41ColorRGB
 90
        0
102
RTVSPost2010PropOp41
 70
     1
102
RTVSPost2010Prop42
 90
       50
102
RTVSPost2010PropOp42
 70
     1
102
RTVSPost2010Prop43
 90
        3
102
RTVSPost2010PropOp43
 70
     1
102
RTVSPost2010Prop44ColorIndex
 90
        5
102
RTVSPost2010Prop44ColorRGB
 90
      255
102
RTVSPost2010PropOp44
 70
     1
102
RTVSPost2010Prop45
280
     0
102
RTVSPost2010PropOp45
 70
     1
102
RTVSPost2010Prop46
 90
       50
102
RTVSPost2010PropOp46
 70
     1
102
RTVSPost2010Prop47
 90
       50
102
RTVSPost2010PropOp47
 70
     1
102
RTVSPost2010Prop48
 90
       50
102
RTVSPost2010PropOp48
 70
     1
102
RTVSPost2010Prop49
280
     0
102
RTVSPost2010PropOp49
 70
     1
102
RTVSPost2010Prop50
 90
       50
102
RTVSPost2010PropOp50
 70
     1
102
RTVSPost2010Prop51ColorIndex
 90
      256
102
RTVSPost2010Prop51ColorRGB
 90
-16777216
102
RTVSPost2010PropOp51
 70
     0
102
RTVSPost2010Prop52
140
1.0
102
RTVSPost2010PropOp52
 70
     0
102
RTVSPost2010Prop53
 90
        2
102
RTVSPost2010PropOp53
 70
     1
102
RTVSPost2010Prop54
  1
strokes_ogs.tif
102
RTVSPost2010PropOp54
 70
     1
102
RTVSPost2010Prop55
280
     0
102
RTVSPost2010PropOp55
 70
     1
102
RTVSPost2010Prop56
140
1.0
102
RTVSPost2010PropOp56
 70
     1
102
RTVSPost2010Prop57
140
1.0
102
RTVSPost2010PropOp57
 70
     1
  0
XRECORD
  5
347
102
{ACAD_REACTORS
330
346
102
}
330
346
100
AcDbXrecord
280
     1
102
RTVSPropertyOp0
 70
     1
102
RTVSPropertyOp1
 70
     1
102
RTVSPropertyOp2
 70
     1
102
RTVSPropertyOp3
 70
     1
102
RTVSPropertyOp4
 70
     1
102
RTVSPropertyOp5
 70
     1
102
RTVSPropertyOp6
 70
     1
102
RTVSPropertyOp7
 70
     1
102
RTVSPropertyOp8
 70
     1
102
RTVSPropertyOp9
 70
     1
102
RTVSPropertyOp10
 70
     1
102
RTVSPropertyOp11
 70
     1
102
RTVSPropertyOp12
 70
     1
102
RTVSPropertyOp13
 70
     1
102
RTVSPropertyOp14
 70
     1
102
RTVSPropertyOp15
 70
     1
102
RTVSPropertyOp16
 70
     1
102
RTVSPropertyOp17
 70
     1
102
RTVSPropertyOp18
 70
     1
102
RTVSPropertyOp19
 70
     1
102
RTVSPropertyOp20
 70
     1
102
RTVSPropertyOp21
 70
     1
102
RTVSPropertyOp22
 70
     1
102
RTVSPropertyOp23
 70
     1
102
RTVSPropertyOp24
 70
     1
102
RTVSPropertyOp25
 70
     1
102
RTVSPropertyOp26
 70
     1
102
RTVSPropertyOp27
 70
     1
102
RTVSPropertyOp28
 70
     1
102
RTVSPropertyOp29
 70
     1
102
RTVSPropertyOp30
 70
     1
102
RTVSPropertyOp31
 70
     1
102
RTVSPropertyOp32
 70
     1
102
RTVSPropertyOp33
 70
     1
102
RTVSPropertyOp34
 70
     1
102
RTVSPropertyOp35
 70
     1
102
RTVSPropertyOp36
 70
     1
102
RTVSPropertyOp37
 70
     1
102
RTVSPropertyOp38
 70
     1
102
RTVSPropertyOp39
 70
     1
102
RTVSPropertyOp40
 70
     1
102
RTVSPropertyOp41
 70
     1
102
RTVSPropertyOp42
 70
     1
102
RTVSPropertyOp43
 70
     1
102
RTVSPropertyOp44
 70
     1
102
RTVSPropertyOp45
 70
     1
102
RTVSPropertyOp46
 70
     1
102
RTVSPropertyOp47
 70
     1
102
RTVSPropertyOp48
 70
     1
102
RTVSPropertyOp49
 70
     1
102
RTVSPropertyOp50
 70
     1
102
RTVSPropertyOp51
 70
     0
102
RTVSPropertyOp52
 70
     0
102
RTVSPropertyOp53
 70
     1
102
RTVSPropertyOp54
 70
     1
102
RTVSPropertyOp55
 70
     1
102
RTVSPropertyOp56
 70
     1
102
RTVSPropertyOp57
 70
     1
102
RTVSPost2010Prop28
280
     0
102
RTVSPost2010PropOp28
 70
     1
102
RTVSPost2010Prop29
280
     1
102
RTVSPost2010PropOp29
 70
     1
102
RTVSPost2010Prop30
280
     1
102
RTVSPost2010PropOp30
 70
     1
102
RTVSPost2010Prop31
280
     0
102
RTVSPost2010PropOp31
 70
     1
102
RTVSPost2010Prop32
280
     0
102
RTVSPost2010PropOp32
 70
     1
102
RTVSPost2010Prop33
280
     0
102
RTVSPost2010PropOp33
 70
     1
102
RTVSPost2010Prop34
280
     0
102
RTVSPost2010PropOp34
 70
     1
102
RTVSPost2010Prop35
280
     0
102
RTVSPost2010PropOp35
 70
     1
102
RTVSPost2010Prop36
280
     0
102
RTVSPost2010PropOp36
 70
     1
102
RTVSPost2010Prop37
 90
       50
102
RTVSPost2010PropOp37
 70
     1
102
RTVSPost2010Prop38
140
0.0
102
RTVSPost2010PropOp38
 70
     1
102
RTVSPost2010Prop39
140
1.0
102
RTVSPost2010PropOp39
 70
     1
102
RTVSPost2010Prop40
 90
        0
102
RTVSPost2010PropOp40
 70
     1
102
RTVSPost2010Prop41ColorIndex
 90
      178
102
RTVSPost2010Prop41ColorRGB
 90
        0
102
RTVSPost2010PropOp41
 70
     1
102
RTVSPost2010Prop42
 90
       50
102
RTVSPost2010PropOp42
 70
     1
102
RTVSPost2010Prop43
 90
        3
102
RTVSPost2010PropOp43
 70
     1
102
RTVSPost2010Prop44ColorIndex
 90
        5
102
RTVSPost2010Prop44ColorRGB
 90
      255
102
RTVSPost2010PropOp44
 70
     1
102
RTVSPost2010Prop45
280
     0
102
RTVSPost2010PropOp45
 70
     1
102
RTVSPost2010Prop46
 90
       50
102
RTVSPost2010PropOp46
 70
     1
102
RTVSPost2010Prop47
 90
       50
102
RTVSPost2010PropOp47
 70
     1
102
RTVSPost2010Prop48
 90
       50
102
RTVSPost2010PropOp48
 70
     1
102
RTVSPost2010Prop49
280
     0
102
RTVSPost2010PropOp49
 70
     1
102
RTVSPost2010Prop50
 90
       50
102
RTVSPost2010PropOp50
 70
     1
102
RTVSPost2010Prop51ColorIndex
 90
      256
102
RTVSPost2010Prop51ColorRGB
 90
-16777216
102
RTVSPost2010PropOp51
 70
     0
102
RTVSPost2010Prop52
140
1.0
102
RTVSPost2010PropOp52
 70
     0
102
RTVSPost2010Prop53
 90
        2
102
RTVSPost2010PropOp53
 70
     1
102
RTVSPost2010Prop54
  1
strokes_ogs.tif
102
RTVSPost2010PropOp54
 70
     1
102
RTVSPost2010Prop55
280
     0
102
RTVSPost2010PropOp55
 70
     1
102
RTVSPost2010Prop56
140
1.0
102
RTVSPost2010PropOp56
 70
     1
102
RTVSPost2010Prop57
140
1.0
102
RTVSPost2010PropOp57
 70
     1
  0
XRECORD
  5
34F
102
{ACAD_REACTORS
330
34E
102
}
330
34E
100
AcDbXrecord
280
     1
102
RTVSPropertyOp0
 70
     1
102
RTVSPropertyOp1
 70
     1
102
RTVSPropertyOp2
 70
     1
102
RTVSPropertyOp3
 70
     1
102
RTVSPropertyOp4
 70
     1
102
RTVSPropertyOp5
 70
     1
102
RTVSPropertyOp6
 70
     1
102
RTVSPropertyOp7
 70
     1
102
RTVSPropertyOp8
 70
     1
102
RTVSPropertyOp9
 70
     1
102
RTVSPropertyOp10
 70
     1
102
RTVSPropertyOp11
 70
     1
102
RTVSPropertyOp12
 70
     1
102
RTVSPropertyOp13
 70
     1
102
RTVSPropertyOp14
 70
     1
102
RTVSPropertyOp15
 70
     1
102
RTVSPropertyOp16
 70
     1
102
RTVSPropertyOp17
 70
     1
102
RTVSPropertyOp18
 70
     1
102
RTVSPropertyOp19
 70
     1
102
RTVSPropertyOp20
 70
     1
102
RTVSPropertyOp21
 70
     1
102
RTVSPropertyOp22
 70
     1
102
RTVSPropertyOp23
 70
     1
102
RTVSPropertyOp24
 70
     1
102
RTVSPropertyOp25
 70
     1
102
RTVSPropertyOp26
 70
     1
102
RTVSPropertyOp27
 70
     1
102
RTVSPropertyOp28
 70
     1
102
RTVSPropertyOp29
 70
     1
102
RTVSPropertyOp30
 70
     1
102
RTVSPropertyOp31
 70
     1
102
RTVSPropertyOp32
 70
     1
102
RTVSPropertyOp33
 70
     1
102
RTVSPropertyOp34
 70
     1
102
RTVSPropertyOp35
 70
     1
102
RTVSPropertyOp36
 70
     1
102
RTVSPropertyOp37
 70
     1
102
RTVSPropertyOp38
 70
     1
102
RTVSPropertyOp39
 70
     1
102
RTVSPropertyOp40
 70
     1
102
RTVSPropertyOp41
 70
     1
102
RTVSPropertyOp42
 70
     1
102
RTVSPropertyOp43
 70
     1
102
RTVSPropertyOp44
 70
     1
102
RTVSPropertyOp45
 70
     1
102
RTVSPropertyOp46
 70
     1
102
RTVSPropertyOp47
 70
     1
102
RTVSPropertyOp48
 70
     1
102
RTVSPropertyOp49
 70
     1
102
RTVSPropertyOp50
 70
     1
102
RTVSPropertyOp51
 70
     0
102
RTVSPropertyOp52
 70
     0
102
RTVSPropertyOp53
 70
     1
102
RTVSPropertyOp54
 70
     1
102
RTVSPropertyOp55
 70
     1
102
RTVSPropertyOp56
 70
     1
102
RTVSPropertyOp57
 70
     1
102
RTVSPost2010Prop28
280
     0
102
RTVSPost2010PropOp28
 70
     1
102
RTVSPost2010Prop29
280
     1
102
RTVSPost2010PropOp29
 70
     1
102
RTVSPost2010Prop30
280
     1
102
RTVSPost2010PropOp30
 70
     1
102
RTVSPost2010Prop31
280
     0
102
RTVSPost2010PropOp31
 70
     1
102
RTVSPost2010Prop32
280
     0
102
RTVSPost2010PropOp32
 70
     1
102
RTVSPost2010Prop33
280
     0
102
RTVSPost2010PropOp33
 70
     1
102
RTVSPost2010Prop34
280
     0
102
RTVSPost2010PropOp34
 70
     1
102
RTVSPost2010Prop35
280
     0
102
RTVSPost2010PropOp35
 70
     1
102
RTVSPost2010Prop36
280
     0
102
RTVSPost2010PropOp36
 70
     1
102
RTVSPost2010Prop37
 90
       50
102
RTVSPost2010PropOp37
 70
     1
102
RTVSPost2010Prop38
140
0.0
102
RTVSPost2010PropOp38
 70
     1
102
RTVSPost2010Prop39
140
1.0
102
RTVSPost2010PropOp39
 70
     1
102
RTVSPost2010Prop40
 90
        0
102
RTVSPost2010PropOp40
 70
     1
102
RTVSPost2010Prop41ColorIndex
 90
      178
102
RTVSPost2010Prop41ColorRGB
 90
        0
102
RTVSPost2010PropOp41
 70
     1
102
RTVSPost2010Prop42
 90
       50
102
RTVSPost2010PropOp42
 70
     1
102
RTVSPost2010Prop43
 90
        3
102
RTVSPost2010PropOp43
 70
     1
102
RTVSPost2010Prop44ColorIndex
 90
        5
102
RTVSPost2010Prop44ColorRGB
 90
      255
102
RTVSPost2010PropOp44
 70
     1
102
RTVSPost2010Prop45
280
     0
102
RTVSPost2010PropOp45
 70
     1
102
RTVSPost2010Prop46
 90
       50
102
RTVSPost2010PropOp46
 70
     1
102
RTVSPost2010Prop47
 90
       50
102
RTVSPost2010PropOp47
 70
     1
102
RTVSPost2010Prop48
 90
       50
102
RTVSPost2010PropOp48
 70
     1
102
RTVSPost2010Prop49
280
     0
102
RTVSPost2010PropOp49
 70
     1
102
RTVSPost2010Prop50
 90
       50
102
RTVSPost2010PropOp50
 70
     1
102
RTVSPost2010Prop51ColorIndex
 90
      256
102
RTVSPost2010Prop51ColorRGB
 90
-16777216
102
RTVSPost2010PropOp51
 70
     0
102
RTVSPost2010Prop52
140
1.0
102
RTVSPost2010PropOp52
 70
     0
102
RTVSPost2010Prop53
 90
        2
102
RTVSPost2010PropOp53
 70
     1
102
RTVSPost2010Prop54
  1
strokes_ogs.tif
102
RTVSPost2010PropOp54
 70
     1
102
RTVSPost2010Prop55
280
     0
102
RTVSPost2010PropOp55
 70
     1
102
RTVSPost2010Prop56
140
1.0
102
RTVSPost2010PropOp56
 70
     1
102
RTVSPost2010Prop57
140
1.0
102
RTVSPost2010PropOp57
 70
     1
  0
XRECORD
  5
343
102
{ACAD_REACTORS
330
342
102
}
330
342
100
AcDbXrecord
280
     1
102
RTVSPropertyOp0
 70
     1
102
RTVSPropertyOp1
 70
     1
102
RTVSPropertyOp2
 70
     1
102
RTVSPropertyOp3
 70
     1
102
RTVSPropertyOp4
 70
     1
102
RTVSPropertyOp5
 70
     1
102
RTVSPropertyOp6
 70
     1
102
RTVSPropertyOp7
 70
     1
102
RTVSPropertyOp8
 70
     1
102
RTVSPropertyOp9
 70
     1
102
RTVSPropertyOp10
 70
     1
102
RTVSPropertyOp11
 70
     1
102
RTVSPropertyOp12
 70
     1
102
RTVSPropertyOp13
 70
     1
102
RTVSPropertyOp14
 70
     1
102
RTVSPropertyOp15
 70
     1
102
RTVSPropertyOp16
 70
     1
102
RTVSPropertyOp17
 70
     1
102
RTVSPropertyOp18
 70
     1
102
RTVSPropertyOp19
 70
     1
102
RTVSPropertyOp20
 70
     1
102
RTVSPropertyOp21
 70
     1
102
RTVSPropertyOp22
 70
     1
102
RTVSPropertyOp23
 70
     1
102
RTVSPropertyOp24
 70
     1
102
RTVSPropertyOp25
 70
     1
102
RTVSPropertyOp26
 70
     1
102
RTVSPropertyOp27
 70
     1
102
RTVSPropertyOp28
 70
     1
102
RTVSPropertyOp29
 70
     1
102
RTVSPropertyOp30
 70
     1
102
RTVSPropertyOp31
 70
     1
102
RTVSPropertyOp32
 70
     1
102
RTVSPropertyOp33
 70
     1
102
RTVSPropertyOp34
 70
     1
102
RTVSPropertyOp35
 70
     1
102
RTVSPropertyOp36
 70
     1
102
RTVSPropertyOp37
 70
     1
102
RTVSPropertyOp38
 70
     1
102
RTVSPropertyOp39
 70
     1
102
RTVSPropertyOp40
 70
     1
102
RTVSPropertyOp41
 70
     1
102
RTVSPropertyOp42
 70
     1
102
RTVSPropertyOp43
 70
     1
102
RTVSPropertyOp44
 70
     1
102
RTVSPropertyOp45
 70
     1
102
RTVSPropertyOp46
 70
     1
102
RTVSPropertyOp47
 70
     1
102
RTVSPropertyOp48
 70
     1
102
RTVSPropertyOp49
 70
     1
102
RTVSPropertyOp50
 70
     1
102
RTVSPropertyOp51
 70
     0
102
RTVSPropertyOp52
 70
     0
102
RTVSPropertyOp53
 70
     1
102
RTVSPropertyOp54
 70
     1
102
RTVSPropertyOp55
 70
     1
102
RTVSPropertyOp56
 70
     1
102
RTVSPropertyOp57
 70
     1
102
RTVSPost2010Prop28
280
     0
102
RTVSPost2010PropOp28
 70
     1
102
RTVSPost2010Prop29
280
     1
102
RTVSPost2010PropOp29
 70
     1
102
RTVSPost2010Prop30
280
     1
102
RTVSPost2010PropOp30
 70
     1
102
RTVSPost2010Prop31
280
     0
102
RTVSPost2010PropOp31
 70
     1
102
RTVSPost2010Prop32
280
     0
102
RTVSPost2010PropOp32
 70
     1
102
RTVSPost2010Prop33
280
     0
102
RTVSPost2010PropOp33
 70
     1
102
RTVSPost2010Prop34
280
     0
102
RTVSPost2010PropOp34
 70
     1
102
RTVSPost2010Prop35
280
     0
102
RTVSPost2010PropOp35
 70
     1
102
RTVSPost2010Prop36
280
     0
102
RTVSPost2010PropOp36
 70
     1
102
RTVSPost2010Prop37
 90
       50
102
RTVSPost2010PropOp37
 70
     1
102
RTVSPost2010Prop38
140
0.0
102
RTVSPost2010PropOp38
 70
     1
102
RTVSPost2010Prop39
140
1.0
102
RTVSPost2010PropOp39
 70
     1
102
RTVSPost2010Prop40
 90
        0
102
RTVSPost2010PropOp40
 70
     1
102
RTVSPost2010Prop41ColorIndex
 90
      178
102
RTVSPost2010Prop41ColorRGB
 90
        0
102
RTVSPost2010PropOp41
 70
     1
102
RTVSPost2010Prop42
 90
       50
102
RTVSPost2010PropOp42
 70
     1
102
RTVSPost2010Prop43
 90
        3
102
RTVSPost2010PropOp43
 70
     1
102
RTVSPost2010Prop44ColorIndex
 90
        5
102
RTVSPost2010Prop44ColorRGB
 90
      255
102
RTVSPost2010PropOp44
 70
     1
102
RTVSPost2010Prop45
280
     0
102
RTVSPost2010PropOp45
 70
     1
102
RTVSPost2010Prop46
 90
       50
102
RTVSPost2010PropOp46
 70
     1
102
RTVSPost2010Prop47
 90
       50
102
RTVSPost2010PropOp47
 70
     1
102
RTVSPost2010Prop48
 90
       50
102
RTVSPost2010PropOp48
 70
     1
102
RTVSPost2010Prop49
280
     0
102
RTVSPost2010PropOp49
 70
     1
102
RTVSPost2010Prop50
 90
       50
102
RTVSPost2010PropOp50
 70
     1
102
RTVSPost2010Prop51ColorIndex
 90
      256
102
RTVSPost2010Prop51ColorRGB
 90
-16777216
102
RTVSPost2010PropOp51
 70
     0
102
RTVSPost2010Prop52
140
1.0
102
RTVSPost2010PropOp52
 70
     0
102
RTVSPost2010Prop53
 90
        2
102
RTVSPost2010PropOp53
 70
     1
102
RTVSPost2010Prop54
  1
strokes_ogs.tif
102
RTVSPost2010PropOp54
 70
     1
102
RTVSPost2010Prop55
280
     0
102
RTVSPost2010PropOp55
 70
     1
102
RTVSPost2010Prop56
140
1.0
102
RTVSPost2010PropOp56
 70
     1
102
RTVSPost2010Prop57
140
1.0
102
RTVSPost2010PropOp57
 70
     1
  0
XRECORD
  5
345
102
{ACAD_REACTORS
330
344
102
}
330
344
100
AcDbXrecord
280
     1
102
RTVSPropertyOp0
 70
     1
102
RTVSPropertyOp1
 70
     1
102
RTVSPropertyOp2
 70
     1
102
RTVSPropertyOp3
 70
     1
102
RTVSPropertyOp4
 70
     1
102
RTVSPropertyOp5
 70
     1
102
RTVSPropertyOp6
 70
     1
102
RTVSPropertyOp7
 70
     1
102
RTVSPropertyOp8
 70
     1
102
RTVSPropertyOp9
 70
     1
102
RTVSPropertyOp10
 70
     1
102
RTVSPropertyOp11
 70
     1
102
RTVSPropertyOp12
 70
     1
102
RTVSPropertyOp13
 70
     1
102
RTVSPropertyOp14
 70
     1
102
RTVSPropertyOp15
 70
     1
102
RTVSPropertyOp16
 70
     1
102
RTVSPropertyOp17
 70
     1
102
RTVSPropertyOp18
 70
     1
102
RTVSPropertyOp19
 70
     1
102
RTVSPropertyOp20
 70
     1
102
RTVSPropertyOp21
 70
     1
102
RTVSPropertyOp22
 70
     1
102
RTVSPropertyOp23
 70
     1
102
RTVSPropertyOp24
 70
     1
102
RTVSPropertyOp25
 70
     1
102
RTVSPropertyOp26
 70
     1
102
RTVSPropertyOp27
 70
     1
102
RTVSPropertyOp28
 70
     1
102
RTVSPropertyOp29
 70
     1
102
RTVSPropertyOp30
 70
     1
102
RTVSPropertyOp31
 70
     1
102
RTVSPropertyOp32
 70
     1
102
RTVSPropertyOp33
 70
     1
102
RTVSPropertyOp34
 70
     1
102
RTVSPropertyOp35
 70
     1
102
RTVSPropertyOp36
 70
     1
102
RTVSPropertyOp37
 70
     1
102
RTVSPropertyOp38
 70
     1
102
RTVSPropertyOp39
 70
     1
102
RTVSPropertyOp40
 70
     1
102
RTVSPropertyOp41
 70
     1
102
RTVSPropertyOp42
 70
     1
102
RTVSPropertyOp43
 70
     1
102
RTVSPropertyOp44
 70
     1
102
RTVSPropertyOp45
 70
     1
102
RTVSPropertyOp46
 70
     1
102
RTVSPropertyOp47
 70
     1
102
RTVSPropertyOp48
 70
     1
102
RTVSPropertyOp49
 70
     1
102
RTVSPropertyOp50
 70
     1
102
RTVSPropertyOp51
 70
     0
102
RTVSPropertyOp52
 70
     0
102
RTVSPropertyOp53
 70
     1
102
RTVSPropertyOp54
 70
     1
102
RTVSPropertyOp55
 70
     1
102
RTVSPropertyOp56
 70
     1
102
RTVSPropertyOp57
 70
     1
102
RTVSPost2010Prop28
280
     0
102
RTVSPost2010PropOp28
 70
     1
102
RTVSPost2010Prop29
280
     1
102
RTVSPost2010PropOp29
 70
     1
102
RTVSPost2010Prop30
280
     1
102
RTVSPost2010PropOp30
 70
     1
102
RTVSPost2010Prop31
280
     0
102
RTVSPost2010PropOp31
 70
     1
102
RTVSPost2010Prop32
280
     0
102
RTVSPost2010PropOp32
 70
     1
102
RTVSPost2010Prop33
280
     0
102
RTVSPost2010PropOp33
 70
     1
102
RTVSPost2010Prop34
280
     0
102
RTVSPost2010PropOp34
 70
     1
102
RTVSPost2010Prop35
280
     0
102
RTVSPost2010PropOp35
 70
     1
102
RTVSPost2010Prop36
280
     0
102
RTVSPost2010PropOp36
 70
     1
102
RTVSPost2010Prop37
 90
       50
102
RTVSPost2010PropOp37
 70
     1
102
RTVSPost2010Prop38
140
0.0
102
RTVSPost2010PropOp38
 70
     1
102
RTVSPost2010Prop39
140
1.0
102
RTVSPost2010PropOp39
 70
     1
102
RTVSPost2010Prop40
 90
        0
102
RTVSPost2010PropOp40
 70
     1
102
RTVSPost2010Prop41ColorIndex
 90
      178
102
RTVSPost2010Prop41ColorRGB
 90
        0
102
RTVSPost2010PropOp41
 70
     1
102
RTVSPost2010Prop42
 90
       50
102
RTVSPost2010PropOp42
 70
     1
102
RTVSPost2010Prop43
 90
        3
102
RTVSPost2010PropOp43
 70
     1
102
RTVSPost2010Prop44ColorIndex
 90
        5
102
RTVSPost2010Prop44ColorRGB
 90
      255
102
RTVSPost2010PropOp44
 70
     1
102
RTVSPost2010Prop45
280
     0
102
RTVSPost2010PropOp45
 70
     1
102
RTVSPost2010Prop46
 90
       50
102
RTVSPost2010PropOp46
 70
     1
102
RTVSPost2010Prop47
 90
       50
102
RTVSPost2010PropOp47
 70
     1
102
RTVSPost2010Prop48
 90
       50
102
RTVSPost2010PropOp48
 70
     1
102
RTVSPost2010Prop49
280
     0
102
RTVSPost2010PropOp49
 70
     1
102
RTVSPost2010Prop50
 90
       50
102
RTVSPost2010PropOp50
 70
     1
102
RTVSPost2010Prop51ColorIndex
 90
      256
102
RTVSPost2010Prop51ColorRGB
 90
-16777216
102
RTVSPost2010PropOp51
 70
     0
102
RTVSPost2010Prop52
140
1.0
102
RTVSPost2010PropOp52
 70
     0
102
RTVSPost2010Prop53
 90
        2
102
RTVSPost2010PropOp53
 70
     1
102
RTVSPost2010Prop54
  1
strokes_ogs.tif
102
RTVSPost2010PropOp54
 70
     1
102
RTVSPost2010Prop55
280
     0
102
RTVSPost2010PropOp55
 70
     1
102
RTVSPost2010Prop56
140
1.0
102
RTVSPost2010PropOp56
 70
     1
102
RTVSPost2010Prop57
140
1.0
102
RTVSPost2010PropOp57
 70
     1
  0
XRECORD
  5
355
102
{ACAD_REACTORS
330
354
102
}
330
354
100
AcDbXrecord
280
     1
102
RTVSPropertyOp0
 70
     0
102
RTVSPropertyOp1
 70
     0
102
RTVSPropertyOp2
 70
     0
102
RTVSPropertyOp3
 70
     0
102
RTVSPropertyOp4
 70
     0
102
RTVSPropertyOp5
 70
     0
102
RTVSPropertyOp6
 70
     0
102
RTVSPropertyOp7
 70
     0
102
RTVSPropertyOp8
 70
     0
102
RTVSPropertyOp9
 70
     0
102
RTVSPropertyOp10
 70
     0
102
RTVSPropertyOp11
 70
     0
102
RTVSPropertyOp12
 70
     0
102
RTVSPropertyOp13
 70
     0
102
RTVSPropertyOp14
 70
     2
102
RTVSPropertyOp15
 70
     0
102
RTVSPropertyOp16
 70
     0
102
RTVSPropertyOp17
 70
     0
102
RTVSPropertyOp18
 70
     0
102
RTVSPropertyOp19
 70
     0
102
RTVSPropertyOp20
 70
     0
102
RTVSPropertyOp21
 70
     0
102
RTVSPropertyOp22
 70
     0
102
RTVSPropertyOp23
 70
     0
102
RTVSPropertyOp24
 70
     0
102
RTVSPropertyOp25
 70
     0
102
RTVSPropertyOp26
 70
     0
102
RTVSPropertyOp27
 70
     0
102
RTVSPropertyOp28
 70
     0
102
RTVSPropertyOp29
 70
     0
102
RTVSPropertyOp30
 70
     0
102
RTVSPropertyOp31
 70
     0
102
RTVSPropertyOp32
 70
     0
102
RTVSPropertyOp33
 70
     0
102
RTVSPropertyOp34
 70
     0
102
RTVSPropertyOp35
 70
     0
102
RTVSPropertyOp36
 70
     0
102
RTVSPropertyOp37
 70
     0
102
RTVSPropertyOp38
 70
     0
102
RTVSPropertyOp39
 70
     0
102
RTVSPropertyOp40
 70
     0
102
RTVSPropertyOp41
 70
     0
102
RTVSPropertyOp42
 70
     0
102
RTVSPropertyOp43
 70
     0
102
RTVSPropertyOp44
 70
     0
102
RTVSPropertyOp45
 70
     0
102
RTVSPropertyOp46
 70
     0
102
RTVSPropertyOp47
 70
     0
102
RTVSPropertyOp48
 70
     0
102
RTVSPropertyOp49
 70
     0
102
RTVSPropertyOp50
 70
     0
102
RTVSPropertyOp51
 70
     0
102
RTVSPropertyOp52
 70
     0
102
RTVSPropertyOp53
 70
     0
102
RTVSPropertyOp54
 70
     0
102
RTVSPropertyOp55
 70
     0
102
RTVSPropertyOp56
 70
     0
102
RTVSPropertyOp57
 70
     0
102
RTVSPost2010Prop28
280
     0
102
RTVSPost2010PropOp28
 70
     0
102
RTVSPost2010Prop29
280
     1
102
RTVSPost2010PropOp29
 70
     0
102
RTVSPost2010Prop30
280
     1
102
RTVSPost2010PropOp30
 70
     0
102
RTVSPost2010Prop31
280
     0
102
RTVSPost2010PropOp31
 70
     0
102
RTVSPost2010Prop32
280
     0
102
RTVSPost2010PropOp32
 70
     0
102
RTVSPost2010Prop33
280
     0
102
RTVSPost2010PropOp33
 70
     0
102
RTVSPost2010Prop34
280
     0
102
RTVSPost2010PropOp34
 70
     0
102
RTVSPost2010Prop35
280
     0
102
RTVSPost2010PropOp35
 70
     0
102
RTVSPost2010Prop36
280
     0
102
RTVSPost2010PropOp36
 70
     0
102
RTVSPost2010Prop37
 90
       50
102
RTVSPost2010PropOp37
 70
     0
102
RTVSPost2010Prop38
140
0.0
102
RTVSPost2010PropOp38
 70
     0
102
RTVSPost2010Prop39
140
1.0
102
RTVSPost2010PropOp39
 70
     0
102
RTVSPost2010Prop40
 90
        0
102
RTVSPost2010PropOp40
 70
     0
102
RTVSPost2010Prop41ColorIndex
 90
      178
102
RTVSPost2010Prop41ColorRGB
 90
        0
102
RTVSPost2010PropOp41
 70
     0
102
RTVSPost2010Prop42
 90
       50
102
RTVSPost2010PropOp42
 70
     0
102
RTVSPost2010Prop43
 90
        3
102
RTVSPost2010PropOp43
 70
     0
102
RTVSPost2010Prop44ColorIndex
 90
        5
102
RTVSPost2010Prop44ColorRGB
 90
      255
102
RTVSPost2010PropOp44
 70
     0
102
RTVSPost2010Prop45
280
     0
102
RTVSPost2010PropOp45
 70
     0
102
RTVSPost2010Prop46
 90
       50
102
RTVSPost2010PropOp46
 70
     0
102
RTVSPost2010Prop47
 90
       50
102
RTVSPost2010PropOp47
 70
     0
102
RTVSPost2010Prop48
 90
       50
102
RTVSPost2010PropOp48
 70
     0
102
RTVSPost2010Prop49
280
     0
102
RTVSPost2010PropOp49
 70
     0
102
RTVSPost2010Prop50
 90
       50
102
RTVSPost2010PropOp50
 70
     0
102
RTVSPost2010Prop51ColorIndex
 90
      256
102
RTVSPost2010Prop51ColorRGB
 90
-16777216
102
RTVSPost2010PropOp51
 70
     0
102
RTVSPost2010Prop52
140
1.0
102
RTVSPost2010PropOp52
 70
     0
102
RTVSPost2010Prop53
 90
        2
102
RTVSPost2010PropOp53
 70
     0
102
RTVSPost2010Prop54
  1
strokes_ogs.tif
102
RTVSPost2010PropOp54
 70
     0
102
RTVSPost2010Prop55
280
     0
102
RTVSPost2010PropOp55
 70
     0
102
RTVSPost2010Prop56
140
1.0
102
RTVSPost2010PropOp56
 70
     0
102
RTVSPost2010Prop57
140
1.0
102
RTVSPost2010PropOp57
 70
     0
  0
XRECORD
  5
34D
102
{ACAD_REACTORS
330
34C
102
}
330
34C
100
AcDbXrecord
280
     1
102
RTVSPropertyOp0
 70
     1
102
RTVSPropertyOp1
 70
     1
102
RTVSPropertyOp2
 70
     1
102
RTVSPropertyOp3
 70
     1
102
RTVSPropertyOp4
 70
     1
102
RTVSPropertyOp5
 70
     1
102
RTVSPropertyOp6
 70
     1
102
RTVSPropertyOp7
 70
     1
102
RTVSPropertyOp8
 70
     1
102
RTVSPropertyOp9
 70
     1
102
RTVSPropertyOp10
 70
     1
102
RTVSPropertyOp11
 70
     1
102
RTVSPropertyOp12
 70
     1
102
RTVSPropertyOp13
 70
     1
102
RTVSPropertyOp14
 70
     1
102
RTVSPropertyOp15
 70
     1
102
RTVSPropertyOp16
 70
     1
102
RTVSPropertyOp17
 70
     1
102
RTVSPropertyOp18
 70
     1
102
RTVSPropertyOp19
 70
     1
102
RTVSPropertyOp20
 70
     1
102
RTVSPropertyOp21
 70
     1
102
RTVSPropertyOp22
 70
     1
102
RTVSPropertyOp23
 70
     1
102
RTVSPropertyOp24
 70
     1
102
RTVSPropertyOp25
 70
     1
102
RTVSPropertyOp26
 70
     1
102
RTVSPropertyOp27
 70
     1
102
RTVSPropertyOp28
 70
     1
102
RTVSPropertyOp29
 70
     1
102
RTVSPropertyOp30
 70
     1
102
RTVSPropertyOp31
 70
     1
102
RTVSPropertyOp32
 70
     1
102
RTVSPropertyOp33
 70
     1
102
RTVSPropertyOp34
 70
     1
102
RTVSPropertyOp35
 70
     1
102
RTVSPropertyOp36
 70
     1
102
RTVSPropertyOp37
 70
     1
102
RTVSPropertyOp38
 70
     1
102
RTVSPropertyOp39
 70
     1
102
RTVSPropertyOp40
 70
     1
102
RTVSPropertyOp41
 70
     1
102
RTVSPropertyOp42
 70
     1
102
RTVSPropertyOp43
 70
     1
102
RTVSPropertyOp44
 70
     1
102
RTVSPropertyOp45
 70
     1
102
RTVSPropertyOp46
 70
     1
102
RTVSPropertyOp47
 70
     1
102
RTVSPropertyOp48
 70
     1
102
RTVSPropertyOp49
 70
     1
102
RTVSPropertyOp50
 70
     1
102
RTVSPropertyOp51
 70
     0
102
RTVSPropertyOp52
 70
     0
102
RTVSPropertyOp53
 70
     1
102
RTVSPropertyOp54
 70
     1
102
RTVSPropertyOp55
 70
     1
102
RTVSPropertyOp56
 70
     1
102
RTVSPropertyOp57
 70
     1
102
RTVSPost2010Prop28
280
     0
102
RTVSPost2010PropOp28
 70
     1
102
RTVSPost2010Prop29
280
     1
102
RTVSPost2010PropOp29
 70
     1
102
RTVSPost2010Prop30
280
     1
102
RTVSPost2010PropOp30
 70
     1
102
RTVSPost2010Prop31
280
     0
102
RTVSPost2010PropOp31
 70
     1
102
RTVSPost2010Prop32
280
     0
102
RTVSPost2010PropOp32
 70
     1
102
RTVSPost2010Prop33
280
     0
102
RTVSPost2010PropOp33
 70
     1
102
RTVSPost2010Prop34
280
     0
102
RTVSPost2010PropOp34
 70
     1
102
RTVSPost2010Prop35
280
     0
102
RTVSPost2010PropOp35
 70
     1
102
RTVSPost2010Prop36
280
     0
102
RTVSPost2010PropOp36
 70
     1
102
RTVSPost2010Prop37
 90
       50
102
RTVSPost2010PropOp37
 70
     1
102
RTVSPost2010Prop38
140
0.0
102
RTVSPost2010PropOp38
 70
     1
102
RTVSPost2010Prop39
140
1.0
102
RTVSPost2010PropOp39
 70
     1
102
RTVSPost2010Prop40
 90
        0
102
RTVSPost2010PropOp40
 70
     1
102
RTVSPost2010Prop41ColorIndex
 90
      178
102
RTVSPost2010Prop41ColorRGB
 90
        0
102
RTVSPost2010PropOp41
 70
     1
102
RTVSPost2010Prop42
 90
       50
102
RTVSPost2010PropOp42
 70
     1
102
RTVSPost2010Prop43
 90
        3
102
RTVSPost2010PropOp43
 70
     1
102
RTVSPost2010Prop44ColorIndex
 90
        5
102
RTVSPost2010Prop44ColorRGB
 90
      255
102
RTVSPost2010PropOp44
 70
     1
102
RTVSPost2010Prop45
280
     0
102
RTVSPost2010PropOp45
 70
     1
102
RTVSPost2010Prop46
 90
       50
102
RTVSPost2010PropOp46
 70
     1
102
RTVSPost2010Prop47
 90
       50
102
RTVSPost2010PropOp47
 70
     1
102
RTVSPost2010Prop48
 90
       50
102
RTVSPost2010PropOp48
 70
     1
102
RTVSPost2010Prop49
280
     0
102
RTVSPost2010PropOp49
 70
     1
102
RTVSPost2010Prop50
 90
       50
102
RTVSPost2010PropOp50
 70
     1
102
RTVSPost2010Prop51ColorIndex
 90
      256
102
RTVSPost2010Prop51ColorRGB
 90
-16777216
102
RTVSPost2010PropOp51
 70
     0
102
RTVSPost2010Prop52
140
1.0
102
RTVSPost2010PropOp52
 70
     0
102
RTVSPost2010Prop53
 90
        2
102
RTVSPost2010PropOp53
 70
     1
102
RTVSPost2010Prop54
  1
strokes_ogs.tif
102
RTVSPost2010PropOp54
 70
     1
102
RTVSPost2010Prop55
280
     0
102
RTVSPost2010PropOp55
 70
     1
102
RTVSPost2010Prop56
140
1.0
102
RTVSPost2010PropOp56
 70
     1
102
RTVSPost2010Prop57
140
1.0
102
RTVSPost2010PropOp57
 70
     1
  0
XRECORD
  5
331
102
{ACAD_REACTORS
330
330
102
}
330
330
100
AcDbXrecord
280
     1
102
RTVSPropertyOp0
 70
     1
102
RTVSPropertyOp1
 70
     1
102
RTVSPropertyOp2
 70
     1
102
RTVSPropertyOp3
 70
     1
102
RTVSPropertyOp4
 70
     1
102
RTVSPropertyOp5
 70
     1
102
RTVSPropertyOp6
 70
     1
102
RTVSPropertyOp7
 70
     1
102
RTVSPropertyOp8
 70
     1
102
RTVSPropertyOp9
 70
     1
102
RTVSPropertyOp10
 70
     1
102
RTVSPropertyOp11
 70
     1
102
RTVSPropertyOp12
 70
     1
102
RTVSPropertyOp13
 70
     1
102
RTVSPropertyOp14
 70
     1
102
RTVSPropertyOp15
 70
     1
102
RTVSPropertyOp16
 70
     1
102
RTVSPropertyOp17
 70
     1
102
RTVSPropertyOp18
 70
     1
102
RTVSPropertyOp19
 70
     1
102
RTVSPropertyOp20
 70
     1
102
RTVSPropertyOp21
 70
     1
102
RTVSPropertyOp22
 70
     1
102
RTVSPropertyOp23
 70
     1
102
RTVSPropertyOp24
 70
     1
102
RTVSPropertyOp25
 70
     1
102
RTVSPropertyOp26
 70
     1
102
RTVSPropertyOp27
 70
     1
102
RTVSPropertyOp28
 70
     1
102
RTVSPropertyOp29
 70
     1
102
RTVSPropertyOp30
 70
     1
102
RTVSPropertyOp31
 70
     1
102
RTVSPropertyOp32
 70
     1
102
RTVSPropertyOp33
 70
     1
102
RTVSPropertyOp34
 70
     1
102
RTVSPropertyOp35
 70
     1
102
RTVSPropertyOp36
 70
     1
102
RTVSPropertyOp37
 70
     1
102
RTVSPropertyOp38
 70
     1
102
RTVSPropertyOp39
 70
     1
102
RTVSPropertyOp40
 70
     1
102
RTVSPropertyOp41
 70
     1
102
RTVSPropertyOp42
 70
     1
102
RTVSPropertyOp43
 70
     1
102
RTVSPropertyOp44
 70
     1
102
RTVSPropertyOp45
 70
     1
102
RTVSPropertyOp46
 70
     1
102
RTVSPropertyOp47
 70
     1
102
RTVSPropertyOp48
 70
     1
102
RTVSPropertyOp49
 70
     1
102
RTVSPropertyOp50
 70
     1
102
RTVSPropertyOp51
 70
     0
102
RTVSPropertyOp52
 70
     0
102
RTVSPropertyOp53
 70
     1
102
RTVSPropertyOp54
 70
     1
102
RTVSPropertyOp55
 70
     1
102
RTVSPropertyOp56
 70
     1
102
RTVSPropertyOp57
 70
     1
102
RTVSPost2010Prop28
280
     0
102
RTVSPost2010PropOp28
 70
     1
102
RTVSPost2010Prop29
280
     1
102
RTVSPost2010PropOp29
 70
     1
102
RTVSPost2010Prop30
280
     1
102
RTVSPost2010PropOp30
 70
     1
102
RTVSPost2010Prop31
280
     0
102
RTVSPost2010PropOp31
 70
     1
102
RTVSPost2010Prop32
280
     0
102
RTVSPost2010PropOp32
 70
     1
102
RTVSPost2010Prop33
280
     0
102
RTVSPost2010PropOp33
 70
     1
102
RTVSPost2010Prop34
280
     0
102
RTVSPost2010PropOp34
 70
     1
102
RTVSPost2010Prop35
280
     0
102
RTVSPost2010PropOp35
 70
     1
102
RTVSPost2010Prop36
280
     0
102
RTVSPost2010PropOp36
 70
     1
102
RTVSPost2010Prop37
 90
       50
102
RTVSPost2010PropOp37
 70
     1
102
RTVSPost2010Prop38
140
0.0
102
RTVSPost2010PropOp38
 70
     1
102
RTVSPost2010Prop39
140
1.0
102
RTVSPost2010PropOp39
 70
     1
102
RTVSPost2010Prop40
 90
        0
102
RTVSPost2010PropOp40
 70
     1
102
RTVSPost2010Prop41ColorIndex
 90
      178
102
RTVSPost2010Prop41ColorRGB
 90
        0
102
RTVSPost2010PropOp41
 70
     1
102
RTVSPost2010Prop42
 90
       50
102
RTVSPost2010PropOp42
 70
     1
102
RTVSPost2010Prop43
 90
        3
102
RTVSPost2010PropOp43
 70
     1
102
RTVSPost2010Prop44ColorIndex
 90
        5
102
RTVSPost2010Prop44ColorRGB
 90
      255
102
RTVSPost2010PropOp44
 70
     1
102
RTVSPost2010Prop45
280
     0
102
RTVSPost2010PropOp45
 70
     1
102
RTVSPost2010Prop46
 90
       50
102
RTVSPost2010PropOp46
 70
     1
102
RTVSPost2010Prop47
 90
       50
102
RTVSPost2010PropOp47
 70
     1
102
RTVSPost2010Prop48
 90
       50
102
RTVSPost2010PropOp48
 70
     1
102
RTVSPost2010Prop49
280
     0
102
RTVSPost2010PropOp49
 70
     1
102
RTVSPost2010Prop50
 90
       50
102
RTVSPost2010PropOp50
 70
     1
102
RTVSPost2010Prop51ColorIndex
 90
      256
102
RTVSPost2010Prop51ColorRGB
 90
-16777216
102
RTVSPost2010PropOp51
 70
     0
102
RTVSPost2010Prop52
140
1.0
102
RTVSPost2010PropOp52
 70
     0
102
RTVSPost2010Prop53
 90
        2
102
RTVSPost2010PropOp53
 70
     1
102
RTVSPost2010Prop54
  1
strokes_ogs.tif
102
RTVSPost2010PropOp54
 70
     1
102
RTVSPost2010Prop55
280
     0
102
RTVSPost2010PropOp55
 70
     1
102
RTVSPost2010Prop56
140
1.0
102
RTVSPost2010PropOp56
 70
     1
102
RTVSPost2010Prop57
140
1.0
102
RTVSPost2010PropOp57
 70
     1
  0
XRECORD
  5
333
102
{ACAD_REACTORS
330
332
102
}
330
332
100
AcDbXrecord
280
     1
102
RTVSPropertyOp0
 70
     1
102
RTVSPropertyOp1
 70
     1
102
RTVSPropertyOp2
 70
     1
102
RTVSPropertyOp3
 70
     1
102
RTVSPropertyOp4
 70
     1
102
RTVSPropertyOp5
 70
     1
102
RTVSPropertyOp6
 70
     1
102
RTVSPropertyOp7
 70
     1
102
RTVSPropertyOp8
 70
     1
102
RTVSPropertyOp9
 70
     1
102
RTVSPropertyOp10
 70
     1
102
RTVSPropertyOp11
 70
     1
102
RTVSPropertyOp12
 70
     1
102
RTVSPropertyOp13
 70
     1
102
RTVSPropertyOp14
 70
     1
102
RTVSPropertyOp15
 70
     1
102
RTVSPropertyOp16
 70
     1
102
RTVSPropertyOp17
 70
     1
102
RTVSPropertyOp18
 70
     1
102
RTVSPropertyOp19
 70
     1
102
RTVSPropertyOp20
 70
     1
102
RTVSPropertyOp21
 70
     1
102
RTVSPropertyOp22
 70
     1
102
RTVSPropertyOp23
 70
     1
102
RTVSPropertyOp24
 70
     1
102
RTVSPropertyOp25
 70
     1
102
RTVSPropertyOp26
 70
     1
102
RTVSPropertyOp27
 70
     1
102
RTVSPropertyOp28
 70
     1
102
RTVSPropertyOp29
 70
     1
102
RTVSPropertyOp30
 70
     1
102
RTVSPropertyOp31
 70
     1
102
RTVSPropertyOp32
 70
     1
102
RTVSPropertyOp33
 70
     1
102
RTVSPropertyOp34
 70
     1
102
RTVSPropertyOp35
 70
     1
102
RTVSPropertyOp36
 70
     1
102
RTVSPropertyOp37
 70
     1
102
RTVSPropertyOp38
 70
     1
102
RTVSPropertyOp39
 70
     1
102
RTVSPropertyOp40
 70
     1
102
RTVSPropertyOp41
 70
     1
102
RTVSPropertyOp42
 70
     1
102
RTVSPropertyOp43
 70
     1
102
RTVSPropertyOp44
 70
     1
102
RTVSPropertyOp45
 70
     1
102
RTVSPropertyOp46
 70
     1
102
RTVSPropertyOp47
 70
     1
102
RTVSPropertyOp48
 70
     1
102
RTVSPropertyOp49
 70
     1
102
RTVSPropertyOp50
 70
     1
102
RTVSPropertyOp51
 70
     0
102
RTVSPropertyOp52
 70
     0
102
RTVSPropertyOp53
 70
     1
102
RTVSPropertyOp54
 70
     1
102
RTVSPropertyOp55
 70
     1
102
RTVSPropertyOp56
 70
     1
102
RTVSPropertyOp57
 70
     1
102
RTVSPost2010Prop28
280
     0
102
RTVSPost2010PropOp28
 70
     1
102
RTVSPost2010Prop29
280
     1
102
RTVSPost2010PropOp29
 70
     1
102
RTVSPost2010Prop30
280
     1
102
RTVSPost2010PropOp30
 70
     1
102
RTVSPost2010Prop31
280
     0
102
RTVSPost2010PropOp31
 70
     1
102
RTVSPost2010Prop32
280
     0
102
RTVSPost2010PropOp32
 70
     1
102
RTVSPost2010Prop33
280
     0
102
RTVSPost2010PropOp33
 70
     1
102
RTVSPost2010Prop34
280
     0
102
RTVSPost2010PropOp34
 70
     1
102
RTVSPost2010Prop35
280
     0
102
RTVSPost2010PropOp35
 70
     1
102
RTVSPost2010Prop36
280
     0
102
RTVSPost2010PropOp36
 70
     1
102
RTVSPost2010Prop37
 90
       50
102
RTVSPost2010PropOp37
 70
     1
102
RTVSPost2010Prop38
140
0.0
102
RTVSPost2010PropOp38
 70
     1
102
RTVSPost2010Prop39
140
1.0
102
RTVSPost2010PropOp39
 70
     1
102
RTVSPost2010Prop40
 90
        0
102
RTVSPost2010PropOp40
 70
     1
102
RTVSPost2010Prop41ColorIndex
 90
      178
102
RTVSPost2010Prop41ColorRGB
 90
        0
102
RTVSPost2010PropOp41
 70
     1
102
RTVSPost2010Prop42
 90
       50
102
RTVSPost2010PropOp42
 70
     1
102
RTVSPost2010Prop43
 90
        3
102
RTVSPost2010PropOp43
 70
     1
102
RTVSPost2010Prop44ColorIndex
 90
        5
102
RTVSPost2010Prop44ColorRGB
 90
      255
102
RTVSPost2010PropOp44
 70
     1
102
RTVSPost2010Prop45
280
     0
102
RTVSPost2010PropOp45
 70
     1
102
RTVSPost2010Prop46
 90
       50
102
RTVSPost2010PropOp46
 70
     1
102
RTVSPost2010Prop47
 90
       50
102
RTVSPost2010PropOp47
 70
     1
102
RTVSPost2010Prop48
 90
       50
102
RTVSPost2010PropOp48
 70
     1
102
RTVSPost2010Prop49
280
     0
102
RTVSPost2010PropOp49
 70
     1
102
RTVSPost2010Prop50
 90
       50
102
RTVSPost2010PropOp50
 70
     1
102
RTVSPost2010Prop51ColorIndex
 90
      256
102
RTVSPost2010Prop51ColorRGB
 90
-16777216
102
RTVSPost2010PropOp51
 70
     0
102
RTVSPost2010Prop52
140
1.0
102
RTVSPost2010PropOp52
 70
     0
102
RTVSPost2010Prop53
 90
        2
102
RTVSPost2010PropOp53
 70
     1
102
RTVSPost2010Prop54
  1
strokes_ogs.tif
102
RTVSPost2010PropOp54
 70
     1
102
RTVSPost2010Prop55
280
     0
102
RTVSPost2010PropOp55
 70
     1
102
RTVSPost2010Prop56
140
1.0
102
RTVSPost2010PropOp56
 70
     1
102
RTVSPost2010Prop57
140
1.0
102
RTVSPost2010PropOp57
 70
     1
  0
XRECORD
  5
335
102
{ACAD_REACTORS
330
334
102
}
330
334
100
AcDbXrecord
280
     1
102
RTVSPropertyOp0
 70
     1
102
RTVSPropertyOp1
 70
     1
102
RTVSPropertyOp2
 70
     1
102
RTVSPropertyOp3
 70
     1
102
RTVSPropertyOp4
 70
     1
102
RTVSPropertyOp5
 70
     1
102
RTVSPropertyOp6
 70
     1
102
RTVSPropertyOp7
 70
     1
102
RTVSPropertyOp8
 70
     1
102
RTVSPropertyOp9
 70
     1
102
RTVSPropertyOp10
 70
     1
102
RTVSPropertyOp11
 70
     1
102
RTVSPropertyOp12
 70
     1
102
RTVSPropertyOp13
 70
     1
102
RTVSPropertyOp14
 70
     1
102
RTVSPropertyOp15
 70
     1
102
RTVSPropertyOp16
 70
     1
102
RTVSPropertyOp17
 70
     1
102
RTVSPropertyOp18
 70
     1
102
RTVSPropertyOp19
 70
     1
102
RTVSPropertyOp20
 70
     1
102
RTVSPropertyOp21
 70
     1
102
RTVSPropertyOp22
 70
     1
102
RTVSPropertyOp23
 70
     1
102
RTVSPropertyOp24
 70
     1
102
RTVSPropertyOp25
 70
     1
102
RTVSPropertyOp26
 70
     1
102
RTVSPropertyOp27
 70
     1
102
RTVSPropertyOp28
 70
     1
102
RTVSPropertyOp29
 70
     1
102
RTVSPropertyOp30
 70
     1
102
RTVSPropertyOp31
 70
     1
102
RTVSPropertyOp32
 70
     1
102
RTVSPropertyOp33
 70
     1
102
RTVSPropertyOp34
 70
     1
102
RTVSPropertyOp35
 70
     1
102
RTVSPropertyOp36
 70
     1
102
RTVSPropertyOp37
 70
     1
102
RTVSPropertyOp38
 70
     1
102
RTVSPropertyOp39
 70
     1
102
RTVSPropertyOp40
 70
     1
102
RTVSPropertyOp41
 70
     1
102
RTVSPropertyOp42
 70
     1
102
RTVSPropertyOp43
 70
     1
102
RTVSPropertyOp44
 70
     1
102
RTVSPropertyOp45
 70
     1
102
RTVSPropertyOp46
 70
     1
102
RTVSPropertyOp47
 70
     1
102
RTVSPropertyOp48
 70
     1
102
RTVSPropertyOp49
 70
     1
102
RTVSPropertyOp50
 70
     1
102
RTVSPropertyOp51
 70
     0
102
RTVSPropertyOp52
 70
     0
102
RTVSPropertyOp53
 70
     1
102
RTVSPropertyOp54
 70
     1
102
RTVSPropertyOp55
 70
     1
102
RTVSPropertyOp56
 70
     1
102
RTVSPropertyOp57
 70
     1
102
RTVSPost2010Prop28
280
     0
102
RTVSPost2010PropOp28
 70
     1
102
RTVSPost2010Prop29
280
     1
102
RTVSPost2010PropOp29
 70
     1
102
RTVSPost2010Prop30
280
     1
102
RTVSPost2010PropOp30
 70
     1
102
RTVSPost2010Prop31
280
     0
102
RTVSPost2010PropOp31
 70
     1
102
RTVSPost2010Prop32
280
     0
102
RTVSPost2010PropOp32
 70
     1
102
RTVSPost2010Prop33
280
     0
102
RTVSPost2010PropOp33
 70
     1
102
RTVSPost2010Prop34
280
     0
102
RTVSPost2010PropOp34
 70
     1
102
RTVSPost2010Prop35
280
     0
102
RTVSPost2010PropOp35
 70
     1
102
RTVSPost2010Prop36
280
     0
102
RTVSPost2010PropOp36
 70
     1
102
RTVSPost2010Prop37
 90
       50
102
RTVSPost2010PropOp37
 70
     1
102
RTVSPost2010Prop38
140
0.0
102
RTVSPost2010PropOp38
 70
     1
102
RTVSPost2010Prop39
140
1.0
102
RTVSPost2010PropOp39
 70
     1
102
RTVSPost2010Prop40
 90
        0
102
RTVSPost2010PropOp40
 70
     1
102
RTVSPost2010Prop41ColorIndex
 90
      178
102
RTVSPost2010Prop41ColorRGB
 90
        0
102
RTVSPost2010PropOp41
 70
     1
102
RTVSPost2010Prop42
 90
       50
102
RTVSPost2010PropOp42
 70
     1
102
RTVSPost2010Prop43
 90
        3
102
RTVSPost2010PropOp43
 70
     1
102
RTVSPost2010Prop44ColorIndex
 90
        5
102
RTVSPost2010Prop44ColorRGB
 90
      255
102
RTVSPost2010PropOp44
 70
     1
102
RTVSPost2010Prop45
280
     0
102
RTVSPost2010PropOp45
 70
     1
102
RTVSPost2010Prop46
 90
       50
102
RTVSPost2010PropOp46
 70
     1
102
RTVSPost2010Prop47
 90
       50
102
RTVSPost2010PropOp47
 70
     1
102
RTVSPost2010Prop48
 90
       50
102
RTVSPost2010PropOp48
 70
     1
102
RTVSPost2010Prop49
280
     0
102
RTVSPost2010PropOp49
 70
     1
102
RTVSPost2010Prop50
 90
       50
102
RTVSPost2010PropOp50
 70
     1
102
RTVSPost2010Prop51ColorIndex
 90
      256
102
RTVSPost2010Prop51ColorRGB
 90
-16777216
102
RTVSPost2010PropOp51
 70
     0
102
RTVSPost2010Prop52
140
1.0
102
RTVSPost2010PropOp52
 70
     0
102
RTVSPost2010Prop53
 90
        2
102
RTVSPost2010PropOp53
 70
     1
102
RTVSPost2010Prop54
  1
strokes_ogs.tif
102
RTVSPost2010PropOp54
 70
     1
102
RTVSPost2010Prop55
280
     0
102
RTVSPost2010PropOp55
 70
     1
102
RTVSPost2010Prop56
140
1.0
102
RTVSPost2010PropOp56
 70
     1
102
RTVSPost2010Prop57
140
1.0
102
RTVSPost2010PropOp57
 70
     1
  0
XRECORD
  5
337
102
{ACAD_REACTORS
330
336
102
}
330
336
100
AcDbXrecord
280
     1
102
RTVSPropertyOp0
 70
     1
102
RTVSPropertyOp1
 70
     1
102
RTVSPropertyOp2
 70
     1
102
RTVSPropertyOp3
 70
     1
102
RTVSPropertyOp4
 70
     1
102
RTVSPropertyOp5
 70
     1
102
RTVSPropertyOp6
 70
     1
102
RTVSPropertyOp7
 70
     1
102
RTVSPropertyOp8
 70
     1
102
RTVSPropertyOp9
 70
     1
102
RTVSPropertyOp10
 70
     1
102
RTVSPropertyOp11
 70
     1
102
RTVSPropertyOp12
 70
     1
102
RTVSPropertyOp13
 70
     1
102
RTVSPropertyOp14
 70
     1
102
RTVSPropertyOp15
 70
     1
102
RTVSPropertyOp16
 70
     1
102
RTVSPropertyOp17
 70
     1
102
RTVSPropertyOp18
 70
     1
102
RTVSPropertyOp19
 70
     1
102
RTVSPropertyOp20
 70
     1
102
RTVSPropertyOp21
 70
     1
102
RTVSPropertyOp22
 70
     1
102
RTVSPropertyOp23
 70
     1
102
RTVSPropertyOp24
 70
     1
102
RTVSPropertyOp25
 70
     1
102
RTVSPropertyOp26
 70
     1
102
RTVSPropertyOp27
 70
     1
102
RTVSPropertyOp28
 70
     1
102
RTVSPropertyOp29
 70
     1
102
RTVSPropertyOp30
 70
     1
102
RTVSPropertyOp31
 70
     1
102
RTVSPropertyOp32
 70
     1
102
RTVSPropertyOp33
 70
     1
102
RTVSPropertyOp34
 70
     1
102
RTVSPropertyOp35
 70
     1
102
RTVSPropertyOp36
 70
     1
102
RTVSPropertyOp37
 70
     1
102
RTVSPropertyOp38
 70
     1
102
RTVSPropertyOp39
 70
     1
102
RTVSPropertyOp40
 70
     1
102
RTVSPropertyOp41
 70
     1
102
RTVSPropertyOp42
 70
     1
102
RTVSPropertyOp43
 70
     1
102
RTVSPropertyOp44
 70
     1
102
RTVSPropertyOp45
 70
     1
102
RTVSPropertyOp46
 70
     1
102
RTVSPropertyOp47
 70
     1
102
RTVSPropertyOp48
 70
     1
102
RTVSPropertyOp49
 70
     1
102
RTVSPropertyOp50
 70
     1
102
RTVSPropertyOp51
 70
     0
102
RTVSPropertyOp52
 70
     0
102
RTVSPropertyOp53
 70
     1
102
RTVSPropertyOp54
 70
     1
102
RTVSPropertyOp55
 70
     1
102
RTVSPropertyOp56
 70
     1
102
RTVSPropertyOp57
 70
     1
102
RTVSPost2010Prop28
280
     0
102
RTVSPost2010PropOp28
 70
     1
102
RTVSPost2010Prop29
280
     1
102
RTVSPost2010PropOp29
 70
     1
102
RTVSPost2010Prop30
280
     1
102
RTVSPost2010PropOp30
 70
     1
102
RTVSPost2010Prop31
280
     0
102
RTVSPost2010PropOp31
 70
     1
102
RTVSPost2010Prop32
280
     0
102
RTVSPost2010PropOp32
 70
     1
102
RTVSPost2010Prop33
280
     0
102
RTVSPost2010PropOp33
 70
     1
102
RTVSPost2010Prop34
280
     0
102
RTVSPost2010PropOp34
 70
     1
102
RTVSPost2010Prop35
280
     0
102
RTVSPost2010PropOp35
 70
     1
102
RTVSPost2010Prop36
280
     0
102
RTVSPost2010PropOp36
 70
     1
102
RTVSPost2010Prop37
 90
       50
102
RTVSPost2010PropOp37
 70
     1
102
RTVSPost2010Prop38
140
0.0
102
RTVSPost2010PropOp38
 70
     1
102
RTVSPost2010Prop39
140
1.0
102
RTVSPost2010PropOp39
 70
     1
102
RTVSPost2010Prop40
 90
        0
102
RTVSPost2010PropOp40
 70
     1
102
RTVSPost2010Prop41ColorIndex
 90
      178
102
RTVSPost2010Prop41ColorRGB
 90
        0
102
RTVSPost2010PropOp41
 70
     1
102
RTVSPost2010Prop42
 90
       50
102
RTVSPost2010PropOp42
 70
     1
102
RTVSPost2010Prop43
 90
        3
102
RTVSPost2010PropOp43
 70
     1
102
RTVSPost2010Prop44ColorIndex
 90
        5
102
RTVSPost2010Prop44ColorRGB
 90
      255
102
RTVSPost2010PropOp44
 70
     1
102
RTVSPost2010Prop45
280
     0
102
RTVSPost2010PropOp45
 70
     1
102
RTVSPost2010Prop46
 90
       50
102
RTVSPost2010PropOp46
 70
     1
102
RTVSPost2010Prop47
 90
       50
102
RTVSPost2010PropOp47
 70
     1
102
RTVSPost2010Prop48
 90
       50
102
RTVSPost2010PropOp48
 70
     1
102
RTVSPost2010Prop49
280
     0
102
RTVSPost2010PropOp49
 70
     1
102
RTVSPost2010Prop50
 90
       50
102
RTVSPost2010PropOp50
 70
     1
102
RTVSPost2010Prop51ColorIndex
 90
      256
102
RTVSPost2010Prop51ColorRGB
 90
-16777216
102
RTVSPost2010PropOp51
 70
     0
102
RTVSPost2010Prop52
140
1.0
102
RTVSPost2010PropOp52
 70
     0
102
RTVSPost2010Prop53
 90
        2
102
RTVSPost2010PropOp53
 70
     1
102
RTVSPost2010Prop54
  1
strokes_ogs.tif
102
RTVSPost2010PropOp54
 70
     1
102
RTVSPost2010Prop55
280
     0
102
RTVSPost2010PropOp55
 70
     1
102
RTVSPost2010Prop56
140
1.0
102
RTVSPost2010PropOp56
 70
     1
102
RTVSPost2010Prop57
140
1.0
102
RTVSPost2010PropOp57
 70
     1
  0
XRECORD
  5
33D
102
{ACAD_REACTORS
330
33C
102
}
330
33C
100
AcDbXrecord
280
     1
102
RTVSPropertyOp0
 70
     1
102
RTVSPropertyOp1
 70
     1
102
RTVSPropertyOp2
 70
     1
102
RTVSPropertyOp3
 70
     1
102
RTVSPropertyOp4
 70
     1
102
RTVSPropertyOp5
 70
     1
102
RTVSPropertyOp6
 70
     1
102
RTVSPropertyOp7
 70
     1
102
RTVSPropertyOp8
 70
     1
102
RTVSPropertyOp9
 70
     1
102
RTVSPropertyOp10
 70
     1
102
RTVSPropertyOp11
 70
     1
102
RTVSPropertyOp12
 70
     1
102
RTVSPropertyOp13
 70
     1
102
RTVSPropertyOp14
 70
     1
102
RTVSPropertyOp15
 70
     1
102
RTVSPropertyOp16
 70
     1
102
RTVSPropertyOp17
 70
     1
102
RTVSPropertyOp18
 70
     1
102
RTVSPropertyOp19
 70
     1
102
RTVSPropertyOp20
 70
     1
102
RTVSPropertyOp21
 70
     1
102
RTVSPropertyOp22
 70
     1
102
RTVSPropertyOp23
 70
     1
102
RTVSPropertyOp24
 70
     1
102
RTVSPropertyOp25
 70
     1
102
RTVSPropertyOp26
 70
     1
102
RTVSPropertyOp27
 70
     1
102
RTVSPropertyOp28
 70
     1
102
RTVSPropertyOp29
 70
     1
102
RTVSPropertyOp30
 70
     1
102
RTVSPropertyOp31
 70
     1
102
RTVSPropertyOp32
 70
     1
102
RTVSPropertyOp33
 70
     1
102
RTVSPropertyOp34
 70
     1
102
RTVSPropertyOp35
 70
     1
102
RTVSPropertyOp36
 70
     1
102
RTVSPropertyOp37
 70
     1
102
RTVSPropertyOp38
 70
     1
102
RTVSPropertyOp39
 70
     1
102
RTVSPropertyOp40
 70
     1
102
RTVSPropertyOp41
 70
     1
102
RTVSPropertyOp42
 70
     1
102
RTVSPropertyOp43
 70
     1
102
RTVSPropertyOp44
 70
     1
102
RTVSPropertyOp45
 70
     1
102
RTVSPropertyOp46
 70
     1
102
RTVSPropertyOp47
 70
     1
102
RTVSPropertyOp48
 70
     1
102
RTVSPropertyOp49
 70
     1
102
RTVSPropertyOp50
 70
     1
102
RTVSPropertyOp51
 70
     0
102
RTVSPropertyOp52
 70
     0
102
RTVSPropertyOp53
 70
     1
102
RTVSPropertyOp54
 70
     1
102
RTVSPropertyOp55
 70
     1
102
RTVSPropertyOp56
 70
     1
102
RTVSPropertyOp57
 70
     1
102
RTVSPost2010Prop28
280
     0
102
RTVSPost2010PropOp28
 70
     1
102
RTVSPost2010Prop29
280
     1
102
RTVSPost2010PropOp29
 70
     1
102
RTVSPost2010Prop30
280
     1
102
RTVSPost2010PropOp30
 70
     1
102
RTVSPost2010Prop31
280
     0
102
RTVSPost2010PropOp31
 70
     1
102
RTVSPost2010Prop32
280
     0
102
RTVSPost2010PropOp32
 70
     1
102
RTVSPost2010Prop33
280
     0
102
RTVSPost2010PropOp33
 70
     1
102
RTVSPost2010Prop34
280
     0
102
RTVSPost2010PropOp34
 70
     1
102
RTVSPost2010Prop35
280
     0
102
RTVSPost2010PropOp35
 70
     1
102
RTVSPost2010Prop36
280
     0
102
RTVSPost2010PropOp36
 70
     1
102
RTVSPost2010Prop37
 90
       50
102
RTVSPost2010PropOp37
 70
     1
102
RTVSPost2010Prop38
140
0.0
102
RTVSPost2010PropOp38
 70
     1
102
RTVSPost2010Prop39
140
1.0
102
RTVSPost2010PropOp39
 70
     1
102
RTVSPost2010Prop40
 90
        0
102
RTVSPost2010PropOp40
 70
     1
102
RTVSPost2010Prop41ColorIndex
 90
      178
102
RTVSPost2010Prop41ColorRGB
 90
        0
102
RTVSPost2010PropOp41
 70
     1
102
RTVSPost2010Prop42
 90
       50
102
RTVSPost2010PropOp42
 70
     1
102
RTVSPost2010Prop43
 90
        3
102
RTVSPost2010PropOp43
 70
     1
102
RTVSPost2010Prop44ColorIndex
 90
        5
102
RTVSPost2010Prop44ColorRGB
 90
      255
102
RTVSPost2010PropOp44
 70
     1
102
RTVSPost2010Prop45
280
     0
102
RTVSPost2010PropOp45
 70
     1
102
RTVSPost2010Prop46
 90
       50
102
RTVSPost2010PropOp46
 70
     1
102
RTVSPost2010Prop47
 90
       50
102
RTVSPost2010PropOp47
 70
     1
102
RTVSPost2010Prop48
 90
       50
102
RTVSPost2010PropOp48
 70
     1
102
RTVSPost2010Prop49
280
     0
102
RTVSPost2010PropOp49
 70
     1
102
RTVSPost2010Prop50
 90
       50
102
RTVSPost2010PropOp50
 70
     1
102
RTVSPost2010Prop51ColorIndex
 90
      256
102
RTVSPost2010Prop51ColorRGB
 90
-16777216
102
RTVSPost2010PropOp51
 70
     0
102
RTVSPost2010Prop52
140
1.0
102
RTVSPost2010PropOp52
 70
     0
102
RTVSPost2010Prop53
 90
        2
102
RTVSPost2010PropOp53
 70
     1
102
RTVSPost2010Prop54
  1
strokes_ogs.tif
102
RTVSPost2010PropOp54
 70
     1
102
RTVSPost2010Prop55
280
     0
102
RTVSPost2010PropOp55
 70
     1
102
RTVSPost2010Prop56
140
1.0
102
RTVSPost2010PropOp56
 70
     1
102
RTVSPost2010Prop57
140
1.0
102
RTVSPost2010PropOp57
 70
     1
  0
XRECORD
  5
351
102
{ACAD_REACTORS
330
350
102
}
330
350
100
AcDbXrecord
280
     1
102
RTVSPropertyOp0
 70
     0
102
RTVSPropertyOp1
 70
     0
102
RTVSPropertyOp2
 70
     0
102
RTVSPropertyOp3
 70
     0
102
RTVSPropertyOp4
 70
     0
102
RTVSPropertyOp5
 70
     0
102
RTVSPropertyOp6
 70
     0
102
RTVSPropertyOp7
 70
     0
102
RTVSPropertyOp8
 70
     0
102
RTVSPropertyOp9
 70
     0
102
RTVSPropertyOp10
 70
     0
102
RTVSPropertyOp11
 70
     0
102
RTVSPropertyOp12
 70
     0
102
RTVSPropertyOp13
 70
     0
102
RTVSPropertyOp14
 70
     2
102
RTVSPropertyOp15
 70
     0
102
RTVSPropertyOp16
 70
     0
102
RTVSPropertyOp17
 70
     0
102
RTVSPropertyOp18
 70
     0
102
RTVSPropertyOp19
 70
     0
102
RTVSPropertyOp20
 70
     0
102
RTVSPropertyOp21
 70
     0
102
RTVSPropertyOp22
 70
     0
102
RTVSPropertyOp23
 70
     0
102
RTVSPropertyOp24
 70
     0
102
RTVSPropertyOp25
 70
     0
102
RTVSPropertyOp26
 70
     0
102
RTVSPropertyOp27
 70
     0
102
RTVSPropertyOp28
 70
     0
102
RTVSPropertyOp29
 70
     0
102
RTVSPropertyOp30
 70
     0
102
RTVSPropertyOp31
 70
     0
102
RTVSPropertyOp32
 70
     0
102
RTVSPropertyOp33
 70
     0
102
RTVSPropertyOp34
 70
     0
102
RTVSPropertyOp35
 70
     0
102
RTVSPropertyOp36
 70
     0
102
RTVSPropertyOp37
 70
     0
102
RTVSPropertyOp38
 70
     0
102
RTVSPropertyOp39
 70
     0
102
RTVSPropertyOp40
 70
     0
102
RTVSPropertyOp41
 70
     0
102
RTVSPropertyOp42
 70
     0
102
RTVSPropertyOp43
 70
     0
102
RTVSPropertyOp44
 70
     0
102
RTVSPropertyOp45
 70
     0
102
RTVSPropertyOp46
 70
     0
102
RTVSPropertyOp47
 70
     0
102
RTVSPropertyOp48
 70
     0
102
RTVSPropertyOp49
 70
     0
102
RTVSPropertyOp50
 70
     0
102
RTVSPropertyOp51
 70
     0
102
RTVSPropertyOp52
 70
     0
102
RTVSPropertyOp53
 70
     0
102
RTVSPropertyOp54
 70
     0
102
RTVSPropertyOp55
 70
     0
102
RTVSPropertyOp56
 70
     0
102
RTVSPropertyOp57
 70
     0
102
RTVSPost2010Prop28
280
     0
102
RTVSPost2010PropOp28
 70
     0
102
RTVSPost2010Prop29
280
     1
102
RTVSPost2010PropOp29
 70
     0
102
RTVSPost2010Prop30
280
     1
102
RTVSPost2010PropOp30
 70
     0
102
RTVSPost2010Prop31
280
     0
102
RTVSPost2010PropOp31
 70
     0
102
RTVSPost2010Prop32
280
     0
102
RTVSPost2010PropOp32
 70
     0
102
RTVSPost2010Prop33
280
     0
102
RTVSPost2010PropOp33
 70
     0
102
RTVSPost2010Prop34
280
     0
102
RTVSPost2010PropOp34
 70
     0
102
RTVSPost2010Prop35
280
     0
102
RTVSPost2010PropOp35
 70
     0
102
RTVSPost2010Prop36
280
     0
102
RTVSPost2010PropOp36
 70
     0
102
RTVSPost2010Prop37
 90
       50
102
RTVSPost2010PropOp37
 70
     0
102
RTVSPost2010Prop38
140
0.0
102
RTVSPost2010PropOp38
 70
     0
102
RTVSPost2010Prop39
140
1.0
102
RTVSPost2010PropOp39
 70
     0
102
RTVSPost2010Prop40
 90
        0
102
RTVSPost2010PropOp40
 70
     0
102
RTVSPost2010Prop41ColorIndex
 90
      178
102
RTVSPost2010Prop41ColorRGB
 90
        0
102
RTVSPost2010PropOp41
 70
     0
102
RTVSPost2010Prop42
 90
       50
102
RTVSPost2010PropOp42
 70
     0
102
RTVSPost2010Prop43
 90
        3
102
RTVSPost2010PropOp43
 70
     0
102
RTVSPost2010Prop44ColorIndex
 90
        5
102
RTVSPost2010Prop44ColorRGB
 90
      255
102
RTVSPost2010PropOp44
 70
     0
102
RTVSPost2010Prop45
280
     0
102
RTVSPost2010PropOp45
 70
     0
102
RTVSPost2010Prop46
 90
       50
102
RTVSPost2010PropOp46
 70
     0
102
RTVSPost2010Prop47
 90
       50
102
RTVSPost2010PropOp47
 70
     0
102
RTVSPost2010Prop48
 90
       50
102
RTVSPost2010PropOp48
 70
     0
102
RTVSPost2010Prop49
280
     0
102
RTVSPost2010PropOp49
 70
     0
102
RTVSPost2010Prop50
 90
       50
102
RTVSPost2010PropOp50
 70
     0
102
RTVSPost2010Prop51ColorIndex
 90
      256
102
RTVSPost2010Prop51ColorRGB
 90
-16777216
102
RTVSPost2010PropOp51
 70
     0
102
RTVSPost2010Prop52
140
1.0
102
RTVSPost2010PropOp52
 70
     0
102
RTVSPost2010Prop53
 90
        2
102
RTVSPost2010PropOp53
 70
     0
102
RTVSPost2010Prop54
  1
strokes_ogs.tif
102
RTVSPost2010PropOp54
 70
     0
102
RTVSPost2010Prop55
280
     0
102
RTVSPost2010PropOp55
 70
     0
102
RTVSPost2010Prop56
140
1.0
102
RTVSPost2010PropOp56
 70
     0
102
RTVSPost2010Prop57
140
1.0
102
RTVSPost2010PropOp57
 70
     0
  0
XRECORD
  5
34B
102
{ACAD_REACTORS
330
34A
102
}
330
34A
100
AcDbXrecord
280
     1
102
RTVSPropertyOp0
 70
     1
102
RTVSPropertyOp1
 70
     1
102
RTVSPropertyOp2
 70
     1
102
RTVSPropertyOp3
 70
     1
102
RTVSPropertyOp4
 70
     1
102
RTVSPropertyOp5
 70
     1
102
RTVSPropertyOp6
 70
     1
102
RTVSPropertyOp7
 70
     1
102
RTVSPropertyOp8
 70
     1
102
RTVSPropertyOp9
 70
     1
102
RTVSPropertyOp10
 70
     1
102
RTVSPropertyOp11
 70
     1
102
RTVSPropertyOp12
 70
     1
102
RTVSPropertyOp13
 70
     1
102
RTVSPropertyOp14
 70
     1
102
RTVSPropertyOp15
 70
     1
102
RTVSPropertyOp16
 70
     1
102
RTVSPropertyOp17
 70
     1
102
RTVSPropertyOp18
 70
     1
102
RTVSPropertyOp19
 70
     1
102
RTVSPropertyOp20
 70
     1
102
RTVSPropertyOp21
 70
     1
102
RTVSPropertyOp22
 70
     1
102
RTVSPropertyOp23
 70
     1
102
RTVSPropertyOp24
 70
     1
102
RTVSPropertyOp25
 70
     1
102
RTVSPropertyOp26
 70
     1
102
RTVSPropertyOp27
 70
     1
102
RTVSPropertyOp28
 70
     1
102
RTVSPropertyOp29
 70
     1
102
RTVSPropertyOp30
 70
     1
102
RTVSPropertyOp31
 70
     1
102
RTVSPropertyOp32
 70
     1
102
RTVSPropertyOp33
 70
     1
102
RTVSPropertyOp34
 70
     1
102
RTVSPropertyOp35
 70
     1
102
RTVSPropertyOp36
 70
     1
102
RTVSPropertyOp37
 70
     1
102
RTVSPropertyOp38
 70
     1
102
RTVSPropertyOp39
 70
     1
102
RTVSPropertyOp40
 70
     1
102
RTVSPropertyOp41
 70
     1
102
RTVSPropertyOp42
 70
     1
102
RTVSPropertyOp43
 70
     1
102
RTVSPropertyOp44
 70
     1
102
RTVSPropertyOp45
 70
     1
102
RTVSPropertyOp46
 70
     1
102
RTVSPropertyOp47
 70
     1
102
RTVSPropertyOp48
 70
     1
102
RTVSPropertyOp49
 70
     1
102
RTVSPropertyOp50
 70
     1
102
RTVSPropertyOp51
 70
     0
102
RTVSPropertyOp52
 70
     0
102
RTVSPropertyOp53
 70
     1
102
RTVSPropertyOp54
 70
     1
102
RTVSPropertyOp55
 70
     1
102
RTVSPropertyOp56
 70
     1
102
RTVSPropertyOp57
 70
     1
102
RTVSPost2010Prop28
280
     0
102
RTVSPost2010PropOp28
 70
     1
102
RTVSPost2010Prop29
280
     1
102
RTVSPost2010PropOp29
 70
     1
102
RTVSPost2010Prop30
280
     1
102
RTVSPost2010PropOp30
 70
     1
102
RTVSPost2010Prop31
280
     0
102
RTVSPost2010PropOp31
 70
     1
102
RTVSPost2010Prop32
280
     0
102
RTVSPost2010PropOp32
 70
     1
102
RTVSPost2010Prop33
280
     0
102
RTVSPost2010PropOp33
 70
     1
102
RTVSPost2010Prop34
280
     0
102
RTVSPost2010PropOp34
 70
     1
102
RTVSPost2010Prop35
280
     0
102
RTVSPost2010PropOp35
 70
     1
102
RTVSPost2010Prop36
280
     0
102
RTVSPost2010PropOp36
 70
     1
102
RTVSPost2010Prop37
 90
       50
102
RTVSPost2010PropOp37
 70
     1
102
RTVSPost2010Prop38
140
0.0
102
RTVSPost2010PropOp38
 70
     1
102
RTVSPost2010Prop39
140
1.0
102
RTVSPost2010PropOp39
 70
     1
102
RTVSPost2010Prop40
 90
        0
102
RTVSPost2010PropOp40
 70
     1
102
RTVSPost2010Prop41ColorIndex
 90
      178
102
RTVSPost2010Prop41ColorRGB
 90
        0
102
RTVSPost2010PropOp41
 70
     1
102
RTVSPost2010Prop42
 90
       50
102
RTVSPost2010PropOp42
 70
     1
102
RTVSPost2010Prop43
 90
        3
102
RTVSPost2010PropOp43
 70
     1
102
RTVSPost2010Prop44ColorIndex
 90
        5
102
RTVSPost2010Prop44ColorRGB
 90
      255
102
RTVSPost2010PropOp44
 70
     1
102
RTVSPost2010Prop45
280
     0
102
RTVSPost2010PropOp45
 70
     1
102
RTVSPost2010Prop46
 90
       50
102
RTVSPost2010PropOp46
 70
     1
102
RTVSPost2010Prop47
 90
       50
102
RTVSPost2010PropOp47
 70
     1
102
RTVSPost2010Prop48
 90
       50
102
RTVSPost2010PropOp48
 70
     1
102
RTVSPost2010Prop49
280
     0
102
RTVSPost2010PropOp49
 70
     1
102
RTVSPost2010Prop50
 90
       50
102
RTVSPost2010PropOp50
 70
     1
102
RTVSPost2010Prop51ColorIndex
 90
      256
102
RTVSPost2010Prop51ColorRGB
 90
-16777216
102
RTVSPost2010PropOp51
 70
     0
102
RTVSPost2010Prop52
140
1.0
102
RTVSPost2010PropOp52
 70
     0
102
RTVSPost2010Prop53
 90
        2
102
RTVSPost2010PropOp53
 70
     1
102
RTVSPost2010Prop54
  1
strokes_ogs.tif
102
RTVSPost2010PropOp54
 70
     1
102
RTVSPost2010Prop55
280
     0
102
RTVSPost2010PropOp55
 70
     1
102
RTVSPost2010Prop56
140
1.0
102
RTVSPost2010PropOp56
 70
     1
102
RTVSPost2010Prop57
140
1.0
102
RTVSPost2010PropOp57
 70
     1
  0
XRECORD
  5
353
102
{ACAD_REACTORS
330
352
102
}
330
352
100
AcDbXrecord
280
     1
102
RTVSPropertyOp0
 70
     0
102
RTVSPropertyOp1
 70
     0
102
RTVSPropertyOp2
 70
     0
102
RTVSPropertyOp3
 70
     0
102
RTVSPropertyOp4
 70
     0
102
RTVSPropertyOp5
 70
     0
102
RTVSPropertyOp6
 70
     0
102
RTVSPropertyOp7
 70
     0
102
RTVSPropertyOp8
 70
     0
102
RTVSPropertyOp9
 70
     0
102
RTVSPropertyOp10
 70
     0
102
RTVSPropertyOp11
 70
     0
102
RTVSPropertyOp12
 70
     0
102
RTVSPropertyOp13
 70
     0
102
RTVSPropertyOp14
 70
     2
102
RTVSPropertyOp15
 70
     0
102
RTVSPropertyOp16
 70
     0
102
RTVSPropertyOp17
 70
     0
102
RTVSPropertyOp18
 70
     0
102
RTVSPropertyOp19
 70
     0
102
RTVSPropertyOp20
 70
     0
102
RTVSPropertyOp21
 70
     0
102
RTVSPropertyOp22
 70
     0
102
RTVSPropertyOp23
 70
     0
102
RTVSPropertyOp24
 70
     0
102
RTVSPropertyOp25
 70
     0
102
RTVSPropertyOp26
 70
     0
102
RTVSPropertyOp27
 70
     0
102
RTVSPropertyOp28
 70
     0
102
RTVSPropertyOp29
 70
     0
102
RTVSPropertyOp30
 70
     0
102
RTVSPropertyOp31
 70
     0
102
RTVSPropertyOp32
 70
     0
102
RTVSPropertyOp33
 70
     0
102
RTVSPropertyOp34
 70
     0
102
RTVSPropertyOp35
 70
     0
102
RTVSPropertyOp36
 70
     0
102
RTVSPropertyOp37
 70
     0
102
RTVSPropertyOp38
 70
     0
102
RTVSPropertyOp39
 70
     0
102
RTVSPropertyOp40
 70
     0
102
RTVSPropertyOp41
 70
     0
102
RTVSPropertyOp42
 70
     0
102
RTVSPropertyOp43
 70
     0
102
RTVSPropertyOp44
 70
     0
102
RTVSPropertyOp45
 70
     0
102
RTVSPropertyOp46
 70
     0
102
RTVSPropertyOp47
 70
     0
102
RTVSPropertyOp48
 70
     0
102
RTVSPropertyOp49
 70
     0
102
RTVSPropertyOp50
 70
     0
102
RTVSPropertyOp51
 70
     0
102
RTVSPropertyOp52
 70
     0
102
RTVSPropertyOp53
 70
     0
102
RTVSPropertyOp54
 70
     0
102
RTVSPropertyOp55
 70
     0
102
RTVSPropertyOp56
 70
     0
102
RTVSPropertyOp57
 70
     0
102
RTVSPost2010Prop28
280
     0
102
RTVSPost2010PropOp28
 70
     0
102
RTVSPost2010Prop29
280
     1
102
RTVSPost2010PropOp29
 70
     0
102
RTVSPost2010Prop30
280
     1
102
RTVSPost2010PropOp30
 70
     0
102
RTVSPost2010Prop31
280
     0
102
RTVSPost2010PropOp31
 70
     0
102
RTVSPost2010Prop32
280
     0
102
RTVSPost2010PropOp32
 70
     0
102
RTVSPost2010Prop33
280
     0
102
RTVSPost2010PropOp33
 70
     0
102
RTVSPost2010Prop34
280
     0
102
RTVSPost2010PropOp34
 70
     0
102
RTVSPost2010Prop35
280
     0
102
RTVSPost2010PropOp35
 70
     0
102
RTVSPost2010Prop36
280
     0
102
RTVSPost2010PropOp36
 70
     0
102
RTVSPost2010Prop37
 90
       50
102
RTVSPost2010PropOp37
 70
     0
102
RTVSPost2010Prop38
140
0.0
102
RTVSPost2010PropOp38
 70
     0
102
RTVSPost2010Prop39
140
1.0
102
RTVSPost2010PropOp39
 70
     0
102
RTVSPost2010Prop40
 90
        0
102
RTVSPost2010PropOp40
 70
     0
102
RTVSPost2010Prop41ColorIndex
 90
      178
102
RTVSPost2010Prop41ColorRGB
 90
        0
102
RTVSPost2010PropOp41
 70
     0
102
RTVSPost2010Prop42
 90
       50
102
RTVSPost2010PropOp42
 70
     0
102
RTVSPost2010Prop43
 90
        3
102
RTVSPost2010PropOp43
 70
     0
102
RTVSPost2010Prop44ColorIndex
 90
        5
102
RTVSPost2010Prop44ColorRGB
 90
      255
102
RTVSPost2010PropOp44
 70
     0
102
RTVSPost2010Prop45
280
     0
102
RTVSPost2010PropOp45
 70
     0
102
RTVSPost2010Prop46
 90
       50
102
RTVSPost2010PropOp46
 70
     0
102
RTVSPost2010Prop47
 90
       50
102
RTVSPost2010PropOp47
 70
     0
102
RTVSPost2010Prop48
 90
       50
102
RTVSPost2010PropOp48
 70
     0
102
RTVSPost2010Prop49
280
     0
102
RTVSPost2010PropOp49
 70
     0
102
RTVSPost2010Prop50
 90
       50
102
RTVSPost2010PropOp50
 70
     0
102
RTVSPost2010Prop51ColorIndex
 90
      256
102
RTVSPost2010Prop51ColorRGB
 90
-16777216
102
RTVSPost2010PropOp51
 70
     0
102
RTVSPost2010Prop52
140
1.0
102
RTVSPost2010PropOp52
 70
     0
102
RTVSPost2010Prop53
 90
        2
102
RTVSPost2010PropOp53
 70
     0
102
RTVSPost2010Prop54
  1
strokes_ogs.tif
102
RTVSPost2010PropOp54
 70
     0
102
RTVSPost2010Prop55
280
     0
102
RTVSPost2010PropOp55
 70
     0
102
RTVSPost2010Prop56
140
1.0
102
RTVSPost2010PropOp56
 70
     0
102
RTVSPost2010Prop57
140
1.0
102
RTVSPost2010PropOp57
 70
     0
  0
XRECORD
  5
341
102
{ACAD_REACTORS
330
340
102
}
330
340
100
AcDbXrecord
280
     1
102
RTVSPropertyOp0
 70
     1
102
RTVSPropertyOp1
 70
     1
102
RTVSPropertyOp2
 70
     1
102
RTVSPropertyOp3
 70
     1
102
RTVSPropertyOp4
 70
     1
102
RTVSPropertyOp5
 70
     1
102
RTVSPropertyOp6
 70
     1
102
RTVSPropertyOp7
 70
     1
102
RTVSPropertyOp8
 70
     1
102
RTVSPropertyOp9
 70
     1
102
RTVSPropertyOp10
 70
     1
102
RTVSPropertyOp11
 70
     1
102
RTVSPropertyOp12
 70
     1
102
RTVSPropertyOp13
 70
     1
102
RTVSPropertyOp14
 70
     1
102
RTVSPropertyOp15
 70
     1
102
RTVSPropertyOp16
 70
     1
102
RTVSPropertyOp17
 70
     1
102
RTVSPropertyOp18
 70
     1
102
RTVSPropertyOp19
 70
     1
102
RTVSPropertyOp20
 70
     1
102
RTVSPropertyOp21
 70
     1
102
RTVSPropertyOp22
 70
     1
102
RTVSPropertyOp23
 70
     1
102
RTVSPropertyOp24
 70
     1
102
RTVSPropertyOp25
 70
     1
102
RTVSPropertyOp26
 70
     1
102
RTVSPropertyOp27
 70
     1
102
RTVSPropertyOp28
 70
     1
102
RTVSPropertyOp29
 70
     1
102
RTVSPropertyOp30
 70
     1
102
RTVSPropertyOp31
 70
     1
102
RTVSPropertyOp32
 70
     1
102
RTVSPropertyOp33
 70
     1
102
RTVSPropertyOp34
 70
     1
102
RTVSPropertyOp35
 70
     1
102
RTVSPropertyOp36
 70
     1
102
RTVSPropertyOp37
 70
     1
102
RTVSPropertyOp38
 70
     1
102
RTVSPropertyOp39
 70
     1
102
RTVSPropertyOp40
 70
     1
102
RTVSPropertyOp41
 70
     1
102
RTVSPropertyOp42
 70
     1
102
RTVSPropertyOp43
 70
     1
102
RTVSPropertyOp44
 70
     1
102
RTVSPropertyOp45
 70
     1
102
RTVSPropertyOp46
 70
     1
102
RTVSPropertyOp47
 70
     1
102
RTVSPropertyOp48
 70
     1
102
RTVSPropertyOp49
 70
     1
102
RTVSPropertyOp50
 70
     1
102
RTVSPropertyOp51
 70
     0
102
RTVSPropertyOp52
 70
     0
102
RTVSPropertyOp53
 70
     1
102
RTVSPropertyOp54
 70
     1
102
RTVSPropertyOp55
 70
     1
102
RTVSPropertyOp56
 70
     1
102
RTVSPropertyOp57
 70
     1
102
RTVSPost2010Prop28
280
     0
102
RTVSPost2010PropOp28
 70
     1
102
RTVSPost2010Prop29
280
     1
102
RTVSPost2010PropOp29
 70
     1
102
RTVSPost2010Prop30
280
     1
102
RTVSPost2010PropOp30
 70
     1
102
RTVSPost2010Prop31
280
     0
102
RTVSPost2010PropOp31
 70
     1
102
RTVSPost2010Prop32
280
     0
102
RTVSPost2010PropOp32
 70
     1
102
RTVSPost2010Prop33
280
     0
102
RTVSPost2010PropOp33
 70
     1
102
RTVSPost2010Prop34
280
     0
102
RTVSPost2010PropOp34
 70
     1
102
RTVSPost2010Prop35
280
     0
102
RTVSPost2010PropOp35
 70
     1
102
RTVSPost2010Prop36
280
     0
102
RTVSPost2010PropOp36
 70
     1
102
RTVSPost2010Prop37
 90
       50
102
RTVSPost2010PropOp37
 70
     1
102
RTVSPost2010Prop38
140
0.0
102
RTVSPost2010PropOp38
 70
     1
102
RTVSPost2010Prop39
140
1.0
102
RTVSPost2010PropOp39
 70
     1
102
RTVSPost2010Prop40
 90
        0
102
RTVSPost2010PropOp40
 70
     1
102
RTVSPost2010Prop41ColorIndex
 90
      178
102
RTVSPost2010Prop41ColorRGB
 90
        0
102
RTVSPost2010PropOp41
 70
     1
102
RTVSPost2010Prop42
 90
       50
102
RTVSPost2010PropOp42
 70
     1
102
RTVSPost2010Prop43
 90
        3
102
RTVSPost2010PropOp43
 70
     1
102
RTVSPost2010Prop44ColorIndex
 90
        5
102
RTVSPost2010Prop44ColorRGB
 90
      255
102
RTVSPost2010PropOp44
 70
     1
102
RTVSPost2010Prop45
280
     0
102
RTVSPost2010PropOp45
 70
     1
102
RTVSPost2010Prop46
 90
       50
102
RTVSPost2010PropOp46
 70
     1
102
RTVSPost2010Prop47
 90
       50
102
RTVSPost2010PropOp47
 70
     1
102
RTVSPost2010Prop48
 90
       50
102
RTVSPost2010PropOp48
 70
     1
102
RTVSPost2010Prop49
280
     0
102
RTVSPost2010PropOp49
 70
     1
102
RTVSPost2010Prop50
 90
       50
102
RTVSPost2010PropOp50
 70
     1
102
RTVSPost2010Prop51ColorIndex
 90
      256
102
RTVSPost2010Prop51ColorRGB
 90
-16777216
102
RTVSPost2010PropOp51
 70
     0
102
RTVSPost2010Prop52
140
1.0
102
RTVSPost2010PropOp52
 70
     0
102
RTVSPost2010Prop53
 90
        2
102
RTVSPost2010PropOp53
 70
     1
102
RTVSPost2010Prop54
  1
strokes_ogs.tif
102
RTVSPost2010PropOp54
 70
     1
102
RTVSPost2010Prop55
280
     0
102
RTVSPost2010PropOp55
 70
     1
102
RTVSPost2010Prop56
140
1.0
102
RTVSPost2010PropOp56
 70
     1
102
RTVSPost2010Prop57
140
1.0
102
RTVSPost2010PropOp57
 70
     1
  0
XRECORD
  5
35F
102
{ACAD_REACTORS
330
35E
102
}
330
35E
100
AcDbXrecord
280
     1
102
RTVSPropertyOp0
 70
     1
102
RTVSPropertyOp1
 70
     1
102
RTVSPropertyOp2
 70
     1
102
RTVSPropertyOp3
 70
     1
102
RTVSPropertyOp4
 70
     1
102
RTVSPropertyOp5
 70
     1
102
RTVSPropertyOp6
 70
     1
102
RTVSPropertyOp7
 70
     1
102
RTVSPropertyOp8
 70
     1
102
RTVSPropertyOp9
 70
     1
102
RTVSPropertyOp10
 70
     1
102
RTVSPropertyOp11
 70
     1
102
RTVSPropertyOp12
 70
     1
102
RTVSPropertyOp13
 70
     1
102
RTVSPropertyOp14
 70
     1
102
RTVSPropertyOp15
 70
     1
102
RTVSPropertyOp16
 70
     1
102
RTVSPropertyOp17
 70
     1
102
RTVSPropertyOp18
 70
     1
102
RTVSPropertyOp19
 70
     1
102
RTVSPropertyOp20
 70
     1
102
RTVSPropertyOp21
 70
     1
102
RTVSPropertyOp22
 70
     1
102
RTVSPropertyOp23
 70
     1
102
RTVSPropertyOp24
 70
     1
102
RTVSPropertyOp25
 70
     1
102
RTVSPropertyOp26
 70
     1
102
RTVSPropertyOp27
 70
     1
102
RTVSPropertyOp28
 70
     1
102
RTVSPropertyOp29
 70
     1
102
RTVSPropertyOp30
 70
     1
102
RTVSPropertyOp31
 70
     1
102
RTVSPropertyOp32
 70
     1
102
RTVSPropertyOp33
 70
     1
102
RTVSPropertyOp34
 70
     1
102
RTVSPropertyOp35
 70
     1
102
RTVSPropertyOp36
 70
     1
102
RTVSPropertyOp37
 70
     1
102
RTVSPropertyOp38
 70
     1
102
RTVSPropertyOp39
 70
     1
102
RTVSPropertyOp40
 70
     1
102
RTVSPropertyOp41
 70
     1
102
RTVSPropertyOp42
 70
     1
102
RTVSPropertyOp43
 70
     1
102
RTVSPropertyOp44
 70
     1
102
RTVSPropertyOp45
 70
     1
102
RTVSPropertyOp46
 70
     1
102
RTVSPropertyOp47
 70
     1
102
RTVSPropertyOp48
 70
     1
102
RTVSPropertyOp49
 70
     1
102
RTVSPropertyOp50
 70
     1
102
RTVSPropertyOp51
 70
     0
102
RTVSPropertyOp52
 70
     0
102
RTVSPropertyOp53
 70
     1
102
RTVSPropertyOp54
 70
     1
102
RTVSPropertyOp55
 70
     1
102
RTVSPropertyOp56
 70
     1
102
RTVSPropertyOp57
 70
     1
102
RTVSPost2010Prop28
280
     0
102
RTVSPost2010PropOp28
 70
     1
102
RTVSPost2010Prop29
280
     1
102
RTVSPost2010PropOp29
 70
     1
102
RTVSPost2010Prop30
280
     1
102
RTVSPost2010PropOp30
 70
     1
102
RTVSPost2010Prop31
280
     0
102
RTVSPost2010PropOp31
 70
     1
102
RTVSPost2010Prop32
280
     0
102
RTVSPost2010PropOp32
 70
     1
102
RTVSPost2010Prop33
280
     0
102
RTVSPost2010PropOp33
 70
     1
102
RTVSPost2010Prop34
280
     0
102
RTVSPost2010PropOp34
 70
     1
102
RTVSPost2010Prop35
280
     0
102
RTVSPost2010PropOp35
 70
     1
102
RTVSPost2010Prop36
280
     0
102
RTVSPost2010PropOp36
 70
     1
102
RTVSPost2010Prop37
 90
       50
102
RTVSPost2010PropOp37
 70
     1
102
RTVSPost2010Prop38
140
0.0
102
RTVSPost2010PropOp38
 70
     1
102
RTVSPost2010Prop39
140
1.0
102
RTVSPost2010PropOp39
 70
     1
102
RTVSPost2010Prop40
 90
        0
102
RTVSPost2010PropOp40
 70
     1
102
RTVSPost2010Prop41ColorIndex
 90
      178
102
RTVSPost2010Prop41ColorRGB
 90
        0
102
RTVSPost2010PropOp41
 70
     1
102
RTVSPost2010Prop42
 90
       50
102
RTVSPost2010PropOp42
 70
     1
102
RTVSPost2010Prop43
 90
        3
102
RTVSPost2010PropOp43
 70
     1
102
RTVSPost2010Prop44ColorIndex
 90
        5
102
RTVSPost2010Prop44ColorRGB
 90
      255
102
RTVSPost2010PropOp44
 70
     1
102
RTVSPost2010Prop45
280
     0
102
RTVSPost2010PropOp45
 70
     1
102
RTVSPost2010Prop46
 90
       50
102
RTVSPost2010PropOp46
 70
     1
102
RTVSPost2010Prop47
 90
       50
102
RTVSPost2010PropOp47
 70
     1
102
RTVSPost2010Prop48
 90
       50
102
RTVSPost2010PropOp48
 70
     1
102
RTVSPost2010Prop49
280
     0
102
RTVSPost2010PropOp49
 70
     1
102
RTVSPost2010Prop50
 90
       50
102
RTVSPost2010PropOp50
 70
     1
102
RTVSPost2010Prop51ColorIndex
 90
      256
102
RTVSPost2010Prop51ColorRGB
 90
-16777216
102
RTVSPost2010PropOp51
 70
     0
102
RTVSPost2010Prop52
140
1.0
102
RTVSPost2010PropOp52
 70
     0
102
RTVSPost2010Prop53
 90
        2
102
RTVSPost2010PropOp53
 70
     1
102
RTVSPost2010Prop54
  1
strokes_ogs.tif
102
RTVSPost2010PropOp54
 70
     1
102
RTVSPost2010Prop55
280
     0
102
RTVSPost2010PropOp55
 70
     1
102
RTVSPost2010Prop56
140
1.0
102
RTVSPost2010PropOp56
 70
     1
102
RTVSPost2010Prop57
140
1.0
102
RTVSPost2010PropOp57
 70
     1
  0
XRECORD
  5
35D
102
{ACAD_REACTORS
330
35C
102
}
330
35C
100
AcDbXrecord
280
     1
102
RTVSPropertyOp0
 70
     1
102
RTVSPropertyOp1
 70
     1
102
RTVSPropertyOp2
 70
     1
102
RTVSPropertyOp3
 70
     1
102
RTVSPropertyOp4
 70
     1
102
RTVSPropertyOp5
 70
     1
102
RTVSPropertyOp6
 70
     1
102
RTVSPropertyOp7
 70
     1
102
RTVSPropertyOp8
 70
     1
102
RTVSPropertyOp9
 70
     1
102
RTVSPropertyOp10
 70
     1
102
RTVSPropertyOp11
 70
     1
102
RTVSPropertyOp12
 70
     1
102
RTVSPropertyOp13
 70
     1
102
RTVSPropertyOp14
 70
     1
102
RTVSPropertyOp15
 70
     1
102
RTVSPropertyOp16
 70
     1
102
RTVSPropertyOp17
 70
     1
102
RTVSPropertyOp18
 70
     1
102
RTVSPropertyOp19
 70
     1
102
RTVSPropertyOp20
 70
     1
102
RTVSPropertyOp21
 70
     1
102
RTVSPropertyOp22
 70
     1
102
RTVSPropertyOp23
 70
     1
102
RTVSPropertyOp24
 70
     1
102
RTVSPropertyOp25
 70
     1
102
RTVSPropertyOp26
 70
     1
102
RTVSPropertyOp27
 70
     1
102
RTVSPropertyOp28
 70
     1
102
RTVSPropertyOp29
 70
     1
102
RTVSPropertyOp30
 70
     1
102
RTVSPropertyOp31
 70
     1
102
RTVSPropertyOp32
 70
     1
102
RTVSPropertyOp33
 70
     1
102
RTVSPropertyOp34
 70
     1
102
RTVSPropertyOp35
 70
     1
102
RTVSPropertyOp36
 70
     1
102
RTVSPropertyOp37
 70
     1
102
RTVSPropertyOp38
 70
     1
102
RTVSPropertyOp39
 70
     1
102
RTVSPropertyOp40
 70
     1
102
RTVSPropertyOp41
 70
     1
102
RTVSPropertyOp42
 70
     1
102
RTVSPropertyOp43
 70
     1
102
RTVSPropertyOp44
 70
     1
102
RTVSPropertyOp45
 70
     1
102
RTVSPropertyOp46
 70
     1
102
RTVSPropertyOp47
 70
     1
102
RTVSPropertyOp48
 70
     1
102
RTVSPropertyOp49
 70
     1
102
RTVSPropertyOp50
 70
     1
102
RTVSPropertyOp51
 70
     0
102
RTVSPropertyOp52
 70
     0
102
RTVSPropertyOp53
 70
     1
102
RTVSPropertyOp54
 70
     1
102
RTVSPropertyOp55
 70
     1
102
RTVSPropertyOp56
 70
     1
102
RTVSPropertyOp57
 70
     1
102
RTVSPost2010Prop28
280
     0
102
RTVSPost2010PropOp28
 70
     1
102
RTVSPost2010Prop29
280
     1
102
RTVSPost2010PropOp29
 70
     1
102
RTVSPost2010Prop30
280
     1
102
RTVSPost2010PropOp30
 70
     1
102
RTVSPost2010Prop31
280
     0
102
RTVSPost2010PropOp31
 70
     1
102
RTVSPost2010Prop32
280
     0
102
RTVSPost2010PropOp32
 70
     1
102
RTVSPost2010Prop33
280
     0
102
RTVSPost2010PropOp33
 70
     1
102
RTVSPost2010Prop34
280
     0
102
RTVSPost2010PropOp34
 70
     1
102
RTVSPost2010Prop35
280
     0
102
RTVSPost2010PropOp35
 70
     1
102
RTVSPost2010Prop36
280
     0
102
RTVSPost2010PropOp36
 70
     1
102
RTVSPost2010Prop37
 90
       50
102
RTVSPost2010PropOp37
 70
     1
102
RTVSPost2010Prop38
140
0.0
102
RTVSPost2010PropOp38
 70
     1
102
RTVSPost2010Prop39
140
1.0
102
RTVSPost2010PropOp39
 70
     1
102
RTVSPost2010Prop40
 90
        0
102
RTVSPost2010PropOp40
 70
     1
102
RTVSPost2010Prop41ColorIndex
 90
      178
102
RTVSPost2010Prop41ColorRGB
 90
        0
102
RTVSPost2010PropOp41
 70
     1
102
RTVSPost2010Prop42
 90
       50
102
RTVSPost2010PropOp42
 70
     1
102
RTVSPost2010Prop43
 90
        3
102
RTVSPost2010PropOp43
 70
     1
102
RTVSPost2010Prop44ColorIndex
 90
        5
102
RTVSPost2010Prop44ColorRGB
 90
      255
102
RTVSPost2010PropOp44
 70
     1
102
RTVSPost2010Prop45
280
     0
102
RTVSPost2010PropOp45
 70
     1
102
RTVSPost2010Prop46
 90
       50
102
RTVSPost2010PropOp46
 70
     1
102
RTVSPost2010Prop47
 90
       50
102
RTVSPost2010PropOp47
 70
     1
102
RTVSPost2010Prop48
 90
       50
102
RTVSPost2010PropOp48
 70
     1
102
RTVSPost2010Prop49
280
     0
102
RTVSPost2010PropOp49
 70
     1
102
RTVSPost2010Prop50
 90
       50
102
RTVSPost2010PropOp50
 70
     1
102
RTVSPost2010Prop51ColorIndex
 90
      256
102
RTVSPost2010Prop51ColorRGB
 90
-16777216
102
RTVSPost2010PropOp51
 70
     0
102
RTVSPost2010Prop52
140
1.0
102
RTVSPost2010PropOp52
 70
     0
102
RTVSPost2010Prop53
 90
        2
102
RTVSPost2010PropOp53
 70
     1
102
RTVSPost2010Prop54
  1
strokes_ogs.tif
102
RTVSPost2010PropOp54
 70
     1
102
RTVSPost2010Prop55
280
     0
102
RTVSPost2010PropOp55
 70
     1
102
RTVSPost2010Prop56
140
1.0
102
RTVSPost2010PropOp56
 70
     1
102
RTVSPost2010Prop57
140
1.0
102
RTVSPost2010PropOp57
 70
     1
  0
XRECORD
  5
357
102
{ACAD_REACTORS
330
356
102
}
330
356
100
AcDbXrecord
280
     1
102
RTVSPropertyOp0
 70
     1
102
RTVSPropertyOp1
 70
     1
102
RTVSPropertyOp2
 70
     1
102
RTVSPropertyOp3
 70
     1
102
RTVSPropertyOp4
 70
     1
102
RTVSPropertyOp5
 70
     1
102
RTVSPropertyOp6
 70
     1
102
RTVSPropertyOp7
 70
     1
102
RTVSPropertyOp8
 70
     1
102
RTVSPropertyOp9
 70
     1
102
RTVSPropertyOp10
 70
     1
102
RTVSPropertyOp11
 70
     1
102
RTVSPropertyOp12
 70
     1
102
RTVSPropertyOp13
 70
     1
102
RTVSPropertyOp14
 70
     1
102
RTVSPropertyOp15
 70
     1
102
RTVSPropertyOp16
 70
     1
102
RTVSPropertyOp17
 70
     1
102
RTVSPropertyOp18
 70
     1
102
RTVSPropertyOp19
 70
     1
102
RTVSPropertyOp20
 70
     1
102
RTVSPropertyOp21
 70
     1
102
RTVSPropertyOp22
 70
     1
102
RTVSPropertyOp23
 70
     1
102
RTVSPropertyOp24
 70
     1
102
RTVSPropertyOp25
 70
     1
102
RTVSPropertyOp26
 70
     1
102
RTVSPropertyOp27
 70
     1
102
RTVSPropertyOp28
 70
     1
102
RTVSPropertyOp29
 70
     1
102
RTVSPropertyOp30
 70
     1
102
RTVSPropertyOp31
 70
     1
102
RTVSPropertyOp32
 70
     1
102
RTVSPropertyOp33
 70
     1
102
RTVSPropertyOp34
 70
     1
102
RTVSPropertyOp35
 70
     1
102
RTVSPropertyOp36
 70
     1
102
RTVSPropertyOp37
 70
     1
102
RTVSPropertyOp38
 70
     1
102
RTVSPropertyOp39
 70
     1
102
RTVSPropertyOp40
 70
     1
102
RTVSPropertyOp41
 70
     1
102
RTVSPropertyOp42
 70
     1
102
RTVSPropertyOp43
 70
     1
102
RTVSPropertyOp44
 70
     1
102
RTVSPropertyOp45
 70
     1
102
RTVSPropertyOp46
 70
     1
102
RTVSPropertyOp47
 70
     1
102
RTVSPropertyOp48
 70
     1
102
RTVSPropertyOp49
 70
     1
102
RTVSPropertyOp50
 70
     1
102
RTVSPropertyOp51
 70
     0
102
RTVSPropertyOp52
 70
     0
102
RTVSPropertyOp53
 70
     1
102
RTVSPropertyOp54
 70
     1
102
RTVSPropertyOp55
 70
     1
102
RTVSPropertyOp56
 70
     1
102
RTVSPropertyOp57
 70
     1
102
RTVSPost2010Prop28
280
     0
102
RTVSPost2010PropOp28
 70
     1
102
RTVSPost2010Prop29
280
     1
102
RTVSPost2010PropOp29
 70
     1
102
RTVSPost2010Prop30
280
     1
102
RTVSPost2010PropOp30
 70
     1
102
RTVSPost2010Prop31
280
     0
102
RTVSPost2010PropOp31
 70
     1
102
RTVSPost2010Prop32
280
     0
102
RTVSPost2010PropOp32
 70
     1
102
RTVSPost2010Prop33
280
     0
102
RTVSPost2010PropOp33
 70
     1
102
RTVSPost2010Prop34
280
     0
102
RTVSPost2010PropOp34
 70
     1
102
RTVSPost2010Prop35
280
     0
102
RTVSPost2010PropOp35
 70
     1
102
RTVSPost2010Prop36
280
     0
102
RTVSPost2010PropOp36
 70
     1
102
RTVSPost2010Prop37
 90
       50
102
RTVSPost2010PropOp37
 70
     1
102
RTVSPost2010Prop38
140
0.0
102
RTVSPost2010PropOp38
 70
     1
102
RTVSPost2010Prop39
140
1.0
102
RTVSPost2010PropOp39
 70
     1
102
RTVSPost2010Prop40
 90
        0
102
RTVSPost2010PropOp40
 70
     1
102
RTVSPost2010Prop41ColorIndex
 90
      178
102
RTVSPost2010Prop41ColorRGB
 90
        0
102
RTVSPost2010PropOp41
 70
     1
102
RTVSPost2010Prop42
 90
       50
102
RTVSPost2010PropOp42
 70
     1
102
RTVSPost2010Prop43
 90
        3
102
RTVSPost2010PropOp43
 70
     1
102
RTVSPost2010Prop44ColorIndex
 90
        5
102
RTVSPost2010Prop44ColorRGB
 90
      255
102
RTVSPost2010PropOp44
 70
     1
102
RTVSPost2010Prop45
280
     0
102
RTVSPost2010PropOp45
 70
     1
102
RTVSPost2010Prop46
 90
       50
102
RTVSPost2010PropOp46
 70
     1
102
RTVSPost2010Prop47
 90
       50
102
RTVSPost2010PropOp47
 70
     1
102
RTVSPost2010Prop48
 90
       50
102
RTVSPost2010PropOp48
 70
     1
102
RTVSPost2010Prop49
280
     0
102
RTVSPost2010PropOp49
 70
     1
102
RTVSPost2010Prop50
 90
       50
102
RTVSPost2010PropOp50
 70
     1
102
RTVSPost2010Prop51ColorIndex
 90
      256
102
RTVSPost2010Prop51ColorRGB
 90
-16777216
102
RTVSPost2010PropOp51
 70
     0
102
RTVSPost2010Prop52
140
1.0
102
RTVSPost2010PropOp52
 70
     0
102
RTVSPost2010Prop53
 90
        2
102
RTVSPost2010PropOp53
 70
     1
102
RTVSPost2010Prop54
  1
strokes_ogs.tif
102
RTVSPost2010PropOp54
 70
     1
102
RTVSPost2010Prop55
280
     0
102
RTVSPost2010PropOp55
 70
     1
102
RTVSPost2010Prop56
140
1.0
102
RTVSPost2010PropOp56
 70
     1
102
RTVSPost2010Prop57
140
1.0
102
RTVSPost2010PropOp57
 70
     1
  0
XRECORD
  5
359
102
{ACAD_REACTORS
330
358
102
}
330
358
100
AcDbXrecord
280
     1
102
RTVSPropertyOp0
 70
     1
102
RTVSPropertyOp1
 70
     1
102
RTVSPropertyOp2
 70
     1
102
RTVSPropertyOp3
 70
     1
102
RTVSPropertyOp4
 70
     1
102
RTVSPropertyOp5
 70
     1
102
RTVSPropertyOp6
 70
     1
102
RTVSPropertyOp7
 70
     1
102
RTVSPropertyOp8
 70
     1
102
RTVSPropertyOp9
 70
     1
102
RTVSPropertyOp10
 70
     1
102
RTVSPropertyOp11
 70
     1
102
RTVSPropertyOp12
 70
     1
102
RTVSPropertyOp13
 70
     1
102
RTVSPropertyOp14
 70
     1
102
RTVSPropertyOp15
 70
     1
102
RTVSPropertyOp16
 70
     1
102
RTVSPropertyOp17
 70
     1
102
RTVSPropertyOp18
 70
     1
102
RTVSPropertyOp19
 70
     1
102
RTVSPropertyOp20
 70
     1
102
RTVSPropertyOp21
 70
     1
102
RTVSPropertyOp22
 70
     1
102
RTVSPropertyOp23
 70
     1
102
RTVSPropertyOp24
 70
     1
102
RTVSPropertyOp25
 70
     1
102
RTVSPropertyOp26
 70
     1
102
RTVSPropertyOp27
 70
     1
102
RTVSPropertyOp28
 70
     1
102
RTVSPropertyOp29
 70
     1
102
RTVSPropertyOp30
 70
     1
102
RTVSPropertyOp31
 70
     1
102
RTVSPropertyOp32
 70
     1
102
RTVSPropertyOp33
 70
     1
102
RTVSPropertyOp34
 70
     1
102
RTVSPropertyOp35
 70
     1
102
RTVSPropertyOp36
 70
     1
102
RTVSPropertyOp37
 70
     1
102
RTVSPropertyOp38
 70
     1
102
RTVSPropertyOp39
 70
     1
102
RTVSPropertyOp40
 70
     1
102
RTVSPropertyOp41
 70
     1
102
RTVSPropertyOp42
 70
     1
102
RTVSPropertyOp43
 70
     1
102
RTVSPropertyOp44
 70
     1
102
RTVSPropertyOp45
 70
     1
102
RTVSPropertyOp46
 70
     1
102
RTVSPropertyOp47
 70
     1
102
RTVSPropertyOp48
 70
     1
102
RTVSPropertyOp49
 70
     1
102
RTVSPropertyOp50
 70
     1
102
RTVSPropertyOp51
 70
     0
102
RTVSPropertyOp52
 70
     0
102
RTVSPropertyOp53
 70
     1
102
RTVSPropertyOp54
 70
     1
102
RTVSPropertyOp55
 70
     1
102
RTVSPropertyOp56
 70
     1
102
RTVSPropertyOp57
 70
     1
102
RTVSPost2010Prop28
280
     0
102
RTVSPost2010PropOp28
 70
     1
102
RTVSPost2010Prop29
280
     1
102
RTVSPost2010PropOp29
 70
     1
102
RTVSPost2010Prop30
280
     1
102
RTVSPost2010PropOp30
 70
     1
102
RTVSPost2010Prop31
280
     0
102
RTVSPost2010PropOp31
 70
     1
102
RTVSPost2010Prop32
280
     0
102
RTVSPost2010PropOp32
 70
     1
102
RTVSPost2010Prop33
280
     0
102
RTVSPost2010PropOp33
 70
     1
102
RTVSPost2010Prop34
280
     0
102
RTVSPost2010PropOp34
 70
     1
102
RTVSPost2010Prop35
280
     0
102
RTVSPost2010PropOp35
 70
     1
102
RTVSPost2010Prop36
280
     0
102
RTVSPost2010PropOp36
 70
     1
102
RTVSPost2010Prop37
 90
       50
102
RTVSPost2010PropOp37
 70
     1
102
RTVSPost2010Prop38
140
0.0
102
RTVSPost2010PropOp38
 70
     1
102
RTVSPost2010Prop39
140
1.0
102
RTVSPost2010PropOp39
 70
     1
102
RTVSPost2010Prop40
 90
        0
102
RTVSPost2010PropOp40
 70
     1
102
RTVSPost2010Prop41ColorIndex
 90
      178
102
RTVSPost2010Prop41ColorRGB
 90
        0
102
RTVSPost2010PropOp41
 70
     1
102
RTVSPost2010Prop42
 90
       50
102
RTVSPost2010PropOp42
 70
     1
102
RTVSPost2010Prop43
 90
        3
102
RTVSPost2010PropOp43
 70
     1
102
RTVSPost2010Prop44ColorIndex
 90
        5
102
RTVSPost2010Prop44ColorRGB
 90
      255
102
RTVSPost2010PropOp44
 70
     1
102
RTVSPost2010Prop45
280
     0
102
RTVSPost2010PropOp45
 70
     1
102
RTVSPost2010Prop46
 90
       50
102
RTVSPost2010PropOp46
 70
     1
102
RTVSPost2010Prop47
 90
       50
102
RTVSPost2010PropOp47
 70
     1
102
RTVSPost2010Prop48
 90
       50
102
RTVSPost2010PropOp48
 70
     1
102
RTVSPost2010Prop49
280
     0
102
RTVSPost2010PropOp49
 70
     1
102
RTVSPost2010Prop50
 90
       50
102
RTVSPost2010PropOp50
 70
     1
102
RTVSPost2010Prop51ColorIndex
 90
      256
102
RTVSPost2010Prop51ColorRGB
 90
-16777216
102
RTVSPost2010PropOp51
 70
     0
102
RTVSPost2010Prop52
140
1.0
102
RTVSPost2010PropOp52
 70
     0
102
RTVSPost2010Prop53
 90
        2
102
RTVSPost2010PropOp53
 70
     1
102
RTVSPost2010Prop54
  1
strokes_ogs.tif
102
RTVSPost2010PropOp54
 70
     1
102
RTVSPost2010Prop55
280
     0
102
RTVSPost2010PropOp55
 70
     1
102
RTVSPost2010Prop56
140
1.0
102
RTVSPost2010PropOp56
 70
     1
102
RTVSPost2010Prop57
140
1.0
102
RTVSPost2010PropOp57
 70
     1
  0
XRECORD
  5
349
102
{ACAD_REACTORS
330
348
102
}
330
348
100
AcDbXrecord
280
     1
102
RTVSPropertyOp0
 70
     1
102
RTVSPropertyOp1
 70
     1
102
RTVSPropertyOp2
 70
     1
102
RTVSPropertyOp3
 70
     1
102
RTVSPropertyOp4
 70
     1
102
RTVSPropertyOp5
 70
     1
102
RTVSPropertyOp6
 70
     1
102
RTVSPropertyOp7
 70
     1
102
RTVSPropertyOp8
 70
     1
102
RTVSPropertyOp9
 70
     1
102
RTVSPropertyOp10
 70
     1
102
RTVSPropertyOp11
 70
     1
102
RTVSPropertyOp12
 70
     1
102
RTVSPropertyOp13
 70
     1
102
RTVSPropertyOp14
 70
     1
102
RTVSPropertyOp15
 70
     1
102
RTVSPropertyOp16
 70
     1
102
RTVSPropertyOp17
 70
     1
102
RTVSPropertyOp18
 70
     1
102
RTVSPropertyOp19
 70
     1
102
RTVSPropertyOp20
 70
     1
102
RTVSPropertyOp21
 70
     1
102
RTVSPropertyOp22
 70
     1
102
RTVSPropertyOp23
 70
     1
102
RTVSPropertyOp24
 70
     1
102
RTVSPropertyOp25
 70
     1
102
RTVSPropertyOp26
 70
     1
102
RTVSPropertyOp27
 70
     1
102
RTVSPropertyOp28
 70
     1
102
RTVSPropertyOp29
 70
     1
102
RTVSPropertyOp30
 70
     1
102
RTVSPropertyOp31
 70
     1
102
RTVSPropertyOp32
 70
     1
102
RTVSPropertyOp33
 70
     1
102
RTVSPropertyOp34
 70
     1
102
RTVSPropertyOp35
 70
     1
102
RTVSPropertyOp36
 70
     1
102
RTVSPropertyOp37
 70
     1
102
RTVSPropertyOp38
 70
     1
102
RTVSPropertyOp39
 70
     1
102
RTVSPropertyOp40
 70
     1
102
RTVSPropertyOp41
 70
     1
102
RTVSPropertyOp42
 70
     1
102
RTVSPropertyOp43
 70
     1
102
RTVSPropertyOp44
 70
     1
102
RTVSPropertyOp45
 70
     1
102
RTVSPropertyOp46
 70
     1
102
RTVSPropertyOp47
 70
     1
102
RTVSPropertyOp48
 70
     1
102
RTVSPropertyOp49
 70
     1
102
RTVSPropertyOp50
 70
     1
102
RTVSPropertyOp51
 70
     0
102
RTVSPropertyOp52
 70
     0
102
RTVSPropertyOp53
 70
     1
102
RTVSPropertyOp54
 70
     1
102
RTVSPropertyOp55
 70
     1
102
RTVSPropertyOp56
 70
     1
102
RTVSPropertyOp57
 70
     1
102
RTVSPost2010Prop28
280
     0
102
RTVSPost2010PropOp28
 70
     1
102
RTVSPost2010Prop29
280
     1
102
RTVSPost2010PropOp29
 70
     1
102
RTVSPost2010Prop30
280
     1
102
RTVSPost2010PropOp30
 70
     1
102
RTVSPost2010Prop31
280
     0
102
RTVSPost2010PropOp31
 70
     1
102
RTVSPost2010Prop32
280
     0
102
RTVSPost2010PropOp32
 70
     1
102
RTVSPost2010Prop33
280
     0
102
RTVSPost2010PropOp33
 70
     1
102
RTVSPost2010Prop34
280
     0
102
RTVSPost2010PropOp34
 70
     1
102
RTVSPost2010Prop35
280
     0
102
RTVSPost2010PropOp35
 70
     1
102
RTVSPost2010Prop36
280
     0
102
RTVSPost2010PropOp36
 70
     1
102
RTVSPost2010Prop37
 90
       50
102
RTVSPost2010PropOp37
 70
     1
102
RTVSPost2010Prop38
140
0.0
102
RTVSPost2010PropOp38
 70
     1
102
RTVSPost2010Prop39
140
1.0
102
RTVSPost2010PropOp39
 70
     1
102
RTVSPost2010Prop40
 90
        0
102
RTVSPost2010PropOp40
 70
     1
102
RTVSPost2010Prop41ColorIndex
 90
      178
102
RTVSPost2010Prop41ColorRGB
 90
        0
102
RTVSPost2010PropOp41
 70
     1
102
RTVSPost2010Prop42
 90
       50
102
RTVSPost2010PropOp42
 70
     1
102
RTVSPost2010Prop43
 90
        3
102
RTVSPost2010PropOp43
 70
     1
102
RTVSPost2010Prop44ColorIndex
 90
        5
102
RTVSPost2010Prop44ColorRGB
 90
      255
102
RTVSPost2010PropOp44
 70
     1
102
RTVSPost2010Prop45
280
     0
102
RTVSPost2010PropOp45
 70
     1
102
RTVSPost2010Prop46
 90
       50
102
RTVSPost2010PropOp46
 70
     1
102
RTVSPost2010Prop47
 90
       50
102
RTVSPost2010PropOp47
 70
     1
102
RTVSPost2010Prop48
 90
       50
102
RTVSPost2010PropOp48
 70
     1
102
RTVSPost2010Prop49
280
     0
102
RTVSPost2010PropOp49
 70
     1
102
RTVSPost2010Prop50
 90
       50
102
RTVSPost2010PropOp50
 70
     1
102
RTVSPost2010Prop51ColorIndex
 90
      256
102
RTVSPost2010Prop51ColorRGB
 90
-16777216
102
RTVSPost2010PropOp51
 70
     0
102
RTVSPost2010Prop52
140
1.0
102
RTVSPost2010PropOp52
 70
     0
102
RTVSPost2010Prop53
 90
        2
102
RTVSPost2010PropOp53
 70
     1
102
RTVSPost2010Prop54
  1
strokes_ogs.tif
102
RTVSPost2010PropOp54
 70
     1
102
RTVSPost2010Prop55
280
     0
102
RTVSPost2010PropOp55
 70
     1
102
RTVSPost2010Prop56
140
1.0
102
RTVSPost2010PropOp56
 70
     1
102
RTVSPost2010Prop57
140
1.0
102
RTVSPost2010PropOp57
 70
     1
  0
XRECORD
  5
33B
102
{ACAD_REACTORS
330
33A
102
}
330
33A
100
AcDbXrecord
280
     1
102
RTVSPropertyOp0
 70
     1
102
RTVSPropertyOp1
 70
     1
102
RTVSPropertyOp2
 70
     1
102
RTVSPropertyOp3
 70
     1
102
RTVSPropertyOp4
 70
     1
102
RTVSPropertyOp5
 70
     1
102
RTVSPropertyOp6
 70
     1
102
RTVSPropertyOp7
 70
     1
102
RTVSPropertyOp8
 70
     1
102
RTVSPropertyOp9
 70
     1
102
RTVSPropertyOp10
 70
     1
102
RTVSPropertyOp11
 70
     1
102
RTVSPropertyOp12
 70
     1
102
RTVSPropertyOp13
 70
     1
102
RTVSPropertyOp14
 70
     1
102
RTVSPropertyOp15
 70
     1
102
RTVSPropertyOp16
 70
     1
102
RTVSPropertyOp17
 70
     1
102
RTVSPropertyOp18
 70
     1
102
RTVSPropertyOp19
 70
     1
102
RTVSPropertyOp20
 70
     1
102
RTVSPropertyOp21
 70
     1
102
RTVSPropertyOp22
 70
     1
102
RTVSPropertyOp23
 70
     1
102
RTVSPropertyOp24
 70
     1
102
RTVSPropertyOp25
 70
     1
102
RTVSPropertyOp26
 70
     1
102
RTVSPropertyOp27
 70
     1
102
RTVSPropertyOp28
 70
     1
102
RTVSPropertyOp29
 70
     1
102
RTVSPropertyOp30
 70
     1
102
RTVSPropertyOp31
 70
     1
102
RTVSPropertyOp32
 70
     1
102
RTVSPropertyOp33
 70
     1
102
RTVSPropertyOp34
 70
     1
102
RTVSPropertyOp35
 70
     1
102
RTVSPropertyOp36
 70
     1
102
RTVSPropertyOp37
 70
     1
102
RTVSPropertyOp38
 70
     1
102
RTVSPropertyOp39
 70
     1
102
RTVSPropertyOp40
 70
     1
102
RTVSPropertyOp41
 70
     1
102
RTVSPropertyOp42
 70
     1
102
RTVSPropertyOp43
 70
     1
102
RTVSPropertyOp44
 70
     1
102
RTVSPropertyOp45
 70
     1
102
RTVSPropertyOp46
 70
     1
102
RTVSPropertyOp47
 70
     1
102
RTVSPropertyOp48
 70
     1
102
RTVSPropertyOp49
 70
     1
102
RTVSPropertyOp50
 70
     1
102
RTVSPropertyOp51
 70
     0
102
RTVSPropertyOp52
 70
     0
102
RTVSPropertyOp53
 70
     1
102
RTVSPropertyOp54
 70
     1
102
RTVSPropertyOp55
 70
     1
102
RTVSPropertyOp56
 70
     1
102
RTVSPropertyOp57
 70
     1
102
RTVSPost2010Prop28
280
     0
102
RTVSPost2010PropOp28
 70
     1
102
RTVSPost2010Prop29
280
     1
102
RTVSPost2010PropOp29
 70
     1
102
RTVSPost2010Prop30
280
     1
102
RTVSPost2010PropOp30
 70
     1
102
RTVSPost2010Prop31
280
     0
102
RTVSPost2010PropOp31
 70
     1
102
RTVSPost2010Prop32
280
     0
102
RTVSPost2010PropOp32
 70
     1
102
RTVSPost2010Prop33
280
     0
102
RTVSPost2010PropOp33
 70
     1
102
RTVSPost2010Prop34
280
     0
102
RTVSPost2010PropOp34
 70
     1
102
RTVSPost2010Prop35
280
     0
102
RTVSPost2010PropOp35
 70
     1
102
RTVSPost2010Prop36
280
     0
102
RTVSPost2010PropOp36
 70
     1
102
RTVSPost2010Prop37
 90
       50
102
RTVSPost2010PropOp37
 70
     1
102
RTVSPost2010Prop38
140
0.0
102
RTVSPost2010PropOp38
 70
     1
102
RTVSPost2010Prop39
140
1.0
102
RTVSPost2010PropOp39
 70
     1
102
RTVSPost2010Prop40
 90
        0
102
RTVSPost2010PropOp40
 70
     1
102
RTVSPost2010Prop41ColorIndex
 90
      178
102
RTVSPost2010Prop41ColorRGB
 90
        0
102
RTVSPost2010PropOp41
 70
     1
102
RTVSPost2010Prop42
 90
       50
102
RTVSPost2010PropOp42
 70
     1
102
RTVSPost2010Prop43
 90
        3
102
RTVSPost2010PropOp43
 70
     1
102
RTVSPost2010Prop44ColorIndex
 90
        5
102
RTVSPost2010Prop44ColorRGB
 90
      255
102
RTVSPost2010PropOp44
 70
     1
102
RTVSPost2010Prop45
280
     0
102
RTVSPost2010PropOp45
 70
     1
102
RTVSPost2010Prop46
 90
       50
102
RTVSPost2010PropOp46
 70
     1
102
RTVSPost2010Prop47
 90
       50
102
RTVSPost2010PropOp47
 70
     1
102
RTVSPost2010Prop48
 90
       50
102
RTVSPost2010PropOp48
 70
     1
102
RTVSPost2010Prop49
280
     0
102
RTVSPost2010PropOp49
 70
     1
102
RTVSPost2010Prop50
 90
       50
102
RTVSPost2010PropOp50
 70
     1
102
RTVSPost2010Prop51ColorIndex
 90
      256
102
RTVSPost2010Prop51ColorRGB
 90
-16777216
102
RTVSPost2010PropOp51
 70
     0
102
RTVSPost2010Prop52
140
1.0
102
RTVSPost2010PropOp52
 70
     0
102
RTVSPost2010Prop53
 90
        2
102
RTVSPost2010PropOp53
 70
     1
102
RTVSPost2010Prop54
  1
strokes_ogs.tif
102
RTVSPost2010PropOp54
 70
     1
102
RTVSPost2010Prop55
280
     0
102
RTVSPost2010PropOp55
 70
     1
102
RTVSPost2010Prop56
140
1.0
102
RTVSPost2010PropOp56
 70
     1
102
RTVSPost2010Prop57
140
1.0
102
RTVSPost2010PropOp57
 70
     1
  0
XRECORD
  5
35B
102
{ACAD_REACTORS
330
35A
102
}
330
35A
100
AcDbXrecord
280
     1
102
RTVSPropertyOp0
 70
     1
102
RTVSPropertyOp1
 70
     1
102
RTVSPropertyOp2
 70
     1
102
RTVSPropertyOp3
 70
     1
102
RTVSPropertyOp4
 70
     1
102
RTVSPropertyOp5
 70
     1
102
RTVSPropertyOp6
 70
     1
102
RTVSPropertyOp7
 70
     1
102
RTVSPropertyOp8
 70
     1
102
RTVSPropertyOp9
 70
     1
102
RTVSPropertyOp10
 70
     1
102
RTVSPropertyOp11
 70
     1
102
RTVSPropertyOp12
 70
     1
102
RTVSPropertyOp13
 70
     1
102
RTVSPropertyOp14
 70
     1
102
RTVSPropertyOp15
 70
     1
102
RTVSPropertyOp16
 70
     1
102
RTVSPropertyOp17
 70
     1
102
RTVSPropertyOp18
 70
     1
102
RTVSPropertyOp19
 70
     1
102
RTVSPropertyOp20
 70
     1
102
RTVSPropertyOp21
 70
     1
102
RTVSPropertyOp22
 70
     1
102
RTVSPropertyOp23
 70
     1
102
RTVSPropertyOp24
 70
     1
102
RTVSPropertyOp25
 70
     1
102
RTVSPropertyOp26
 70
     1
102
RTVSPropertyOp27
 70
     1
102
RTVSPropertyOp28
 70
     1
102
RTVSPropertyOp29
 70
     1
102
RTVSPropertyOp30
 70
     1
102
RTVSPropertyOp31
 70
     1
102
RTVSPropertyOp32
 70
     1
102
RTVSPropertyOp33
 70
     1
102
RTVSPropertyOp34
 70
     1
102
RTVSPropertyOp35
 70
     1
102
RTVSPropertyOp36
 70
     1
102
RTVSPropertyOp37
 70
     1
102
RTVSPropertyOp38
 70
     1
102
RTVSPropertyOp39
 70
     1
102
RTVSPropertyOp40
 70
     1
102
RTVSPropertyOp41
 70
     1
102
RTVSPropertyOp42
 70
     1
102
RTVSPropertyOp43
 70
     1
102
RTVSPropertyOp44
 70
     1
102
RTVSPropertyOp45
 70
     1
102
RTVSPropertyOp46
 70
     1
102
RTVSPropertyOp47
 70
     1
102
RTVSPropertyOp48
 70
     1
102
RTVSPropertyOp49
 70
     1
102
RTVSPropertyOp50
 70
     1
102
RTVSPropertyOp51
 70
     0
102
RTVSPropertyOp52
 70
     0
102
RTVSPropertyOp53
 70
     1
102
RTVSPropertyOp54
 70
     1
102
RTVSPropertyOp55
 70
     1
102
RTVSPropertyOp56
 70
     1
102
RTVSPropertyOp57
 70
     1
102
RTVSPost2010Prop28
280
     0
102
RTVSPost2010PropOp28
 70
     1
102
RTVSPost2010Prop29
280
     1
102
RTVSPost2010PropOp29
 70
     1
102
RTVSPost2010Prop30
280
     1
102
RTVSPost2010PropOp30
 70
     1
102
RTVSPost2010Prop31
280
     0
102
RTVSPost2010PropOp31
 70
     1
102
RTVSPost2010Prop32
280
     0
102
RTVSPost2010PropOp32
 70
     1
102
RTVSPost2010Prop33
280
     0
102
RTVSPost2010PropOp33
 70
     1
102
RTVSPost2010Prop34
280
     0
102
RTVSPost2010PropOp34
 70
     1
102
RTVSPost2010Prop35
280
     0
102
RTVSPost2010PropOp35
 70
     1
102
RTVSPost2010Prop36
280
     0
102
RTVSPost2010PropOp36
 70
     1
102
RTVSPost2010Prop37
 90
       50
102
RTVSPost2010PropOp37
 70
     1
102
RTVSPost2010Prop38
140
0.0
102
RTVSPost2010PropOp38
 70
     1
102
RTVSPost2010Prop39
140
1.0
102
RTVSPost2010PropOp39
 70
     1
102
RTVSPost2010Prop40
 90
        0
102
RTVSPost2010PropOp40
 70
     1
102
RTVSPost2010Prop41ColorIndex
 90
      178
102
RTVSPost2010Prop41ColorRGB
 90
        0
102
RTVSPost2010PropOp41
 70
     1
102
RTVSPost2010Prop42
 90
       50
102
RTVSPost2010PropOp42
 70
     1
102
RTVSPost2010Prop43
 90
        3
102
RTVSPost2010PropOp43
 70
     1
102
RTVSPost2010Prop44ColorIndex
 90
        5
102
RTVSPost2010Prop44ColorRGB
 90
      255
102
RTVSPost2010PropOp44
 70
     1
102
RTVSPost2010Prop45
280
     0
102
RTVSPost2010PropOp45
 70
     1
102
RTVSPost2010Prop46
 90
       50
102
RTVSPost2010PropOp46
 70
     1
102
RTVSPost2010Prop47
 90
       50
102
RTVSPost2010PropOp47
 70
     1
102
RTVSPost2010Prop48
 90
       50
102
RTVSPost2010PropOp48
 70
     1
102
RTVSPost2010Prop49
280
     0
102
RTVSPost2010PropOp49
 70
     1
102
RTVSPost2010Prop50
 90
       50
102
RTVSPost2010PropOp50
 70
     1
102
RTVSPost2010Prop51ColorIndex
 90
      256
102
RTVSPost2010Prop51ColorRGB
 90
-16777216
102
RTVSPost2010PropOp51
 70
     0
102
RTVSPost2010Prop52
140
1.0
102
RTVSPost2010PropOp52
 70
     0
102
RTVSPost2010Prop53
 90
        2
102
RTVSPost2010PropOp53
 70
     1
102
RTVSPost2010Prop54
  1
strokes_ogs.tif
102
RTVSPost2010PropOp54
 70
     1
102
RTVSPost2010Prop55
280
     0
102
RTVSPost2010PropOp55
 70
     1
102
RTVSPost2010Prop56
140
1.0
102
RTVSPost2010PropOp56
 70
     1
102
RTVSPost2010Prop57
140
1.0
102
RTVSPost2010PropOp57
 70
     1
  0
ENDSEC
  0
EOF
