  0
SECTION
  2
HEADER
  9
$ACADVER
  1
AC1021
  9
$ACADMAINTVER
 70
    25
  9
$DWGCODEPAGE
  3
ANSI_1252
  9
$INSBASE
 10
0.0
 20
0.0
 30
0.0
  9
$EXTMIN
 10
1.000000000000000E+20
 20
1.000000000000000E+20
 30
1.000000000000000E+20
  9
$EXTMAX
 10
-1.000000000000000E+20
 20
-1.000000000000000E+20
 30
-1.000000000000000E+20
  9
$LIMMIN
 10
0.0
 20
0.0
  9
$LIMMAX
 10
12.0
 20
9.0
  9
$ORTHOMODE
 70
     0
  9
$REGENMODE
 70
     1
  9
$FILLMODE
 70
     1
  9
$QTEXTMODE
 70
     0
  9
$MIRRTEXT
 70
     1
  9
$LTSCALE
 40
1.0
  9
$ATTMODE
 70
     1
  9
$TEXTSIZE
 40
0.2
  9
$TRACEWID
 40
0.05
  9
$TEXTSTYLE
  7
Standard
  9
$CLAYER
  8
Graypants_Hewn48-12
  9
$CELTYPE
  6
ByLayer
  9
$CECOLOR
 62
   256
  9
$CELTSCALE
 40
1.0
  9
$DISPSILH
 70
     0
  9
$DIMSCALE
 40
1.0
  9
$DIMASZ
 40
0.18
  9
$DIMEXO
 40
0.0625
  9
$DIMDLI
 40
0.38
  9
$DIMRND
 40
0.0
  9
$DIMDLE
 40
0.0
  9
$DIMEXE
 40
0.18
  9
$DIMTP
 40
0.0
  9
$DIMTM
 40
0.0
  9
$DIMTXT
 40
0.18
  9
$DIMCEN
 40
0.09
  9
$DIMTSZ
 40
0.0
  9
$DIMTOL
 70
     0
  9
$DIMLIM
 70
     0
  9
$DIMTIH
 70
     1
  9
$DIMTOH
 70
     1
  9
$DIMSE1
 70
     0
  9
$DIMSE2
 70
     0
  9
$DIMTAD
 70
     0
  9
$DIMZIN
 70
     0
  9
$DIMBLK
  1

  9
$DIMASO
 70
     1
  9
$DIMSHO
 70
     1
  9
$DIMPOST
  1

  9
$DIMAPOST
  1

  9
$DIMALT
 70
     0
  9
$DIMALTD
 70
     2
  9
$DIMALTF
 40
25.4
  9
$DIMLFAC
 40
1.0
  9
$DIMTOFL
 70
     0
  9
$DIMTVP
 40
0.0
  9
$DIMTIX
 70
     0
  9
$DIMSOXD
 70
     0
  9
$DIMSAH
 70
     0
  9
$DIMBLK1
  1

  9
$DIMBLK2
  1

  9
$DIMSTYLE
  2
STANDARD_ACAD
  9
$DIMCLRD
 70
     0
  9
$DIMCLRE
 70
     0
  9
$DIMCLRT
 70
     0
  9
$DIMTFAC
 40
1.0
  9
$DIMGAP
 40
0.09
  9
$DIMJUST
 70
     0
  9
$DIMSD1
 70
     0
  9
$DIMSD2
 70
     0
  9
$DIMTOLJ
 70
     1
  9
$DIMTZIN
 70
     0
  9
$DIMALTZ
 70
     0
  9
$DIMALTTZ
 70
     0
  9
$DIMUPT
 70
     0
  9
$DIMDEC
 70
     4
  9
$DIMTDEC
 70
     4
  9
$DIMALTU
 70
     2
  9
$DIMALTTD
 70
     2
  9
$DIMTXSTY
  7
Standard
  9
$DIMAUNIT
 70
     0
  9
$DIMADEC
 70
     0
  9
$DIMALTRND
 40
0.0
  9
$DIMAZIN
 70
     0
  9
$DIMDSEP
 70
    46
  9
$DIMATFIT
 70
     3
  9
$DIMFRAC
 70
     0
  9
$DIMLDRBLK
  1

  9
$DIMLUNIT
 70
     2
  9
$DIMLWD
 70
    -2
  9
$DIMLWE
 70
    -2
  9
$DIMTMOVE
 70
     2
  9
$DIMFXL
 40
1.0
  9
$DIMFXLON
 70
     0
  9
$DIMJOGANG
 40
0.7853981633974483
  9
$DIMTFILL
 70
     0
  9
$DIMTFILLCLR
 70
     0
  9
$DIMARCSYM
 70
     0
  9
$DIMLTYPE
  6

  9
$DIMLTEX1
  6

  9
$DIMLTEX2
  6

  9
$LUNITS
 70
     2
  9
$LUPREC
 70
     3
  9
$SKETCHINC
 40
0.1
  9
$FILLETRAD
 40
0.5
  9
$AUNITS
 70
     0
  9
$AUPREC
 70
     0
  9
$MENU
  1
.
  9
$ELEVATION
 40
0.0
  9
$PELEVATION
 40
0.0
  9
$THICKNESS
 40
0.0
  9
$LIMCHECK
 70
     0
  9
$CHAMFERA
 40
0.0
  9
$CHAMFERB
 40
0.0
  9
$CHAMFERC
 40
0.0
  9
$CHAMFERD
 40
0.0
  9
$SKPOLY
 70
     0
  9
$TDCREATE
 40
2460860.686778496
  9
$TDUCREATE
 40
2460861.020111829
  9
$TDUPDATE
 40
2460860.68679081
  9
$TDUUPDATE
 40
2460861.020124143
  9
$TDINDWG
 40
0.0000000116
  9
$TDUSRTIMER
 40
0.0000000116
  9
$USRTIMER
 70
     1
  9
$ANGBASE
 50
0.0
  9
$ANGDIR
 70
     0
  9
$PDMODE
 70
     0
  9
$PDSIZE
 40
0.0
  9
$PLINEWID
 40
0.0
  9
$SPLFRAME
 70
     0
  9
$SPLINETYPE
 70
     6
  9
$SPLINESEGS
 70
     8
  9
$HANDSEED
  5
360
  9
$SURFTAB1
 70
     6
  9
$SURFTAB2
 70
     6
  9
$SURFTYPE
 70
     6
  9
$SURFU
 70
     6
  9
$SURFV
 70
     6
  9
$UCSBASE
  2

  9
$UCSNAME
  2

  9
$UCSORG
 10
0.0
 20
0.0
 30
0.0
  9
$UCSXDIR
 10
1.0
 20
0.0
 30
0.0
  9
$UCSYDIR
 10
0.0
 20
1.0
 30
0.0
  9
$UCSORTHOREF
  2

  9
$UCSORTHOVIEW
 70
     0
  9
$UCSORGTOP
 10
0.0
 20
0.0
 30
0.0
  9
$UCSORGBOTTOM
 10
0.0
 20
0.0
 30
0.0
  9
$UCSORGLEFT
 10
0.0
 20
0.0
 30
0.0
  9
$UCSORGRIGHT
 10
0.0
 20
0.0
 30
0.0
  9
$UCSORGFRONT
 10
0.0
 20
0.0
 30
0.0
  9
$UCSORGBACK
 10
0.0
 20
0.0
 30
0.0
  9
$PUCSBASE
  2

  9
$PUCSNAME
  2

  9
$PUCSORG
 10
0.0
 20
0.0
 30
0.0
  9
$PUCSXDIR
 10
1.0
 20
0.0
 30
0.0
  9
$PUCSYDIR
 10
0.0
 20
1.0
 30
0.0
  9
$PUCSORTHOREF
  2

  9
$PUCSORTHOVIEW
 70
     0
  9
$PUCSORGTOP
 10
0.0
 20
0.0
 30
0.0
  9
$PUCSORGBOTTOM
 10
0.0
 20
0.0
 30
0.0
  9
$PUCSORGLEFT
 10
0.0
 20
0.0
 30
0.0
  9
$PUCSORGRIGHT
 10
0.0
 20
0.0
 30
0.0
  9
$PUCSORGFRONT
 10
0.0
 20
0.0
 30
0.0
  9
$PUCSORGBACK
 10
0.0
 20
0.0
 30
0.0
  9
$USERI1
 70
     0
  9
$USERI2
 70
     0
  9
$USERI3
 70
     0
  9
$USERI4
 70
     0
  9
$USERI5
 70
     0
  9
$USERR1
 40
0.0
  9
$USERR2
 40
0.0
  9
$USERR3
 40
0.0
  9
$USERR4
 40
0.0
  9
$USERR5
 40
0.0
  9
$WORLDVIEW
 70
     1
  9
$SHADEDGE
 70
     3
  9
$SHADEDIF
 70
    70
  9
$TILEMODE
 70
     1
  9
$MAXACTVP
 70
    64
  9
$PINSBASE
 10
0.0
 20
0.0
 30
0.0
  9
$PLIMCHECK
 70
     0
  9
$PEXTMIN
 10
1.000000000000000E+20
 20
1.000000000000000E+20
 30
1.000000000000000E+20
  9
$PEXTMAX
 10
-1.000000000000000E+20
 20
-1.000000000000000E+20
 30
-1.000000000000000E+20
  9
$PLIMMIN
 10
0.0
 20
0.0
  9
$PLIMMAX
 10
12.0
 20
9.0
  9
$UNITMODE
 70
     0
  9
$VISRETAIN
 70
     1
  9
$PLINEGEN
 70
     0
  9
$PSLTSCALE
 70
     1
  9
$TREEDEPTH
 70
  3020
  9
$CMLSTYLE
  2
Standard
  9
$CMLJUST
 70
     0
  9
$CMLSCALE
 40
1.0
  9
$PROXYGRAPHICS
 70
     1
  9
$MEASUREMENT
 70
     1
  9
$CELWEIGHT
370
    -1
  9
$ENDCAPS
280
     0
  9
$JOINSTYLE
280
     0
  9
$LWDISPLAY
290
     0
  9
$INSUNITS
 70
     4
  9
$HYPERLINKBASE
  1

  9
$STYLESHEET
  1

  9
$XEDIT
290
     1
  9
$CEPSNTYPE
380
     0
  9
$PSTYLEMODE
290
     1
  9
$FINGERPRINTGUID
  2
{98b12cb4-5b6a-b746-9da3-33a860efeb91}
  9
$VERSIONGUID
  2
{FAEB1C32-E019-11D5-929B-00C0DF256EC4}
  9
$EXTNAMES
290
     1
  9
$PSVPSCALE
 40
0.0
  9
$OLESTARTUP
290
     0
  9
$SORTENTS
280
   127
  9
$INDEXCTL
280
     0
  9
$HIDETEXT
280
     1
  9
$XCLIPFRAME
290
     0
  9
$HALOGAP
280
     0
  9
$OBSCOLOR
 70
   257
  9
$OBSLTYPE
280
     0
  9
$INTERSECTIONDISPLAY
280
     0
  9
$INTERSECTIONCOLOR
 70
   257
  9
$DIMASSOC
280
     2
  9
$PROJECTNAME
  1

  9
$CAMERADISPLAY
290
     0
  9
$LENSLENGTH
 40
50.0
  9
$CAMERAHEIGHT
 40
0.0
  9
$STEPSPERSEC
 40
2.0
  9
$STEPSIZE
 40
6.0
  9
$3DDWFPREC
 40
2.0
  9
$PSOLWIDTH
 40
0.25
  9
$PSOLHEIGHT
 40
4.0
  9
$LOFTANG1
 40
1.570796326794897
  9
$LOFTANG2
 40
1.570796326794897
  9
$LOFTMAG1
 40
0.0
  9
$LOFTMAG2
 40
0.0
  9
$LOFTPARAM
 70
     7
  9
$LOFTNORMALS
280
     1
  9
$LATITUDE
 40
37.795
  9
$LONGITUDE
 40
-122.394
  9
$NORTHDIRECTION
 40
0.0
  9
$TIMEZONE
 70
 -8000
  9
$LIGHTGLYPHDISPLAY
280
     1
  9
$TILEMODELIGHTSYNCH
280
     1
  9
$CMATERIAL
347
44
  9
$SOLIDHIST
280
     0
  9
$SHOWHIST
280
     1
  9
$DWFFRAME
280
     2
  9
$DGNFRAME
280
     2
  9
$REALWORLDSCALE
290
     1
  9
$INTERFERECOLOR
 62
   256
  9
$CSHADOW
280
     0
  9
$SHADOWPLANELOCATION
 40
0.0
  0
ENDSEC
  0
SECTION
  2
CLASSES
  0
CLASS
  1
ACDBDICTIONARYWDFLT
  2
AcDbDictionaryWithDefault
  3
ObjectDBX Classes
 90
        0
 91
        3
280
     0
281
     0
  0
CLASS
  1
VISUALSTYLE
  2
AcDbVisualStyle
  3
ObjectDBX Classes
 90
     4095
 91
        3
280
     0
281
     0
  0
CLASS
  1
MATERIAL
  2
AcDbMaterial
  3
ObjectDBX Classes
 90
     1153
 91
        3
280
     0
281
     0
  0
CLASS
  1
SCALE
  2
AcDbScale
  3
ObjectDBX Classes
 90
     1153
 91
        3
280
     0
281
     0
  0
CLASS
  1
TABLESTYLE
  2
AcDbTableStyle
  3
ObjectDBX Classes
 90
     4095
 91
        3
280
     0
281
     0
  0
CLASS
  1
MLEADERSTYLE
  2
AcDbMLeaderStyle
  3
ACDB_MLEADERSTYLE_CLASS
 90
     4095
 91
        3
280
     0
281
     0
  0
CLASS
  1
SUN
  2
AcDbSun
  3
SCENEOE
 90
     1153
 91
        3
280
     0
281
     0
  0
CLASS
  1
DICTIONARYVAR
  2
AcDbDictionaryVar
  3
ObjectDBX Classes
 90
        0
 91
        3
280
     0
281
     0
  0
CLASS
  1
CELLSTYLEMAP
  2
AcDbCellStyleMap
  3
ObjectDBX Classes
 90
     1152
 91
        3
280
     0
281
     0
  0
ENDSEC
  0
SECTION
  2
TABLES
  0
TABLE
  2
VPORT
  5
8
330
0
100
AcDbSymbolTable
 70
     1
  0
VPORT
  5
29
330
8
100
AcDbSymbolTableRecord
100
AcDbViewportTableRecord
  2
*Active
 70
     0
 10
0.0
 20
0.0
 11
1.0
 21
1.0
 12
10.42990654205607
 22
4.5
 13
0.0
 23
0.0
 14
0.5
 24
0.5
 15
0.5
 25
0.5
 16
0.0
 26
0.0
 36
1.0
 17
0.0
 27
0.0
 37
0.0
 40
9.0
 41
1.972972972850329
 42
50.0
 43
0.0
 44
0.0
 50
0.0
 51
0.0
 71
     0
 72
   100
 73
     1
 74
     3
 75
     0
 76
     0
 77
     0
 78
     0
281
     0
 65
     1
110
0.0
120
0.0
130
0.0
111
1.0
121
0.0
131
0.0
112
0.0
122
1.0
132
0.0
 79
     0
146
0.0
348
2F
 60
     3
 61
     5
292
     1
282
     1
141
0.0
142
0.0
 63
   250
361
6D
  0
ENDTAB
  0
TABLE
  2
LTYPE
  5
5
330
0
100
AcDbSymbolTable
 70
     2
  0
LTYPE
  5
14
330
5
100
AcDbSymbolTableRecord
100
AcDbLinetypeTableRecord
  2
ByBlock
 70
     0
  3

 72
    65
 73
     0
 40
0.0
  0
LTYPE
  5
15
330
5
100
AcDbSymbolTableRecord
100
AcDbLinetypeTableRecord
  2
ByLayer
 70
     0
  3

 72
    65
 73
     0
 40
0.0
  0
LTYPE
  5
16
330
5
100
AcDbSymbolTableRecord
100
AcDbLinetypeTableRecord
  2
Continuous
 70
     0
  3
Solid line
 72
    65
 73
     0
 40
0.0
  0
LTYPE
  5
1FC
330
5
100
AcDbSymbolTableRecord
100
AcDbLinetypeTableRecord
  2
Hidden
 70
     0
  3

 72
    65
 73
     2
 40
4.0
 49
2.0
 74
     0
 49
-2.0
 74
     0
  0
ENDTAB
  0
TABLE
  2
LAYER
  5
2
330
0
100
AcDbSymbolTable
 70
     2
  0
LAYER
  5
10
330
2
100
AcDbSymbolTableRecord
100
AcDbLayerTableRecord
  2
0
 70
     0
 62
     7
  6
Continuous
370
    -3
390
F
347
46
  0
LAYER
  5
6E
330
2
100
AcDbSymbolTableRecord
100
AcDbLayerTableRecord
  2
Graypants_Hewn48-12
 70
     0
 62
    36
420
  8866048
  6
Continuous
370
    -3
390
F
347
46
  0
ENDTAB
  0
TABLE
  2
STYLE
  5
3
330
0
100
AcDbSymbolTable
 70
     1
  0
STYLE
  5
11
330
3
100
AcDbSymbolTableRecord
100
AcDbTextStyleTableRecord
  2
Standard
 70
     0
 40
0.0
 41
1.0
 50
0.0
 71
     0
 42
0.2
  3
txt
  4

  0
ENDTAB
  0
TABLE
  2
VIEW
  5
6
330
0
100
AcDbSymbolTable
 70
     0
  0
ENDTAB
  0
TABLE
  2
UCS
  5
7
330
0
100
AcDbSymbolTable
 70
     0
  0
ENDTAB
  0
TABLE
  2
APPID
  5
9
330
0
100
AcDbSymbolTable
 70
     2
  0
APPID
  5
12
330
9
100
AcDbSymbolTableRecord
100
AcDbRegAppTableRecord
  2
ACAD
 70
     0
  0
APPID
  5
358
330
9
100
AcDbSymbolTableRecord
100
AcDbRegAppTableRecord
  2
ACAD_MLEADERVER
 70
     0
  0
ENDTAB
  0
TABLE
  2
DIMSTYLE
  5
A
330
0
100
AcDbSymbolTable
 70
     1
100
AcDbDimStyleTable
  0
DIMSTYLE
105
27
330
A
100
AcDbSymbolTableRecord
100
AcDbDimStyleTableRecord
  2
STANDARD_ACAD
 70
     0
178
     0
340
11
  0
ENDTAB
  0
TABLE
  2
BLOCK_RECORD
  5
1
330
0
100
AcDbSymbolTable
 70
     1
  0
BLOCK_RECORD
  5
1F
330
1
100
AcDbSymbolTableRecord
100
AcDbBlockTableRecord
  2
*Model_Space
340
22
 70
     0
280
     1
281
     0
  0
BLOCK_RECORD
  5
1B
330
1
100
AcDbSymbolTableRecord
100
AcDbBlockTableRecord
  2
*Paper_Space
340
1E
 70
     0
280
     1
281
     0
  0
BLOCK_RECORD
  5
23
330
1
100
AcDbSymbolTableRecord
100
AcDbBlockTableRecord
  2
*Paper_Space0
340
26
 70
     0
280
     1
281
     0
  0
ENDTAB
  0
ENDSEC
  0
SECTION
  2
BLOCKS
  0
BLOCK
  5
20
330
1F
100
AcDbEntity
  8
0
100
AcDbBlockBegin
  2
*Model_Space
 70
     0
 10
0.0
 20
0.0
 30
0.0
  3
*Model_Space
  1

  0
ENDBLK
  5
21
330
1F
100
AcDbEntity
  8
0
100
AcDbBlockEnd
  0
BLOCK
  5
1C
330
1B
100
AcDbEntity
 67
     1
  8
0
100
AcDbBlockBegin
  2
*Paper_Space
 70
     0
 10
0.0
 20
0.0
 30
0.0
  3
*Paper_Space
  1

  0
ENDBLK
  5
1D
330
1B
100
AcDbEntity
 67
     1
  8
0
100
AcDbBlockEnd
  0
BLOCK
  5
24
330
23
100
AcDbEntity
  8
0
100
AcDbBlockBegin
  2
*Paper_Space0
 70
     0
 10
0.0
 20
0.0
 30
0.0
  3
*Paper_Space0
  1

  0
ENDBLK
  5
25
330
23
100
AcDbEntity
  8
0
100
AcDbBlockEnd
  0
ENDSEC
  0
SECTION
  2
ENTITIES
  0
LINE
  5
6F
330
1F
100
AcDbEntity
  8
Graypants_Hewn48-12
100
AcDbLine
 10
947.344070700552
 20
-1404.591653532082
 30
0.0
 11
1048.948095048003
 21
-1404.591653532082
 31
0.0
  0
LINE
  5
70
330
1F
100
AcDbEntity
  8
Graypants_Hewn48-12
100
AcDbLine
 10
-603.25
 20
-1404.591653532082
 30
0.0
 11
603.25
 21
-1404.591653532082
 31
0.0
  0
LINE
  5
71
330
1F
100
AcDbEntity
  8
Graypants_Hewn48-12
100
AcDbLine
 10
947.344070700552
 20
-1397.391653532082
 30
0.0
 11
1048.948095048003
 21
-1397.391653532082
 31
0.0
  0
LINE
  5
72
330
1F
100
AcDbEntity
  8
Graypants_Hewn48-12
100
AcDbLine
 10
-603.25
 20
-1397.391653532082
 30
0.0
 11
603.25
 21
-1397.391653532082
 31
0.0
  0
LINE
  5
73
330
1F
100
AcDbEntity
  8
Graypants_Hewn48-12
100
AcDbLine
 10
947.344070700552
 20
-1390.191653532082
 30
0.0
 11
1048.948095048003
 21
-1390.191653532082
 31
0.0
  0
LINE
  5
74
330
1F
100
AcDbEntity
  8
Graypants_Hewn48-12
100
AcDbLine
 10
-603.25
 20
-1390.191653532082
 30
0.0
 11
603.25
 21
-1390.191653532082
 31
0.0
  0
LINE
  5
75
330
1F
100
AcDbEntity
  8
Graypants_Hewn48-12
100
AcDbLine
 10
947.344070700552
 20
-1382.991653532082
 30
0.0
 11
1048.948095048003
 21
-1382.991653532082
 31
0.0
  0
LINE
  5
76
330
1F
100
AcDbEntity
  8
Graypants_Hewn48-12
100
AcDbLine
 10
-603.25
 20
-1382.991653532082
 30
0.0
 11
603.25
 21
-1382.991653532082
 31
0.0
  0
LINE
  5
77
330
1F
100
AcDbEntity
  8
Graypants_Hewn48-12
100
AcDbLine
 10
947.344070700552
 20
-1375.791653532081
 30
0.0
 11
1048.948095048003
 21
-1375.791653532081
 31
0.0
  0
LINE
  5
78
330
1F
100
AcDbEntity
  8
Graypants_Hewn48-12
100
AcDbLine
 10
-603.25
 20
-1375.791653532081
 30
0.0
 11
603.25
 21
-1375.791653532081
 31
0.0
  0
LINE
  5
79
330
1F
100
AcDbEntity
  8
Graypants_Hewn48-12
100
AcDbLine
 10
947.344070700552
 20
-1368.591653532081
 30
0.0
 11
1048.948095048003
 21
-1368.591653532081
 31
0.0
  0
LINE
  5
7A
330
1F
100
AcDbEntity
  8
Graypants_Hewn48-12
100
AcDbLine
 10
-603.25
 20
-1368.591653532081
 30
0.0
 11
603.25
 21
-1368.591653532081
 31
0.0
  0
LINE
  5
7B
330
1F
100
AcDbEntity
  8
Graypants_Hewn48-12
100
AcDbLine
 10
947.344070700552
 20
-1361.391653532081
 30
0.0
 11
1048.948095048003
 21
-1361.391653532081
 31
0.0
  0
LINE
  5
7C
330
1F
100
AcDbEntity
  8
Graypants_Hewn48-12
100
AcDbLine
 10
-603.25
 20
-1361.391653532081
 30
0.0
 11
603.25
 21
-1361.391653532081
 31
0.0
  0
LINE
  5
7D
330
1F
100
AcDbEntity
  8
Graypants_Hewn48-12
100
AcDbLine
 10
947.344070700552
 20
-1354.191653532081
 30
0.0
 11
1048.948095048003
 21
-1354.191653532081
 31
0.0
  0
LINE
  5
7E
330
1F
100
AcDbEntity
  8
Graypants_Hewn48-12
100
AcDbLine
 10
-603.25
 20
-1354.191653532081
 30
0.0
 11
603.25
 21
-1354.191653532081
 31
0.0
  0
LINE
  5
7F
330
1F
100
AcDbEntity
  8
Graypants_Hewn48-12
100
AcDbLine
 10
947.344070700552
 20
-1346.991653532081
 30
0.0
 11
1048.948095048003
 21
-1346.991653532081
 31
0.0
  0
LINE
  5
80
330
1F
100
AcDbEntity
  8
Graypants_Hewn48-12
100
AcDbLine
 10
-603.25
 20
-1346.991653532081
 30
0.0
 11
603.25
 21
-1346.991653532081
 31
0.0
  0
LINE
  5
81
330
1F
100
AcDbEntity
  8
Graypants_Hewn48-12
100
AcDbLine
 10
947.344070700552
 20
-1339.791653532081
 30
0.0
 11
1048.948095048003
 21
-1339.791653532081
 31
0.0
  0
LINE
  5
82
330
1F
100
AcDbEntity
  8
Graypants_Hewn48-12
100
AcDbLine
 10
-603.25
 20
-1339.791653532081
 30
0.0
 11
603.25
 21
-1339.791653532081
 31
0.0
  0
LINE
  5
83
330
1F
100
AcDbEntity
  8
Graypants_Hewn48-12
100
AcDbLine
 10
947.344070700552
 20
-1332.591653532081
 30
0.0
 11
1048.948095048003
 21
-1332.591653532081
 31
0.0
  0
LINE
  5
84
330
1F
100
AcDbEntity
  8
Graypants_Hewn48-12
100
AcDbLine
 10
-603.25
 20
-1332.591653532081
 30
0.0
 11
603.25
 21
-1332.591653532081
 31
0.0
  0
LINE
  5
85
330
1F
100
AcDbEntity
  8
Graypants_Hewn48-12
100
AcDbLine
 10
947.344070700552
 20
-1325.391653532081
 30
0.0
 11
1048.948095048003
 21
-1325.391653532081
 31
0.0
  0
LINE
  5
86
330
1F
100
AcDbEntity
  8
Graypants_Hewn48-12
100
AcDbLine
 10
-603.25
 20
-1325.391653532081
 30
0.0
 11
603.25
 21
-1325.391653532081
 31
0.0
  0
LINE
  5
87
330
1F
100
AcDbEntity
  8
Graypants_Hewn48-12
100
AcDbLine
 10
947.344070700552
 20
-1318.191653532081
 30
0.0
 11
1048.948095048003
 21
-1318.191653532081
 31
0.0
  0
LINE
  5
88
330
1F
100
AcDbEntity
  8
Graypants_Hewn48-12
100
AcDbLine
 10
-603.25
 20
-1318.191653532081
 30
0.0
 11
603.25
 21
-1318.191653532081
 31
0.0
  0
LINE
  5
89
330
1F
100
AcDbEntity
  8
Graypants_Hewn48-12
100
AcDbLine
 10
947.344070700552
 20
-1310.991653532081
 30
0.0
 11
1048.948095048003
 21
-1310.991653532081
 31
0.0
  0
LINE
  5
8A
330
1F
100
AcDbEntity
  8
Graypants_Hewn48-12
100
AcDbLine
 10
-603.25
 20
-1310.991653532081
 30
0.0
 11
603.25
 21
-1310.991653532081
 31
0.0
  0
LINE
  5
8B
330
1F
100
AcDbEntity
  8
Graypants_Hewn48-12
100
AcDbLine
 10
947.344070700552
 20
-1303.791653532081
 30
0.0
 11
1048.948095048003
 21
-1303.791653532081
 31
0.0
  0
LINE
  5
8C
330
1F
100
AcDbEntity
  8
Graypants_Hewn48-12
100
AcDbLine
 10
-603.25
 20
-1303.791653532081
 30
0.0
 11
603.25
 21
-1303.791653532081
 31
0.0
  0
LINE
  5
8D
330
1F
100
AcDbEntity
  8
Graypants_Hewn48-12
100
AcDbLine
 10
947.344070700552
 20
-1296.591653532081
 30
0.0
 11
1048.948095048003
 21
-1296.591653532081
 31
0.0
  0
LINE
  5
8E
330
1F
100
AcDbEntity
  8
Graypants_Hewn48-12
100
AcDbLine
 10
-603.25
 20
-1296.591653532081
 30
0.0
 11
603.25
 21
-1296.591653532081
 31
0.0
  0
LINE
  5
8F
330
1F
100
AcDbEntity
  8
Graypants_Hewn48-12
100
AcDbLine
 10
947.344070700552
 20
-1289.391653532081
 30
0.0
 11
1048.948095048003
 21
-1289.391653532081
 31
0.0
  0
LINE
  5
90
330
1F
100
AcDbEntity
  8
Graypants_Hewn48-12
100
AcDbLine
 10
-603.25
 20
-1289.391653532081
 30
0.0
 11
603.25
 21
-1289.391653532081
 31
0.0
  0
LINE
  5
91
330
1F
100
AcDbEntity
  8
Graypants_Hewn48-12
100
AcDbLine
 10
947.344070700552
 20
-1282.191653532081
 30
0.0
 11
1048.948095048003
 21
-1282.191653532081
 31
0.0
  0
LINE
  5
92
330
1F
100
AcDbEntity
  8
Graypants_Hewn48-12
100
AcDbLine
 10
-603.25
 20
-1282.191653532081
 30
0.0
 11
603.25
 21
-1282.191653532081
 31
0.0
  0
LINE
  5
93
330
1F
100
AcDbEntity
  8
Graypants_Hewn48-12
100
AcDbLine
 10
947.344070700552
 20
-1274.991653532081
 30
0.0
 11
1048.948095048003
 21
-1274.991653532081
 31
0.0
  0
LINE
  5
94
330
1F
100
AcDbEntity
  8
Graypants_Hewn48-12
100
AcDbLine
 10
-603.25
 20
-1274.991653532081
 30
0.0
 11
603.25
 21
-1274.991653532081
 31
0.0
  0
LINE
  5
95
330
1F
100
AcDbEntity
  8
Graypants_Hewn48-12
100
AcDbLine
 10
947.344070700552
 20
-1267.791653532081
 30
0.0
 11
1048.948095048003
 21
-1267.791653532081
 31
0.0
  0
LINE
  5
96
330
1F
100
AcDbEntity
  8
Graypants_Hewn48-12
100
AcDbLine
 10
-603.25
 20
-1267.791653532081
 30
0.0
 11
603.25
 21
-1267.791653532081
 31
0.0
  0
LINE
  5
97
330
1F
100
AcDbEntity
  8
Graypants_Hewn48-12
100
AcDbLine
 10
947.344070700552
 20
-1260.591653532081
 30
0.0
 11
1048.948095048003
 21
-1260.591653532081
 31
0.0
  0
LINE
  5
98
330
1F
100
AcDbEntity
  8
Graypants_Hewn48-12
100
AcDbLine
 10
-603.25
 20
-1260.591653532081
 30
0.0
 11
603.25
 21
-1260.591653532081
 31
0.0
  0
LINE
  5
99
330
1F
100
AcDbEntity
  8
Graypants_Hewn48-12
100
AcDbLine
 10
947.344070700552
 20
-1253.391653532081
 30
0.0
 11
1048.948095048003
 21
-1253.391653532081
 31
0.0
  0
LINE
  5
9A
330
1F
100
AcDbEntity
  8
Graypants_Hewn48-12
100
AcDbLine
 10
-603.25
 20
-1253.391653532081
 30
0.0
 11
603.25
 21
-1253.391653532081
 31
0.0
  0
LINE
  5
9B
330
1F
100
AcDbEntity
  8
Graypants_Hewn48-12
100
AcDbLine
 10
947.344070700552
 20
-1246.191653532081
 30
0.0
 11
1048.948095048003
 21
-1246.191653532081
 31
0.0
  0
LINE
  5
9C
330
1F
100
AcDbEntity
  8
Graypants_Hewn48-12
100
AcDbLine
 10
-603.25
 20
-1246.191653532081
 30
0.0
 11
603.25
 21
-1246.191653532081
 31
0.0
  0
LINE
  5
9D
330
1F
100
AcDbEntity
  8
Graypants_Hewn48-12
100
AcDbLine
 10
947.344070700552
 20
-1238.991653532081
 30
0.0
 11
1048.948095048003
 21
-1238.991653532081
 31
0.0
  0
LINE
  5
9E
330
1F
100
AcDbEntity
  8
Graypants_Hewn48-12
100
AcDbLine
 10
-603.25
 20
-1238.991653532081
 30
0.0
 11
603.25
 21
-1238.991653532081
 31
0.0
  0
LINE
  5
9F
330
1F
100
AcDbEntity
  8
Graypants_Hewn48-12
100
AcDbLine
 10
947.344070700552
 20
-1231.791653532081
 30
0.0
 11
1048.948095048003
 21
-1231.791653532081
 31
0.0
  0
LINE
  5
A0
330
1F
100
AcDbEntity
  8
Graypants_Hewn48-12
100
AcDbLine
 10
-603.25
 20
-1231.791653532081
 30
0.0
 11
603.25
 21
-1231.791653532081
 31
0.0
  0
LINE
  5
A1
330
1F
100
AcDbEntity
  8
Graypants_Hewn48-12
100
AcDbLine
 10
947.344070700552
 20
-1224.59165353208
 30
0.0
 11
1048.948095048003
 21
-1224.59165353208
 31
0.0
  0
LINE
  5
A2
330
1F
100
AcDbEntity
  8
Graypants_Hewn48-12
100
AcDbLine
 10
-603.25
 20
-1224.59165353208
 30
0.0
 11
603.25
 21
-1224.59165353208
 31
0.0
  0
LINE
  5
A3
330
1F
100
AcDbEntity
  8
Graypants_Hewn48-12
100
AcDbLine
 10
947.344070700552
 20
-1217.39165353208
 30
0.0
 11
1048.948095048003
 21
-1217.39165353208
 31
0.0
  0
LINE
  5
A4
330
1F
100
AcDbEntity
  8
Graypants_Hewn48-12
100
AcDbLine
 10
-603.25
 20
-1217.39165353208
 30
0.0
 11
603.25
 21
-1217.39165353208
 31
0.0
  0
LINE
  5
A5
330
1F
100
AcDbEntity
  8
Graypants_Hewn48-12
100
AcDbLine
 10
947.344070700552
 20
-1210.19165353208
 30
0.0
 11
1048.948095048003
 21
-1210.19165353208
 31
0.0
  0
LINE
  5
A6
330
1F
100
AcDbEntity
  8
Graypants_Hewn48-12
100
AcDbLine
 10
-603.25
 20
-1210.19165353208
 30
0.0
 11
603.25
 21
-1210.19165353208
 31
0.0
  0
LINE
  5
A7
330
1F
100
AcDbEntity
  8
Graypants_Hewn48-12
100
AcDbLine
 10
947.344070700552
 20
-1202.99165353208
 30
0.0
 11
1048.948095048003
 21
-1202.99165353208
 31
0.0
  0
LINE
  5
A8
330
1F
100
AcDbEntity
  8
Graypants_Hewn48-12
100
AcDbLine
 10
-603.25
 20
-1202.99165353208
 30
0.0
 11
603.25
 21
-1202.99165353208
 31
0.0
  0
LINE
  5
A9
330
1F
100
AcDbEntity
  8
Graypants_Hewn48-12
100
AcDbLine
 10
947.344070700552
 20
-1195.79165353208
 30
0.0
 11
1048.948095048003
 21
-1195.79165353208
 31
0.0
  0
LINE
  5
AA
330
1F
100
AcDbEntity
  8
Graypants_Hewn48-12
100
AcDbLine
 10
-603.25
 20
-1195.79165353208
 30
0.0
 11
603.25
 21
-1195.79165353208
 31
0.0
  0
LINE
  5
AB
330
1F
100
AcDbEntity
  8
Graypants_Hewn48-12
100
AcDbLine
 10
947.344070700552
 20
-1188.59165353208
 30
0.0
 11
1048.948095048003
 21
-1188.59165353208
 31
0.0
  0
LINE
  5
AC
330
1F
100
AcDbEntity
  8
Graypants_Hewn48-12
100
AcDbLine
 10
-603.25
 20
-1188.59165353208
 30
0.0
 11
603.25
 21
-1188.59165353208
 31
0.0
  0
LINE
  5
AD
330
1F
100
AcDbEntity
  8
Graypants_Hewn48-12
100
AcDbLine
 10
947.344070700552
 20
-1181.39165353208
 30
0.0
 11
1048.948095048003
 21
-1181.39165353208
 31
0.0
  0
LINE
  5
AE
330
1F
100
AcDbEntity
  8
Graypants_Hewn48-12
100
AcDbLine
 10
-603.25
 20
-1181.39165353208
 30
0.0
 11
603.25
 21
-1181.39165353208
 31
0.0
  0
LINE
  5
AF
330
1F
100
AcDbEntity
  8
Graypants_Hewn48-12
100
AcDbLine
 10
947.344070700552
 20
-1174.19165353208
 30
0.0
 11
1048.948095048003
 21
-1174.19165353208
 31
0.0
  0
LINE
  5
B0
330
1F
100
AcDbEntity
  8
Graypants_Hewn48-12
100
AcDbLine
 10
-603.25
 20
-1174.19165353208
 30
0.0
 11
603.25
 21
-1174.19165353208
 31
0.0
  0
LINE
  5
B1
330
1F
100
AcDbEntity
  8
Graypants_Hewn48-12
100
AcDbLine
 10
947.344070700552
 20
-1166.99165353208
 30
0.0
 11
1048.948095048003
 21
-1166.99165353208
 31
0.0
  0
LINE
  5
B2
330
1F
100
AcDbEntity
  8
Graypants_Hewn48-12
100
AcDbLine
 10
-603.25
 20
-1166.99165353208
 30
0.0
 11
603.25
 21
-1166.99165353208
 31
0.0
  0
LINE
  5
B3
330
1F
100
AcDbEntity
  8
Graypants_Hewn48-12
100
AcDbLine
 10
947.344070700552
 20
-1159.79165353208
 30
0.0
 11
1048.948095048003
 21
-1159.79165353208
 31
0.0
  0
LINE
  5
B4
330
1F
100
AcDbEntity
  8
Graypants_Hewn48-12
100
AcDbLine
 10
-603.25
 20
-1159.79165353208
 30
0.0
 11
603.25
 21
-1159.79165353208
 31
0.0
  0
LINE
  5
B5
330
1F
100
AcDbEntity
  8
Graypants_Hewn48-12
100
AcDbLine
 10
947.344070700552
 20
-1152.59165353208
 30
0.0
 11
1048.948095048003
 21
-1152.59165353208
 31
0.0
  0
LINE
  5
B6
330
1F
100
AcDbEntity
  8
Graypants_Hewn48-12
100
AcDbLine
 10
-603.25
 20
-1152.59165353208
 30
0.0
 11
603.25
 21
-1152.59165353208
 31
0.0
  0
LINE
  5
B7
330
1F
100
AcDbEntity
  8
Graypants_Hewn48-12
100
AcDbLine
 10
947.344070700552
 20
-1145.39165353208
 30
0.0
 11
1048.948095048003
 21
-1145.39165353208
 31
0.0
  0
LINE
  5
B8
330
1F
100
AcDbEntity
  8
Graypants_Hewn48-12
100
AcDbLine
 10
-603.25
 20
-1145.39165353208
 30
0.0
 11
603.25
 21
-1145.39165353208
 31
0.0
  0
LINE
  5
B9
330
1F
100
AcDbEntity
  8
Graypants_Hewn48-12
100
AcDbLine
 10
947.344070700552
 20
-1138.19165353208
 30
0.0
 11
1048.948095048003
 21
-1138.19165353208
 31
0.0
  0
LINE
  5
BA
330
1F
100
AcDbEntity
  8
Graypants_Hewn48-12
100
AcDbLine
 10
-603.25
 20
-1138.19165353208
 30
0.0
 11
603.25
 21
-1138.19165353208
 31
0.0
  0
LINE
  5
BB
330
1F
100
AcDbEntity
  8
Graypants_Hewn48-12
100
AcDbLine
 10
947.344070700552
 20
-1130.99165353208
 30
0.0
 11
1048.948095048003
 21
-1130.99165353208
 31
0.0
  0
LINE
  5
BC
330
1F
100
AcDbEntity
  8
Graypants_Hewn48-12
100
AcDbLine
 10
-603.25
 20
-1130.99165353208
 30
0.0
 11
603.25
 21
-1130.99165353208
 31
0.0
  0
LINE
  5
BD
330
1F
100
AcDbEntity
  8
Graypants_Hewn48-12
100
AcDbLine
 10
947.344070700552
 20
-1123.79165353208
 30
0.0
 11
1048.948095048003
 21
-1123.79165353208
 31
0.0
  0
LINE
  5
BE
330
1F
100
AcDbEntity
  8
Graypants_Hewn48-12
100
AcDbLine
 10
-603.25
 20
-1123.79165353208
 30
0.0
 11
603.25
 21
-1123.79165353208
 31
0.0
  0
LINE
  5
BF
330
1F
100
AcDbEntity
  8
Graypants_Hewn48-12
100
AcDbLine
 10
947.344070700552
 20
-1116.59165353208
 30
0.0
 11
1048.948095048003
 21
-1116.59165353208
 31
0.0
  0
LINE
  5
C0
330
1F
100
AcDbEntity
  8
Graypants_Hewn48-12
100
AcDbLine
 10
-603.25
 20
-1116.59165353208
 30
0.0
 11
603.25
 21
-1116.59165353208
 31
0.0
  0
LINE
  5
C1
330
1F
100
AcDbEntity
  8
Graypants_Hewn48-12
 62
    36
420
  8866048
370
    -3
100
AcDbLine
 10
-603.25
 20
-1411.791653532089
 30
0.0
 11
603.25
 21
-1411.791653532089
 31
0.0
  0
LINE
  5
C2
330
1F
100
AcDbEntity
  8
Graypants_Hewn48-12
 62
    36
420
  8866048
370
    -3
100
AcDbLine
 10
-603.25
 20
-1109.39165353208
 30
0.0
 11
603.25
 21
-1109.39165353208
 31
0.0
  0
CIRCLE
  5
C3
330
1F
100
AcDbEntity
  8
Graypants_Hewn48-12
  6
Continuous
 62
    36
420
  8866048
370
    -3
100
AcDbCircle
 10
-304.8011224124643
 20
-0.0015074225465142
 30
0.0
 40
4.952999999999975
210
0.0
220
0.0
230
-1.0
  0
LINE
  5
C4
330
1F
100
AcDbEntity
  8
Graypants_Hewn48-12
  6
Continuous
 62
    36
420
  8866048
370
    -3
100
AcDbLine
 10
303.7851224124684
 20
4.846167587188466
 30
0.0
 11
303.785122412467
 21
20.06449257745237
 31
0.0
  0
LINE
  5
C5
330
1F
100
AcDbEntity
  8
Graypants_Hewn48-12
  6
Continuous
 62
    36
420
  8866048
370
    -3
100
AcDbLine
 10
305.8171224124671
 20
20.06449261643786
 30
0.0
 11
305.8171224124681
 21
4.846167587186419
 31
0.0
  0
ARC
  5
C6
330
1F
100
AcDbEntity
  8
Graypants_Hewn48-12
  6
Continuous
 62
    36
420
  8866048
370
    -3
100
AcDbCircle
 10
304.8011224124671
 20
20.06449257745282
 30
0.0
 40
1.01600000000002
100
AcDbArc
 50
359.9999999999744
 51
180.0000000000257
  0
LINE
  5
C7
330
1F
100
AcDbEntity
  8
Graypants_Hewn48-12
  6
Continuous
 62
    36
420
  8866048
370
    -3
100
AcDbLine
 10
303.7851224124679
 20
-20.06750748644583
 30
0.0
 11
303.7851224124684
 21
-4.849182432280823
 31
0.0
  0
LINE
  5
C8
330
1F
100
AcDbEntity
  8
Graypants_Hewn48-12
  6
Continuous
 62
    36
420
  8866048
370
    -3
100
AcDbLine
 10
305.8171224124681
 20
-4.849182432279232
 30
0.0
 11
305.8171224124681
 21
-20.06750742254769
 31
0.0
  0
ARC
  5
C9
330
1F
100
AcDbEntity
  8
Graypants_Hewn48-12
  6
Continuous
 62
    36
420
  8866048
370
    -3
100
AcDbCircle
 10
-304.801122412468
 20
-20.0675074225477
 30
0.0
 40
1.016000000000076
210
0.0
220
0.0
230
-1.0
100
AcDbArc
 50
179.9999999999996
 51
0.0000000000004007
  0
LINE
  5
CA
330
1F
100
AcDbEntity
  8
Graypants_Hewn48-12
  6
Continuous
 62
    36
420
  8866048
370
    -3
100
AcDbLine
 10
305.7058893673423
 20
20.52549057763729
 30
0.0
 11
305.7187916910081
 21
20.50054264070148
 31
0.0
  0
ARC
  5
CB
330
1F
100
AcDbEntity
  8
Graypants_Hewn48-12
  6
Continuous
 62
    36
420
  8866048
370
    -3
100
AcDbCircle
 10
-304.8018930084282
 20
-20.06524360549893
 30
0.0
 40
1.017669326740179
210
0.0
220
0.0
230
-1.0
100
AcDbArc
 50
243.0965429495168
 51
334.4877771502036
  0
ARC
  5
CC
330
1F
100
AcDbEntity
  8
Graypants_Hewn48-12
370
    -3
100
AcDbCircle
 10
304.8011224124647
 20
-0.0015074225469772
 30
0.0
 40
0.7937500000003394
100
AcDbArc
 50
27.00000000001403
 51
187.1150388083718
  0
ARC
  5
CD
330
1F
100
AcDbEntity
  8
Graypants_Hewn48-12
370
    -3
100
AcDbCircle
 10
304.8011224124643
 20
-0.0015074225460998
 30
0.0
 40
0.7937500000002853
100
AcDbArc
 50
206.8477549447041
 51
359.9999999999717
  0
CIRCLE
  5
CE
330
1F
100
AcDbEntity
  8
Graypants_Hewn48-12
370
    -3
100
AcDbCircle
 10
304.8008418788049
 20
0.0007145182559043
 30
0.0
 40
0.7937499999998749
  0
CIRCLE
  5
CF
330
1F
100
AcDbEntity
  8
Graypants_Hewn48-12
370
    -3
100
AcDbCircle
 10
304.8011224124643
 20
-0.0015074225464673
 30
0.0
 40
4.445000000000164
  0
CIRCLE
  5
D0
330
1F
100
AcDbEntity
  8
Graypants_Hewn48-12
370
    -3
100
AcDbCircle
 10
-304.8011224124646
 20
-0.0015074225467515
 30
0.0
 40
1.984374999999773
210
0.0
220
0.0
230
-1.0
  0
ARC
  5
D1
330
1F
100
AcDbEntity
  8
Graypants_Hewn48-12
370
    -3
100
AcDbCircle
 10
-304.8011224351637
 20
-0.0015074340267188
 30
0.0
 40
0.7937500000001716
100
AcDbArc
 50
26.99999999999929
 51
187.1150388083925
  0
ARC
  5
D2
330
1F
100
AcDbEntity
  8
Graypants_Hewn48-12
370
    -3
100
AcDbCircle
 10
-304.8011224351639
 20
-0.001507434026135
 30
0.0
 40
0.7937500000002778
100
AcDbArc
 50
206.847754944703
 51
359.9999999999754
  0
CIRCLE
  5
D3
330
1F
100
AcDbEntity
  8
Graypants_Hewn48-12
370
    -3
100
AcDbCircle
 10
-304.8014029688234
 20
0.0007145067757473
 30
0.0
 40
0.7937500000000455
  0
CIRCLE
  5
D4
330
1F
100
AcDbEntity
  8
Graypants_Hewn48-12
370
    -3
100
AcDbCircle
 10
-304.801122435164
 20
-0.0015074340263368
 30
0.0
 40
4.444999999999993
  0
CIRCLE
  5
D5
330
1F
100
AcDbEntity
  8
Graypants_Hewn48-12
370
    -3
100
AcDbCircle
 10
304.8011224351638
 20
-0.0015074340265642
 30
0.0
 40
1.984374999999886
210
0.0
220
0.0
230
-1.0
  0
LINE
  5
D6
330
1F
100
AcDbEntity
  8
Graypants_Hewn48-12
 62
    36
420
  8866048
370
    -3
100
AcDbLine
 10
-299.8481224351649
 20
-1102.46240353209
 30
0.0
 11
-303.7850752073139
 21
-1102.46240353209
 31
0.0
  0
LINE
  5
D7
330
1F
100
AcDbEntity
  8
Graypants_Hewn48-12
 62
    36
420
  8866048
370
    -3
100
AcDbLine
 10
-299.8481224351649
 20
-1085.95240353209
 30
0.0
 11
-299.8481224351649
 21
-1102.46240353209
 31
0.0
  0
LINE
  5
D8
330
1F
100
AcDbEntity
  8
Graypants_Hewn48-12
 62
    36
420
  8866048
370
    -3
100
AcDbLine
 10
-309.7541224351651
 20
-1102.46240353209
 30
0.0
 11
-309.7541224351651
 21
-1085.95240353209
 31
0.0
  0
ARC
  5
D9
330
1F
100
AcDbEntity
  8
Graypants_Hewn48-12
 62
    36
420
  8866048
370
    -3
100
AcDbCircle
 10
-304.8011224351611
 20
-1096.786558249469
 30
0.0
 40
1.016009008817742
100
AcDbArc
 50
359.7587190245872
 51
180.2412809754256
  0
LINE
  5
DA
330
1F
100
AcDbEntity
  8
Graypants_Hewn48-12
 62
    36
420
  8866048
370
    -3
100
AcDbLine
 10
-305.8171224351626
 20
-1102.46240353209
 30
0.0
 11
-309.7541224351651
 21
-1102.46240353209
 31
0.0
  0
LINE
  5
DB
330
1F
100
AcDbEntity
  8
Graypants_Hewn48-12
 62
    36
420
  8866048
370
    -3
100
AcDbLine
 10
309.7541224124648
 20
-1102.46240353209
 30
0.0
 11
305.8171696403163
 21
-1102.46240353209
 31
0.0
  0
LINE
  5
DC
330
1F
100
AcDbEntity
  8
Graypants_Hewn48-12
 62
    36
420
  8866048
370
    -3
100
AcDbLine
 10
309.7541224124648
 20
-1085.95240353209
 30
0.0
 11
309.7541224124648
 21
-1102.46240353209
 31
0.0
  0
LINE
  5
DD
330
1F
100
AcDbEntity
  8
Graypants_Hewn48-12
 62
    36
420
  8866048
370
    -3
100
AcDbLine
 10
299.8481224124644
 20
-1102.46240353209
 30
0.0
 11
299.8481224124644
 21
-1085.95240353209
 31
0.0
  0
ARC
  5
DE
330
1F
100
AcDbEntity
  8
Graypants_Hewn48-12
 62
    36
420
  8866048
370
    -3
100
AcDbCircle
 10
304.8011224124684
 20
-1096.786558249469
 30
0.0
 40
1.016009008817746
100
AcDbArc
 50
359.7587190245359
 51
180.2412809754641
  0
LINE
  5
DF
330
1F
100
AcDbEntity
  8
Graypants_Hewn48-12
 62
    36
420
  8866048
370
    -3
100
AcDbLine
 10
303.7851224124672
 20
-1102.46240353209
 30
0.0
 11
299.8481224124644
 21
-1102.46240353209
 31
0.0
  0
LINE
  5
E0
330
1F
100
AcDbEntity
  8
Graypants_Hewn48-12
 62
    36
420
  8866048
370
    -3
100
AcDbLine
 10
304.8011224013535
 20
-394.8960828682798
 30
0.0
 11
227.0136224014204
 21
-394.8960828702499
 31
0.0
  0
POLYLINE
  5
E1
330
1F
100
AcDbEntity
  8
Graypants_Hewn48-12
 62
    36
420
  8866048
370
    -3
100
AcDb2dPolyline
 66
     1
 10
0.0
 20
0.0
 30
0.0
  0
VERTEX
  5
E2
330
E1
100
AcDbEntity
  8
Graypants_Hewn48-12
 62
    36
420
  8866048
370
    -3
100
AcDbVertex
100
AcDb2dVertex
 10
228.4423724020889
 20
-426.6460828702592
 30
0.0
  0
VERTEX
  5
E3
330
E1
100
AcDbEntity
  8
Graypants_Hewn48-12
 62
    36
420
  8866048
370
    -3
100
AcDbVertex
100
AcDb2dVertex
 10
228.3935932909107
 20
-426.6452499409659
 30
0.0
  0
VERTEX
  5
E4
330
E1
100
AcDbEntity
  8
Graypants_Hewn48-12
 62
    36
420
  8866048
370
    -3
100
AcDbVertex
100
AcDb2dVertex
 10
228.3448710539941
 20
-426.6427521242423
 30
0.0
  0
VERTEX
  5
E5
330
E1
100
AcDbEntity
  8
Graypants_Hewn48-12
 62
    36
420
  8866048
370
    -3
100
AcDbVertex
100
AcDb2dVertex
 10
228.2962624992879
 20
-426.6385923324309
 30
0.0
  0
VERTEX
  5
E6
330
E1
100
AcDbEntity
  8
Graypants_Hewn48-12
 62
    36
420
  8866048
370
    -3
100
AcDbVertex
100
AcDb2dVertex
 10
228.2478243021925
 20
-426.6327754156628
 30
0.0
  0
VERTEX
  5
E7
330
E1
100
AcDbEntity
  8
Graypants_Hewn48-12
 62
    36
420
  8866048
370
    -3
100
AcDbVertex
100
AcDb2dVertex
 10
228.1996129394789
 20
-426.6253081562029
 30
0.0
  0
VERTEX
  5
E8
330
E1
100
AcDbEntity
  8
Graypants_Hewn48-12
 62
    36
420
  8866048
370
    -3
100
AcDbVertex
100
AcDb2dVertex
 10
228.1516846234395
 20
-426.6161992605416
 30
0.0
  0
VERTEX
  5
E9
330
E1
100
AcDbEntity
  8
Graypants_Hewn48-12
 62
    36
420
  8866048
370
    -3
100
AcDbVertex
100
AcDb2dVertex
 10
228.1040952363468
 20
-426.6054593492438
 30
0.0
  0
VERTEX
  5
EA
330
E1
100
AcDbEntity
  8
Graypants_Hewn48-12
 62
    36
420
  8866048
370
    -3
100
AcDbVertex
100
AcDb2dVertex
 10
228.0569002652974
 20
-426.5931009445657
 30
0.0
  0
VERTEX
  5
EB
330
E1
100
AcDbEntity
  8
Graypants_Hewn48-12
 62
    36
420
  8866048
370
    -3
100
AcDbVertex
100
AcDb2dVertex
 10
228.0101547375164
 20
-426.5791384558543
 30
0.0
  0
VERTEX
  5
EC
330
E1
100
AcDbEntity
  8
Graypants_Hewn48-12
 62
    36
420
  8866048
370
    -3
100
AcDbVertex
100
AcDb2dVertex
 10
227.9639131561981
 20
-426.5635881627468
 30
0.0
  0
VERTEX
  5
ED
330
E1
100
AcDbEntity
  8
Graypants_Hewn48-12
 62
    36
420
  8866048
370
    -3
100
AcDbVertex
100
AcDb2dVertex
 10
227.9182294369579
 20
-426.5464681961895
 30
0.0
  0
VERTEX
  5
EE
330
E1
100
AcDbEntity
  8
Graypants_Hewn48-12
 62
    36
420
  8866048
370
    -3
100
AcDbVertex
100
AcDb2dVertex
 10
227.8731568449688
 20
-426.5277985172975
 30
0.0
  0
VERTEX
  5
EF
330
E1
100
AcDbEntity
  8
Graypants_Hewn48-12
 62
    36
420
  8866048
370
    -3
100
AcDbVertex
100
AcDb2dVertex
 10
227.828747932857
 20
-426.5076008940812
 30
0.0
  0
VERTEX
  5
F0
330
E1
100
AcDbEntity
  8
Graypants_Hewn48-12
 62
    36
420
  8866048
370
    -3
100
AcDbVertex
100
AcDb2dVertex
 10
227.7850544794274
 20
-426.4858988760658
 30
0.0
  0
VERTEX
  5
F1
330
E1
100
AcDbEntity
  8
Graypants_Hewn48-12
 62
    36
420
  8866048
370
    -3
100
AcDbVertex
100
AcDb2dVertex
 10
227.7421274292922
 20
-426.4627177668337
 30
0.0
  0
VERTEX
  5
F2
330
E1
100
AcDbEntity
  8
Graypants_Hewn48-12
 62
    36
420
  8866048
370
    -3
100
AcDbVertex
100
AcDb2dVertex
 10
227.7000168334716
 20
-426.4380845945211
 30
0.0
  0
VERTEX
  5
F3
330
E1
100
AcDbEntity
  8
Graypants_Hewn48-12
 62
    36
420
  8866048
370
    -3
100
AcDbVertex
100
AcDb2dVertex
 10
227.6587717910368
 20
-426.4120280803051
 30
0.0
  0
VERTEX
  5
F4
330
E1
100
AcDbEntity
  8
Graypants_Hewn48-12
 62
    36
420
  8866048
370
    -3
100
AcDbVertex
100
AcDb2dVertex
 10
227.618440391862
 20
-426.3845786049158
 30
0.0
  0
VERTEX
  5
F5
330
E1
100
AcDbEntity
  8
Graypants_Hewn48-12
 62
    36
420
  8866048
370
    -3
100
AcDbVertex
100
AcDb2dVertex
 10
227.5790696605548
 20
-426.3557681732134
 30
0.0
  0
VERTEX
  5
F6
330
E1
100
AcDbEntity
  8
Graypants_Hewn48-12
 62
    36
420
  8866048
370
    -3
100
AcDbVertex
100
AcDb2dVertex
 10
227.5407055016265
 20
-426.3256303768728
 30
0.0
  0
VERTEX
  5
F7
330
E1
100
AcDbEntity
  8
Graypants_Hewn48-12
 62
    36
420
  8866048
370
    -3
100
AcDbVertex
100
AcDb2dVertex
 10
227.5033926459706
 20
-426.2942003552161
 30
0.0
  0
VERTEX
  5
F8
330
E1
100
AcDbEntity
  8
Graypants_Hewn48-12
 62
    36
420
  8866048
370
    -3
100
AcDbVertex
100
AcDb2dVertex
 10
227.4671745987074
 20
-426.2615147542428
 30
0.0
  0
VERTEX
  5
F9
330
E1
100
AcDbEntity
  8
Graypants_Hewn48-12
 62
    36
420
  8866048
370
    -3
100
AcDbVertex
100
AcDb2dVertex
 10
227.4320935884601
 20
-426.2276116839015
 30
0.0
  0
VERTEX
  5
FA
330
E1
100
AcDbEntity
  8
Graypants_Hewn48-12
 62
    36
420
  8866048
370
    -3
100
AcDbVertex
100
AcDb2dVertex
 10
227.3981905181172
 20
-426.1925306736556
 30
0.0
  0
VERTEX
  5
FB
330
E1
100
AcDbEntity
  8
Graypants_Hewn48-12
 62
    36
420
  8866048
370
    -3
100
AcDbVertex
100
AcDb2dVertex
 10
227.3655049171423
 20
-426.1563126263939
 30
0.0
  0
VERTEX
  5
FC
330
E1
100
AcDbEntity
  8
Graypants_Hewn48-12
 62
    36
420
  8866048
370
    -3
100
AcDbVertex
100
AcDb2dVertex
 10
227.3340748954841
 20
-426.1189997707392
 30
0.0
  0
VERTEX
  5
FD
330
E1
100
AcDbEntity
  8
Graypants_Hewn48-12
 62
    36
420
  8866048
370
    -3
100
AcDbVertex
100
AcDb2dVertex
 10
227.3039370991417
 20
-426.0806356118123
 30
0.0
  0
VERTEX
  5
FE
330
E1
100
AcDbEntity
  8
Graypants_Hewn48-12
 62
    36
420
  8866048
370
    -3
100
AcDbVertex
100
AcDb2dVertex
 10
227.2751266674377
 20
-426.0412648805063
 30
0.0
  0
VERTEX
  5
FF
330
E1
100
AcDbEntity
  8
Graypants_Hewn48-12
 62
    36
420
  8866048
370
    -3
100
AcDbVertex
100
AcDb2dVertex
 10
227.2476771920466
 20
-426.0009334813327
 30
0.0
  0
VERTEX
  5
100
330
E1
100
AcDbEntity
  8
Graypants_Hewn48-12
 62
    36
420
  8866048
370
    -3
100
AcDbVertex
100
AcDb2dVertex
 10
227.2216206778288
 20
-425.959688438899
 30
0.0
  0
VERTEX
  5
101
330
E1
100
AcDbEntity
  8
Graypants_Hewn48-12
 62
    36
420
  8866048
370
    -3
100
AcDbVertex
100
AcDb2dVertex
 10
227.1969875055144
 20
-425.9175778430795
 30
0.0
  0
VERTEX
  5
102
330
E1
100
AcDbEntity
  8
Graypants_Hewn48-12
 62
    36
420
  8866048
370
    -3
100
AcDbVertex
100
AcDb2dVertex
 10
227.1738063962804
 20
-425.8746507929453
 30
0.0
  0
VERTEX
  5
103
330
E1
100
AcDbEntity
  8
Graypants_Hewn48-12
 62
    36
420
  8866048
370
    -3
100
AcDbVertex
100
AcDb2dVertex
 10
227.1521043782632
 20
-425.8309573395167
 30
0.0
  0
VERTEX
  5
104
330
E1
100
AcDbEntity
  8
Graypants_Hewn48-12
 62
    36
420
  8866048
370
    -3
100
AcDbVertex
100
AcDb2dVertex
 10
227.131906755045
 20
-425.7865484274057
 30
0.0
  0
VERTEX
  5
105
330
E1
100
AcDbEntity
  8
Graypants_Hewn48-12
 62
    36
420
  8866048
370
    -3
100
AcDbVertex
100
AcDb2dVertex
 10
227.113237076151
 20
-425.7414758354175
 30
0.0
  0
VERTEX
  5
106
330
E1
100
AcDbEntity
  8
Graypants_Hewn48-12
 62
    36
420
  8866048
370
    -3
100
AcDbVertex
100
AcDb2dVertex
 10
227.0961171095917
 20
-425.695792116178
 30
0.0
  0
VERTEX
  5
107
330
E1
100
AcDbEntity
  8
Graypants_Hewn48-12
 62
    36
420
  8866048
370
    -3
100
AcDbVertex
100
AcDb2dVertex
 10
227.0805668164822
 20
-425.6495505348604
 30
0.0
  0
VERTEX
  5
108
330
E1
100
AcDbEntity
  8
Graypants_Hewn48-12
 62
    36
420
  8866048
370
    -3
100
AcDbVertex
100
AcDb2dVertex
 10
227.0666043277687
 20
-425.60280500708
 30
0.0
  0
VERTEX
  5
109
330
E1
100
AcDbEntity
  8
Graypants_Hewn48-12
 62
    36
420
  8866048
370
    -3
100
AcDbVertex
100
AcDb2dVertex
 10
227.0542459230886
 20
-425.5556100360311
 30
0.0
  0
VERTEX
  5
10A
330
E1
100
AcDbEntity
  8
Graypants_Hewn48-12
 62
    36
420
  8866048
370
    -3
100
AcDbVertex
100
AcDb2dVertex
 10
227.0435060117887
 20
-425.5080206489389
 30
0.0
  0
VERTEX
  5
10B
330
E1
100
AcDbEntity
  8
Graypants_Hewn48-12
 62
    36
420
  8866048
370
    -3
100
AcDbVertex
100
AcDb2dVertex
 10
227.0343971161253
 20
-425.4600923328999
 30
0.0
  0
VERTEX
  5
10C
330
E1
100
AcDbEntity
  8
Graypants_Hewn48-12
 62
    36
420
  8866048
370
    -3
100
AcDbVertex
100
AcDb2dVertex
 10
227.0269298566633
 20
-425.4118809701866
 30
0.0
  0
VERTEX
  5
10D
330
E1
100
AcDbEntity
  8
Graypants_Hewn48-12
 62
    36
420
  8866048
370
    -3
100
AcDbVertex
100
AcDb2dVertex
 10
227.0211129398932
 20
-425.3634427730914
 30
0.0
  0
VERTEX
  5
10E
330
E1
100
AcDbEntity
  8
Graypants_Hewn48-12
 62
    36
420
  8866048
370
    -3
100
AcDbVertex
100
AcDb2dVertex
 10
227.0169531480796
 20
-425.3148342183853
 30
0.0
  0
VERTEX
  5
10F
330
E1
100
AcDbEntity
  8
Graypants_Hewn48-12
 62
    36
420
  8866048
370
    -3
100
AcDbVertex
100
AcDb2dVertex
 10
227.0144553313539
 20
-425.2661119814688
 30
0.0
  0
VERTEX
  5
110
330
E1
100
AcDbEntity
  8
Graypants_Hewn48-12
 62
    36
420
  8866048
370
    -3
100
AcDbVertex
100
AcDb2dVertex
 10
227.0136224020585
 20
-425.2173328702908
 30
0.0
  0
VERTEX
  5
111
330
E1
100
AcDbEntity
  8
Graypants_Hewn48-12
 62
    36
420
  8866048
370
    -3
100
AcDbVertex
100
AcDb2dVertex
 10
227.0136224014204
 20
-394.8960828702507
 30
0.0
  0
SEQEND
  5
112
330
E1
100
AcDbEntity
  8
Graypants_Hewn48-12
 62
    36
420
  8866048
370
    -3
  0
LINE
  5
113
330
1F
100
AcDbEntity
  8
Graypants_Hewn48-12
 62
    36
420
  8866048
370
    -3
100
AcDbLine
 10
382.5886224012856
 20
-394.8960828702499
 30
0.0
 11
304.8011224013535
 21
-394.8960828682798
 31
0.0
  0
POLYLINE
  5
114
330
1F
100
AcDbEntity
  8
Graypants_Hewn48-12
 62
    36
420
  8866048
370
    -3
100
AcDb2dPolyline
 66
     1
 10
0.0
 20
0.0
 30
0.0
  0
VERTEX
  5
115
330
114
100
AcDbEntity
  8
Graypants_Hewn48-12
 62
    36
420
  8866048
370
    -3
100
AcDbVertex
100
AcDb2dVertex
 10
382.5886224012866
 20
-394.8960828702507
 30
0.0
  0
VERTEX
  5
116
330
114
100
AcDbEntity
  8
Graypants_Hewn48-12
 62
    36
420
  8866048
370
    -3
100
AcDbVertex
100
AcDb2dVertex
 10
382.5886224006481
 20
-425.2173328702907
 30
0.0
  0
VERTEX
  5
117
330
114
100
AcDbEntity
  8
Graypants_Hewn48-12
 62
    36
420
  8866048
370
    -3
100
AcDbVertex
100
AcDb2dVertex
 10
382.5877894713527
 20
-425.2661119814689
 30
0.0
  0
VERTEX
  5
118
330
114
100
AcDbEntity
  8
Graypants_Hewn48-12
 62
    36
420
  8866048
370
    -3
100
AcDbVertex
100
AcDb2dVertex
 10
382.5852916546269
 20
-425.3148342183854
 30
0.0
  0
VERTEX
  5
119
330
114
100
AcDbEntity
  8
Graypants_Hewn48-12
 62
    36
420
  8866048
370
    -3
100
AcDbVertex
100
AcDb2dVertex
 10
382.5811318628134
 20
-425.3634427730914
 30
0.0
  0
VERTEX
  5
11A
330
114
100
AcDbEntity
  8
Graypants_Hewn48-12
 62
    36
420
  8866048
370
    -3
100
AcDbVertex
100
AcDb2dVertex
 10
382.5753149460432
 20
-425.4118809701866
 30
0.0
  0
VERTEX
  5
11B
330
114
100
AcDbEntity
  8
Graypants_Hewn48-12
 62
    36
420
  8866048
370
    -3
100
AcDbVertex
100
AcDb2dVertex
 10
382.5678476865812
 20
-425.4600923328999
 30
0.0
  0
VERTEX
  5
11C
330
114
100
AcDbEntity
  8
Graypants_Hewn48-12
 62
    36
420
  8866048
370
    -3
100
AcDbVertex
100
AcDb2dVertex
 10
382.5587387909178
 20
-425.5080206489389
 30
0.0
  0
VERTEX
  5
11D
330
114
100
AcDbEntity
  8
Graypants_Hewn48-12
 62
    36
420
  8866048
370
    -3
100
AcDbVertex
100
AcDb2dVertex
 10
382.547998879618
 20
-425.5556100360312
 30
0.0
  0
VERTEX
  5
11E
330
114
100
AcDbEntity
  8
Graypants_Hewn48-12
 62
    36
420
  8866048
370
    -3
100
AcDbVertex
100
AcDb2dVertex
 10
382.5356404749377
 20
-425.60280500708
 30
0.0
  0
VERTEX
  5
11F
330
114
100
AcDbEntity
  8
Graypants_Hewn48-12
 62
    36
420
  8866048
370
    -3
100
AcDbVertex
100
AcDb2dVertex
 10
382.5216779862243
 20
-425.6495505348605
 30
0.0
  0
VERTEX
  5
120
330
114
100
AcDbEntity
  8
Graypants_Hewn48-12
 62
    36
420
  8866048
370
    -3
100
AcDbVertex
100
AcDb2dVertex
 10
382.5061276931148
 20
-425.6957921161781
 30
0.0
  0
VERTEX
  5
121
330
114
100
AcDbEntity
  8
Graypants_Hewn48-12
 62
    36
420
  8866048
370
    -3
100
AcDbVertex
100
AcDb2dVertex
 10
382.4890077265555
 20
-425.7414758354175
 30
0.0
  0
VERTEX
  5
122
330
114
100
AcDbEntity
  8
Graypants_Hewn48-12
 62
    36
420
  8866048
370
    -3
100
AcDbVertex
100
AcDb2dVertex
 10
382.4703380476615
 20
-425.7865484274058
 30
0.0
  0
VERTEX
  5
123
330
114
100
AcDbEntity
  8
Graypants_Hewn48-12
 62
    36
420
  8866048
370
    -3
100
AcDbVertex
100
AcDb2dVertex
 10
382.4501404244433
 20
-425.8309573395167
 30
0.0
  0
VERTEX
  5
124
330
114
100
AcDbEntity
  8
Graypants_Hewn48-12
 62
    36
420
  8866048
370
    -3
100
AcDbVertex
100
AcDb2dVertex
 10
382.4284384064261
 20
-425.8746507929454
 30
0.0
  0
VERTEX
  5
125
330
114
100
AcDbEntity
  8
Graypants_Hewn48-12
 62
    36
420
  8866048
370
    -3
100
AcDbVertex
100
AcDb2dVertex
 10
382.405257297192
 20
-425.9175778430796
 30
0.0
  0
VERTEX
  5
126
330
114
100
AcDbEntity
  8
Graypants_Hewn48-12
 62
    36
420
  8866048
370
    -3
100
AcDbVertex
100
AcDb2dVertex
 10
382.3806241248776
 20
-425.9596884388991
 30
0.0
  0
VERTEX
  5
127
330
114
100
AcDbEntity
  8
Graypants_Hewn48-12
 62
    36
420
  8866048
370
    -3
100
AcDbVertex
100
AcDb2dVertex
 10
382.3545676106598
 20
-426.0009334813328
 30
0.0
  0
VERTEX
  5
128
330
114
100
AcDbEntity
  8
Graypants_Hewn48-12
 62
    36
420
  8866048
370
    -3
100
AcDbVertex
100
AcDb2dVertex
 10
382.3271181352687
 20
-426.0412648805063
 30
0.0
  0
VERTEX
  5
129
330
114
100
AcDbEntity
  8
Graypants_Hewn48-12
 62
    36
420
  8866048
370
    -3
100
AcDbVertex
100
AcDb2dVertex
 10
382.2983077035647
 20
-426.0806356118124
 30
0.0
  0
VERTEX
  5
12A
330
114
100
AcDbEntity
  8
Graypants_Hewn48-12
 62
    36
420
  8866048
370
    -3
100
AcDbVertex
100
AcDb2dVertex
 10
382.2681699072223
 20
-426.1189997707393
 30
0.0
  0
VERTEX
  5
12B
330
114
100
AcDbEntity
  8
Graypants_Hewn48-12
 62
    36
420
  8866048
370
    -3
100
AcDbVertex
100
AcDb2dVertex
 10
382.236739885564
 20
-426.1563126263939
 30
0.0
  0
VERTEX
  5
12C
330
114
100
AcDbEntity
  8
Graypants_Hewn48-12
 62
    36
420
  8866048
370
    -3
100
AcDbVertex
100
AcDb2dVertex
 10
382.2040542845891
 20
-426.1925306736557
 30
0.0
  0
VERTEX
  5
12D
330
114
100
AcDbEntity
  8
Graypants_Hewn48-12
 62
    36
420
  8866048
370
    -3
100
AcDbVertex
100
AcDb2dVertex
 10
382.1701512142463
 20
-426.2276116839016
 30
0.0
  0
VERTEX
  5
12E
330
114
100
AcDbEntity
  8
Graypants_Hewn48-12
 62
    36
420
  8866048
370
    -3
100
AcDbVertex
100
AcDb2dVertex
 10
382.1350702039989
 20
-426.2615147542429
 30
0.0
  0
VERTEX
  5
12F
330
114
100
AcDbEntity
  8
Graypants_Hewn48-12
 62
    36
420
  8866048
370
    -3
100
AcDbVertex
100
AcDb2dVertex
 10
382.0988521567357
 20
-426.2942003552162
 30
0.0
  0
VERTEX
  5
130
330
114
100
AcDbEntity
  8
Graypants_Hewn48-12
 62
    36
420
  8866048
370
    -3
100
AcDbVertex
100
AcDb2dVertex
 10
382.0615393010797
 20
-426.3256303768728
 30
0.0
  0
VERTEX
  5
131
330
114
100
AcDbEntity
  8
Graypants_Hewn48-12
 62
    36
420
  8866048
370
    -3
100
AcDbVertex
100
AcDb2dVertex
 10
382.0231751421515
 20
-426.3557681732135
 30
0.0
  0
VERTEX
  5
132
330
114
100
AcDbEntity
  8
Graypants_Hewn48-12
 62
    36
420
  8866048
370
    -3
100
AcDbVertex
100
AcDb2dVertex
 10
381.9838044108442
 20
-426.3845786049159
 30
0.0
  0
VERTEX
  5
133
330
114
100
AcDbEntity
  8
Graypants_Hewn48-12
 62
    36
420
  8866048
370
    -3
100
AcDbVertex
100
AcDb2dVertex
 10
381.9434730116695
 20
-426.4120280803052
 30
0.0
  0
VERTEX
  5
134
330
114
100
AcDbEntity
  8
Graypants_Hewn48-12
 62
    36
420
  8866048
370
    -3
100
AcDbVertex
100
AcDb2dVertex
 10
381.9022279692346
 20
-426.4380845945212
 30
0.0
  0
VERTEX
  5
135
330
114
100
AcDbEntity
  8
Graypants_Hewn48-12
 62
    36
420
  8866048
370
    -3
100
AcDbVertex
100
AcDb2dVertex
 10
381.860117373414
 20
-426.4627177668337
 30
0.0
  0
VERTEX
  5
136
330
114
100
AcDbEntity
  8
Graypants_Hewn48-12
 62
    36
420
  8866048
370
    -3
100
AcDbVertex
100
AcDb2dVertex
 10
381.8171903232788
 20
-426.4858988760659
 30
0.0
  0
VERTEX
  5
137
330
114
100
AcDbEntity
  8
Graypants_Hewn48-12
 62
    36
420
  8866048
370
    -3
100
AcDbVertex
100
AcDb2dVertex
 10
381.7734968698492
 20
-426.5076008940812
 30
0.0
  0
VERTEX
  5
138
330
114
100
AcDbEntity
  8
Graypants_Hewn48-12
 62
    36
420
  8866048
370
    -3
100
AcDbVertex
100
AcDb2dVertex
 10
381.7290879577374
 20
-426.5277985172975
 30
0.0
  0
VERTEX
  5
139
330
114
100
AcDbEntity
  8
Graypants_Hewn48-12
 62
    36
420
  8866048
370
    -3
100
AcDbVertex
100
AcDb2dVertex
 10
381.6840153657483
 20
-426.5464681961896
 30
0.0
  0
VERTEX
  5
13A
330
114
100
AcDbEntity
  8
Graypants_Hewn48-12
 62
    36
420
  8866048
370
    -3
100
AcDbVertex
100
AcDb2dVertex
 10
381.6383316465081
 20
-426.5635881627469
 30
0.0
  0
VERTEX
  5
13B
330
114
100
AcDbEntity
  8
Graypants_Hewn48-12
 62
    36
420
  8866048
370
    -3
100
AcDbVertex
100
AcDb2dVertex
 10
381.5920900651898
 20
-426.5791384558544
 30
0.0
  0
VERTEX
  5
13C
330
114
100
AcDbEntity
  8
Graypants_Hewn48-12
 62
    36
420
  8866048
370
    -3
100
AcDbVertex
100
AcDb2dVertex
 10
381.5453445374088
 20
-426.5931009445658
 30
0.0
  0
VERTEX
  5
13D
330
114
100
AcDbEntity
  8
Graypants_Hewn48-12
 62
    36
420
  8866048
370
    -3
100
AcDbVertex
100
AcDb2dVertex
 10
381.4981495663594
 20
-426.6054593492439
 30
0.0
  0
VERTEX
  5
13E
330
114
100
AcDbEntity
  8
Graypants_Hewn48-12
 62
    36
420
  8866048
370
    -3
100
AcDbVertex
100
AcDb2dVertex
 10
381.4505601792667
 20
-426.6161992605417
 30
0.0
  0
VERTEX
  5
13F
330
114
100
AcDbEntity
  8
Graypants_Hewn48-12
 62
    36
420
  8866048
370
    -3
100
AcDbVertex
100
AcDb2dVertex
 10
381.4026318632272
 20
-426.6253081562029
 30
0.0
  0
VERTEX
  5
140
330
114
100
AcDbEntity
  8
Graypants_Hewn48-12
 62
    36
420
  8866048
370
    -3
100
AcDbVertex
100
AcDb2dVertex
 10
381.3544205005136
 20
-426.6327754156629
 30
0.0
  0
VERTEX
  5
141
330
114
100
AcDbEntity
  8
Graypants_Hewn48-12
 62
    36
420
  8866048
370
    -3
100
AcDbVertex
100
AcDb2dVertex
 10
381.3059823034182
 20
-426.6385923324309
 30
0.0
  0
VERTEX
  5
142
330
114
100
AcDbEntity
  8
Graypants_Hewn48-12
 62
    36
420
  8866048
370
    -3
100
AcDbVertex
100
AcDb2dVertex
 10
381.2573737487119
 20
-426.6427521242423
 30
0.0
  0
VERTEX
  5
143
330
114
100
AcDbEntity
  8
Graypants_Hewn48-12
 62
    36
420
  8866048
370
    -3
100
AcDbVertex
100
AcDb2dVertex
 10
381.2086515117953
 20
-426.645249940966
 30
0.0
  0
VERTEX
  5
144
330
114
100
AcDbEntity
  8
Graypants_Hewn48-12
 62
    36
420
  8866048
370
    -3
100
AcDbVertex
100
AcDb2dVertex
 10
381.1598724006171
 20
-426.6460828702592
 30
0.0
  0
SEQEND
  5
145
330
114
100
AcDbEntity
  8
Graypants_Hewn48-12
 62
    36
420
  8866048
370
    -3
  0
LINE
  5
146
330
1F
100
AcDbEntity
  8
Graypants_Hewn48-12
 62
    36
420
  8866048
370
    -3
100
AcDbLine
 10
-304.0073724351651
 20
-427.7890828702504
 30
0.0
 11
-304.0073724351651
 21
-1085.95240353209
 31
0.0
  0
LINE
  5
147
330
1F
100
AcDbEntity
  8
Graypants_Hewn48-12
 62
    36
420
  8866048
370
    -3
100
AcDbLine
 10
-305.5948724351649
 20
-1085.95240353209
 30
0.0
 11
-305.5948724351649
 21
-427.7890828702504
 31
0.0
  0
LINE
  5
148
330
1F
100
AcDbEntity
  8
Graypants_Hewn48-12
 62
    36
420
  8866048
370
    -3
100
AcDbLine
 10
305.5948724013533
 20
-426.6460828702583
 30
0.0
 11
305.5948724124646
 21
-1085.95240353209
 31
0.0
  0
LINE
  5
149
330
1F
100
AcDbEntity
  8
Graypants_Hewn48-12
 62
    36
420
  8866048
370
    -3
100
AcDbLine
 10
304.007372412465
 20
-1085.95240353209
 30
0.0
 11
304.0073724013532
 21
-426.6460828702583
 31
0.0
  0
LINE
  5
14A
330
1F
100
AcDbEntity
  8
Graypants_Hewn48-12
 62
    36
420
  8866048
370
    -3
100
AcDbLine
 10
371.1795330348295
 20
-1079.154726984919
 30
0.0
 11
371.1795330348305
 21
-1109.391594481936
 31
0.0
  0
POLYLINE
  5
14B
330
1F
100
AcDbEntity
  8
Graypants_Hewn48-12
 62
    36
420
  8866048
370
    -3
100
AcDb2dPolyline
 66
     1
 10
0.0
 20
0.0
 30
0.0
  0
VERTEX
  5
14C
330
14B
100
AcDbEntity
  8
Graypants_Hewn48-12
 62
    36
420
  8866048
370
    -3
100
AcDbVertex
100
AcDb2dVertex
 10
364.8295330348301
 20
-1079.154726984919
 30
0.0
  0
VERTEX
  5
14D
330
14B
100
AcDbEntity
  8
Graypants_Hewn48-12
 62
    36
420
  8866048
370
    -3
100
AcDbVertex
100
AcDb2dVertex
 10
364.814195662076
 20
-1077.360807767613
 30
0.0
  0
VERTEX
  5
14E
330
14B
100
AcDbEntity
  8
Graypants_Hewn48-12
 62
    36
420
  8866048
370
    -3
100
AcDbVertex
100
AcDb2dVertex
 10
364.7680128942927
 20
-1075.56795493066
 30
0.0
  0
VERTEX
  5
14F
330
14B
100
AcDbEntity
  8
Graypants_Hewn48-12
 62
    36
420
  8866048
370
    -3
100
AcDbVertex
100
AcDb2dVertex
 10
364.6910711456164
 20
-1073.777260791585
 30
0.0
  0
VERTEX
  5
150
330
14B
100
AcDbEntity
  8
Graypants_Hewn48-12
 62
    36
420
  8866048
370
    -3
100
AcDbVertex
100
AcDb2dVertex
 10
364.5834568301835
 20
-1071.989817667916
 30
0.0
  0
VERTEX
  5
151
330
14B
100
AcDbEntity
  8
Graypants_Hewn48-12
 62
    36
420
  8866048
370
    -3
100
AcDbVertex
100
AcDb2dVertex
 10
364.4452563621303
 20
-1070.206717877179
 30
0.0
  0
VERTEX
  5
152
330
14B
100
AcDbEntity
  8
Graypants_Hewn48-12
 62
    36
420
  8866048
370
    -3
100
AcDbVertex
100
AcDb2dVertex
 10
364.2765561555931
 20
-1068.429053736901
 30
0.0
  0
VERTEX
  5
153
330
14B
100
AcDbEntity
  8
Graypants_Hewn48-12
 62
    36
420
  8866048
370
    -3
100
AcDbVertex
100
AcDb2dVertex
 10
364.0774426247083
 20
-1066.657917564609
 30
0.0
  0
VERTEX
  5
154
330
14B
100
AcDbEntity
  8
Graypants_Hewn48-12
 62
    36
420
  8866048
370
    -3
100
AcDbVertex
100
AcDb2dVertex
 10
363.8480021836122
 20
-1064.89440167783
 30
0.0
  0
VERTEX
  5
155
330
14B
100
AcDbEntity
  8
Graypants_Hewn48-12
 62
    36
420
  8866048
370
    -3
100
AcDbVertex
100
AcDb2dVertex
 10
363.5831120486034
 20
-1063.106286444796
 30
0.0
  0
VERTEX
  5
156
330
14B
100
AcDbEntity
  8
Graypants_Hewn48-12
 62
    36
420
  8866048
370
    -3
100
AcDbVertex
100
AcDb2dVertex
 10
363.2870580478357
 20
-1061.328277399029
 30
0.0
  0
VERTEX
  5
157
330
14B
100
AcDbEntity
  8
Graypants_Hewn48-12
 62
    36
420
  8866048
370
    -3
100
AcDbVertex
100
AcDb2dVertex
 10
362.960086825554
 20
-1059.561486476758
 30
0.0
  0
VERTEX
  5
158
330
14B
100
AcDbEntity
  8
Graypants_Hewn48-12
 62
    36
420
  8866048
370
    -3
100
AcDbVertex
100
AcDb2dVertex
 10
362.6024450260032
 20
-1057.807025614213
 30
0.0
  0
VERTEX
  5
159
330
14B
100
AcDbEntity
  8
Graypants_Hewn48-12
 62
    36
420
  8866048
370
    -3
100
AcDbVertex
100
AcDb2dVertex
 10
362.2143792934282
 20
-1056.066006747625
 30
0.0
  0
VERTEX
  5
15A
330
14B
100
AcDbEntity
  8
Graypants_Hewn48-12
 62
    36
420
  8866048
370
    -3
100
AcDbVertex
100
AcDb2dVertex
 10
361.7961362720741
 20
-1054.339541813223
 30
0.0
  0
VERTEX
  5
15B
330
14B
100
AcDbEntity
  8
Graypants_Hewn48-12
 62
    36
420
  8866048
370
    -3
100
AcDbVertex
100
AcDb2dVertex
 10
361.3479626061857
 20
-1052.628742747237
 30
0.0
  0
VERTEX
  5
15C
330
14B
100
AcDbEntity
  8
Graypants_Hewn48-12
 62
    36
420
  8866048
370
    -3
100
AcDbVertex
100
AcDb2dVertex
 10
360.8701049400079
 20
-1050.934721485898
 30
0.0
  0
VERTEX
  5
15D
330
14B
100
AcDbEntity
  8
Graypants_Hewn48-12
 62
    36
420
  8866048
370
    -3
100
AcDbVertex
100
AcDb2dVertex
 10
360.363426615223
 20
-1049.260456855744
 30
0.0
  0
VERTEX
  5
15E
330
14B
100
AcDbEntity
  8
Graypants_Hewn48-12
 62
    36
420
  8866048
370
    -3
100
AcDbVertex
100
AcDb2dVertex
 10
359.8277872059595
 20
-1047.6050486392
 30
0.0
  0
VERTEX
  5
15F
330
14B
100
AcDbEntity
  8
Graypants_Hewn48-12
 62
    36
420
  8866048
370
    -3
100
AcDbVertex
100
AcDb2dVertex
 10
359.2635996329718
 20
-1045.969509930561
 30
0.0
  0
VERTEX
  5
160
330
14B
100
AcDbEntity
  8
Graypants_Hewn48-12
 62
    36
420
  8866048
370
    -3
100
AcDbVertex
100
AcDb2dVertex
 10
358.6712768170147
 20
-1044.354853824121
 30
0.0
  0
VERTEX
  5
161
330
14B
100
AcDbEntity
  8
Graypants_Hewn48-12
 62
    36
420
  8866048
370
    -3
100
AcDbVertex
100
AcDb2dVertex
 10
358.0512316788426
 20
-1042.762093414174
 30
0.0
  0
VERTEX
  5
162
330
14B
100
AcDbEntity
  8
Graypants_Hewn48-12
 62
    36
420
  8866048
370
    -3
100
AcDbVertex
100
AcDb2dVertex
 10
357.4038771392102
 20
-1041.192241795015
 30
0.0
  0
VERTEX
  5
163
330
14B
100
AcDbEntity
  8
Graypants_Hewn48-12
 62
    36
420
  8866048
370
    -3
100
AcDbVertex
100
AcDb2dVertex
 10
356.729626118872
 20
-1039.646312060937
 30
0.0
  0
VERTEX
  5
164
330
14B
100
AcDbEntity
  8
Graypants_Hewn48-12
 62
    36
420
  8866048
370
    -3
100
AcDbVertex
100
AcDb2dVertex
 10
356.0288915385827
 20
-1038.125317306234
 30
0.0
  0
VERTEX
  5
165
330
14B
100
AcDbEntity
  8
Graypants_Hewn48-12
 62
    36
420
  8866048
370
    -3
100
AcDbVertex
100
AcDb2dVertex
 10
355.3175012273498
 20
-1036.661102005796
 30
0.0
  0
VERTEX
  5
166
330
14B
100
AcDbEntity
  8
Graypants_Hewn48-12
 62
    36
420
  8866048
370
    -3
100
AcDbVertex
100
AcDb2dVertex
 10
354.5816580834953
 20
-1035.222647960912
 30
0.0
  0
VERTEX
  5
167
330
14B
100
AcDbEntity
  8
Graypants_Hewn48-12
 62
    36
420
  8866048
370
    -3
100
AcDbVertex
100
AcDb2dVertex
 10
353.8218778102082
 20
-1033.810778190414
 30
0.0
  0
VERTEX
  5
168
330
14B
100
AcDbEntity
  8
Graypants_Hewn48-12
 62
    36
420
  8866048
370
    -3
100
AcDbVertex
100
AcDb2dVertex
 10
353.0386761106776
 20
-1032.426315713134
 30
0.0
  0
VERTEX
  5
169
330
14B
100
AcDbEntity
  8
Graypants_Hewn48-12
 62
    36
420
  8866048
370
    -3
100
AcDbVertex
100
AcDb2dVertex
 10
352.2325686880923
 20
-1031.070083547907
 30
0.0
  0
VERTEX
  5
16A
330
14B
100
AcDbEntity
  8
Graypants_Hewn48-12
 62
    36
420
  8866048
370
    -3
100
AcDbVertex
100
AcDb2dVertex
 10
351.4040712456417
 20
-1029.742904713563
 30
0.0
  0
VERTEX
  5
16B
330
14B
100
AcDbEntity
  8
Graypants_Hewn48-12
 62
    36
420
  8866048
370
    -3
100
AcDbVertex
100
AcDb2dVertex
 10
350.5536994865145
 20
-1028.445602228937
 30
0.0
  0
VERTEX
  5
16C
330
14B
100
AcDbEntity
  8
Graypants_Hewn48-12
 62
    36
420
  8866048
370
    -3
100
AcDbVertex
100
AcDb2dVertex
 10
349.6819691138999
 20
-1027.17899911286
 30
0.0
  0
SEQEND
  5
16D
330
14B
100
AcDbEntity
  8
Graypants_Hewn48-12
 62
    36
420
  8866048
370
    -3
  0
POLYLINE
  5
16E
330
1F
100
AcDbEntity
  8
Graypants_Hewn48-12
 62
    36
420
  8866048
370
    -3
100
AcDb2dPolyline
 66
     1
 10
0.0
 20
0.0
 30
0.0
  0
VERTEX
  5
16F
330
16E
100
AcDbEntity
  8
Graypants_Hewn48-12
 62
    36
420
  8866048
370
    -3
100
AcDbVertex
100
AcDb2dVertex
 10
349.6819682437317
 20
-1027.178997878993
 30
0.0
  0
VERTEX
  5
170
330
16E
100
AcDbEntity
  8
Graypants_Hewn48-12
 62
    36
420
  8866048
370
    -3
100
AcDbVertex
100
AcDb2dVertex
 10
348.730215667656
 20
-1025.796209722183
 30
0.0
  0
VERTEX
  5
171
330
16E
100
AcDbEntity
  8
Graypants_Hewn48-12
 62
    36
420
  8866048
370
    -3
100
AcDbVertex
100
AcDb2dVertex
 10
347.8031674037709
 20
-1024.382138927916
 30
0.0
  0
VERTEX
  5
172
330
16E
100
AcDbEntity
  8
Graypants_Hewn48-12
 62
    36
420
  8866048
370
    -3
100
AcDbVertex
100
AcDb2dVertex
 10
346.9012782095542
 20
-1022.937664419779
 30
0.0
  0
VERTEX
  5
173
330
16E
100
AcDbEntity
  8
Graypants_Hewn48-12
 62
    36
420
  8866048
370
    -3
100
AcDbVertex
100
AcDb2dVertex
 10
346.0250028424837
 20
-1021.463665121359
 30
0.0
  0
VERTEX
  5
174
330
16E
100
AcDbEntity
  8
Graypants_Hewn48-12
 62
    36
420
  8866048
370
    -3
100
AcDbVertex
100
AcDb2dVertex
 10
345.1747960600371
 20
-1019.961019956243
 30
0.0
  0
VERTEX
  5
175
330
16E
100
AcDbEntity
  8
Graypants_Hewn48-12
 62
    36
420
  8866048
370
    -3
100
AcDbVertex
100
AcDb2dVertex
 10
344.3511126196926
 20
-1018.430607848017
 30
0.0
  0
VERTEX
  5
176
330
16E
100
AcDbEntity
  8
Graypants_Hewn48-12
 62
    36
420
  8866048
370
    -3
100
AcDbVertex
100
AcDb2dVertex
 10
343.5544072789276
 20
-1016.873307720269
 30
0.0
  0
VERTEX
  5
177
330
16E
100
AcDbEntity
  8
Graypants_Hewn48-12
 62
    36
420
  8866048
370
    -3
100
AcDbVertex
100
AcDb2dVertex
 10
342.7851347952201
 20
-1015.289998496587
 30
0.0
  0
VERTEX
  5
178
330
16E
100
AcDbEntity
  8
Graypants_Hewn48-12
 62
    36
420
  8866048
370
    -3
100
AcDbVertex
100
AcDb2dVertex
 10
342.0307203346734
 20
-1013.652572158746
 30
0.0
  0
VERTEX
  5
179
330
16E
100
AcDbEntity
  8
Graypants_Hewn48-12
 62
    36
420
  8866048
370
    -3
100
AcDbVertex
100
AcDb2dVertex
 10
341.3055293785445
 20
-1011.990061590964
 30
0.0
  0
VERTEX
  5
17A
330
16E
100
AcDbEntity
  8
Graypants_Hewn48-12
 62
    36
420
  8866048
370
    -3
100
AcDbVertex
100
AcDb2dVertex
 10
340.6099271165522
 20
-1010.303488465155
 30
0.0
  0
VERTEX
  5
17B
330
16E
100
AcDbEntity
  8
Graypants_Hewn48-12
 62
    36
420
  8866048
370
    -3
100
AcDbVertex
100
AcDb2dVertex
 10
339.9442787384152
 20
-1008.593874453234
 30
0.0
  0
VERTEX
  5
17C
330
16E
100
AcDbEntity
  8
Graypants_Hewn48-12
 62
    36
420
  8866048
370
    -3
100
AcDbVertex
100
AcDb2dVertex
 10
339.3089494338523
 20
-1006.862241227116
 30
0.0
  0
VERTEX
  5
17D
330
16E
100
AcDbEntity
  8
Graypants_Hewn48-12
 62
    36
420
  8866048
370
    -3
100
AcDbVertex
100
AcDb2dVertex
 10
338.7043043925824
 20
-1005.109610458716
 30
0.0
  0
VERTEX
  5
17E
330
16E
100
AcDbEntity
  8
Graypants_Hewn48-12
 62
    36
420
  8866048
370
    -3
100
AcDbVertex
100
AcDb2dVertex
 10
338.1307088043243
 20
-1003.337003819949
 30
0.0
  0
VERTEX
  5
17F
330
16E
100
AcDbEntity
  8
Graypants_Hewn48-12
 62
    36
420
  8866048
370
    -3
100
AcDbVertex
100
AcDb2dVertex
 10
337.5885278587966
 20
-1001.545442982729
 30
0.0
  0
VERTEX
  5
180
330
16E
100
AcDbEntity
  8
Graypants_Hewn48-12
 62
    36
420
  8866048
370
    -3
100
AcDbVertex
100
AcDb2dVertex
 10
337.0786712871162
 20
-999.7380522739843
 30
0.0
  0
VERTEX
  5
181
330
16E
100
AcDbEntity
  8
Graypants_Hewn48-12
 62
    36
420
  8866048
370
    -3
100
AcDbVertex
100
AcDb2dVertex
 10
336.6007472187348
 20
-997.9138883789201
 30
0.0
  0
VERTEX
  5
182
330
16E
100
AcDbEntity
  8
Graypants_Hewn48-12
 62
    36
420
  8866048
370
    -3
100
AcDbVertex
100
AcDb2dVertex
 10
336.1549758352953
 20
-996.0740547664541
 30
0.0
  0
VERTEX
  5
183
330
16E
100
AcDbEntity
  8
Graypants_Hewn48-12
 62
    36
420
  8866048
370
    -3
100
AcDbVertex
100
AcDb2dVertex
 10
335.7415773184406
 20
-994.219654905504
 30
0.0
  0
VERTEX
  5
184
330
16E
100
AcDbEntity
  8
Graypants_Hewn48-12
 62
    36
420
  8866048
370
    -3
100
AcDbVertex
100
AcDb2dVertex
 10
335.3607718498134
 20
-992.3517922649876
 30
0.0
  0
VERTEX
  5
185
330
16E
100
AcDbEntity
  8
Graypants_Hewn48-12
 62
    36
420
  8866048
370
    -3
100
AcDbVertex
100
AcDb2dVertex
 10
335.0127796110565
 20
-990.4715703138232
 30
0.0
  0
VERTEX
  5
186
330
16E
100
AcDbEntity
  8
Graypants_Hewn48-12
 62
    36
420
  8866048
370
    -3
100
AcDbVertex
100
AcDb2dVertex
 10
334.6978207838127
 20
-988.5800925209285
 30
0.0
  0
VERTEX
  5
187
330
16E
100
AcDbEntity
  8
Graypants_Hewn48-12
 62
    36
420
  8866048
370
    -3
100
AcDbVertex
100
AcDb2dVertex
 10
334.416115549725
 20
-986.6784623552212
 30
0.0
  0
VERTEX
  5
188
330
16E
100
AcDbEntity
  8
Graypants_Hewn48-12
 62
    36
420
  8866048
370
    -3
100
AcDbVertex
100
AcDb2dVertex
 10
334.1724423813614
 20
-984.8056190814133
 30
0.0
  0
VERTEX
  5
189
330
16E
100
AcDbEntity
  8
Graypants_Hewn48-12
 62
    36
420
  8866048
370
    -3
100
AcDbVertex
100
AcDb2dVertex
 10
333.9610198469444
 20
-982.9251989848483
 30
0.0
  0
VERTEX
  5
18A
330
16E
100
AcDbEntity
  8
Graypants_Hewn48-12
 62
    36
420
  8866048
370
    -3
100
AcDbVertex
100
AcDb2dVertex
 10
333.7819267492739
 20
-981.0382795305795
 30
0.0
  0
VERTEX
  5
18B
330
16E
100
AcDbEntity
  8
Graypants_Hewn48-12
 62
    36
420
  8866048
370
    -3
100
AcDbVertex
100
AcDb2dVertex
 10
333.6352418911503
 20
-979.1459381836605
 30
0.0
  0
VERTEX
  5
18C
330
16E
100
AcDbEntity
  8
Graypants_Hewn48-12
 62
    36
420
  8866048
370
    -3
100
AcDbVertex
100
AcDb2dVertex
 10
333.5210440753734
 20
-977.2492524091446
 30
0.0
  0
VERTEX
  5
18D
330
16E
100
AcDbEntity
  8
Graypants_Hewn48-12
 62
    36
420
  8866048
370
    -3
100
AcDbVertex
100
AcDb2dVertex
 10
333.4394121047433
 20
-975.3492996720852
 30
0.0
  0
VERTEX
  5
18E
330
16E
100
AcDbEntity
  8
Graypants_Hewn48-12
 62
    36
420
  8866048
370
    -3
100
AcDbVertex
100
AcDb2dVertex
 10
333.3904247820603
 20
-973.4471574375357
 30
0.0
  0
VERTEX
  5
18F
330
16E
100
AcDbEntity
  8
Graypants_Hewn48-12
 62
    36
420
  8866048
370
    -3
100
AcDbVertex
100
AcDb2dVertex
 10
333.3741609101244
 20
-971.5439031705494
 30
0.0
  0
SEQEND
  5
190
330
16E
100
AcDbEntity
  8
Graypants_Hewn48-12
 62
    36
420
  8866048
370
    -3
  0
LINE
  5
191
330
1F
100
AcDbEntity
  8
Graypants_Hewn48-12
 62
    36
420
  8866048
370
    -3
100
AcDbLine
 10
339.7241609101242
 20
-971.5439031705456
 30
0.0
 11
339.7309515124602
 21
-972.7400608392995
 31
0.0
  0
POLYLINE
  5
192
330
1F
100
AcDbEntity
  8
Graypants_Hewn48-12
 62
    36
420
  8866048
370
    -3
100
AcDb2dPolyline
 66
     1
 10
0.0
 20
0.0
 30
0.0
  0
VERTEX
  5
193
330
192
100
AcDbEntity
  8
Graypants_Hewn48-12
 62
    36
420
  8866048
370
    -3
100
AcDbVertex
100
AcDb2dVertex
 10
339.7514639215954
 20
-973.9359007509743
 30
0.0
  0
VERTEX
  5
194
330
192
100
AcDbEntity
  8
Graypants_Hewn48-12
 62
    36
420
  8866048
370
    -3
100
AcDbVertex
100
AcDb2dVertex
 10
339.7963581672566
 20
-975.4295430718723
 30
0.0
  0
VERTEX
  5
195
330
192
100
AcDbEntity
  8
Graypants_Hewn48-12
 62
    36
420
  8866048
370
    -3
100
AcDbVertex
100
AcDb2dVertex
 10
339.8626041511988
 20
-976.9215607635228
 30
0.0
  0
VERTEX
  5
196
330
192
100
AcDbEntity
  8
Graypants_Hewn48-12
 62
    36
420
  8866048
370
    -3
100
AcDbVertex
100
AcDb2dVertex
 10
339.9501515700802
 20
-978.4113233109351
 30
0.0
  0
VERTEX
  5
197
330
192
100
AcDbEntity
  8
Graypants_Hewn48-12
 62
    36
420
  8866048
370
    -3
100
AcDbVertex
100
AcDb2dVertex
 10
340.0589501205595
 20
-979.8982001991186
 30
0.0
  0
VERTEX
  5
198
330
192
100
AcDbEntity
  8
Graypants_Hewn48-12
 62
    36
420
  8866048
370
    -3
100
AcDbVertex
100
AcDb2dVertex
 10
340.1889494992952
 20
-981.3815609130826
 30
0.0
  0
VERTEX
  5
199
330
192
100
AcDbEntity
  8
Graypants_Hewn48-12
 62
    36
420
  8866048
370
    -3
100
AcDbVertex
100
AcDb2dVertex
 10
340.3400994029457
 20
-982.8607749378364
 30
0.0
  0
VERTEX
  5
19A
330
192
100
AcDbEntity
  8
Graypants_Hewn48-12
 62
    36
420
  8866048
370
    -3
100
AcDbVertex
100
AcDb2dVertex
 10
340.5123495281694
 20
-984.3352117583895
 30
0.0
  0
VERTEX
  5
19B
330
192
100
AcDbEntity
  8
Graypants_Hewn48-12
 62
    36
420
  8866048
370
    -3
100
AcDbVertex
100
AcDb2dVertex
 10
340.705649571625
 20
-985.804240859751
 30
0.0
  0
VERTEX
  5
19C
330
192
100
AcDbEntity
  8
Graypants_Hewn48-12
 62
    36
420
  8866048
370
    -3
100
AcDbVertex
100
AcDb2dVertex
 10
340.970533199992
 20
-987.592346273241
 30
0.0
  0
VERTEX
  5
19D
330
192
100
AcDbEntity
  8
Graypants_Hewn48-12
 62
    36
420
  8866048
370
    -3
100
AcDbVertex
100
AcDb2dVertex
 10
341.2665801224002
 20
-989.3703460879112
 30
0.0
  0
VERTEX
  5
19E
330
192
100
AcDbEntity
  8
Graypants_Hewn48-12
 62
    36
420
  8866048
370
    -3
100
AcDbVertex
100
AcDb2dVertex
 10
341.5935437063673
 20
-991.137128247416
 30
0.0
  0
VERTEX
  5
19F
330
192
100
AcDbEntity
  8
Graypants_Hewn48-12
 62
    36
420
  8866048
370
    -3
100
AcDbVertex
100
AcDb2dVertex
 10
341.9511773194107
 20
-992.8915806954096
 30
0.0
  0
VERTEX
  5
1A0
330
192
100
AcDbEntity
  8
Graypants_Hewn48-12
 62
    36
420
  8866048
370
    -3
100
AcDbVertex
100
AcDb2dVertex
 10
342.3392343290482
 20
-994.6325913755467
 30
0.0
  0
VERTEX
  5
1A1
330
192
100
AcDbEntity
  8
Graypants_Hewn48-12
 62
    36
420
  8866048
370
    -3
100
AcDbVertex
100
AcDb2dVertex
 10
342.7574681027974
 20
-996.3590482314812
 30
0.0
  0
VERTEX
  5
1A2
330
192
100
AcDbEntity
  8
Graypants_Hewn48-12
 62
    36
420
  8866048
370
    -3
100
AcDbVertex
100
AcDb2dVertex
 10
343.2056320081759
 20
-998.0698392068678
 30
0.0
  0
VERTEX
  5
1A3
330
192
100
AcDbEntity
  8
Graypants_Hewn48-12
 62
    36
420
  8866048
370
    -3
100
AcDbVertex
100
AcDb2dVertex
 10
343.6834794127015
 20
-999.7638522453607
 30
0.0
  0
VERTEX
  5
1A4
330
192
100
AcDbEntity
  8
Graypants_Hewn48-12
 62
    36
420
  8866048
370
    -3
100
AcDbVertex
100
AcDb2dVertex
 10
344.1901527592634
 20
-1001.438126829853
 30
0.0
  0
VERTEX
  5
1A5
330
192
100
AcDbEntity
  8
Graypants_Hewn48-12
 62
    36
420
  8866048
370
    -3
100
AcDbVertex
100
AcDb2dVertex
 10
344.72578740093
 20
-1003.093544408253
 30
0.0
  0
VERTEX
  5
1A6
330
192
100
AcDbEntity
  8
Graypants_Hewn48-12
 62
    36
420
  8866048
370
    -3
100
AcDbVertex
100
AcDb2dVertex
 10
345.2899704866677
 20
-1004.729091968145
 30
0.0
  0
VERTEX
  5
1A7
330
192
100
AcDbEntity
  8
Graypants_Hewn48-12
 62
    36
420
  8866048
370
    -3
100
AcDbVertex
100
AcDb2dVertex
 10
345.8822891654426
 20
-1006.34375649711
 30
0.0
  0
VERTEX
  5
1A8
330
192
100
AcDbEntity
  8
Graypants_Hewn48-12
 62
    36
420
  8866048
370
    -3
100
AcDbVertex
100
AcDb2dVertex
 10
346.5023305862211
 20
-1007.936524982735
 30
0.0
  0
VERTEX
  5
1A9
330
192
100
AcDbEntity
  8
Graypants_Hewn48-12
 62
    36
420
  8866048
370
    -3
100
AcDbVertex
100
AcDb2dVertex
 10
347.1496818979694
 20
-1009.506384412601
 30
0.0
  0
VERTEX
  5
1AA
330
192
100
AcDbEntity
  8
Graypants_Hewn48-12
 62
    36
420
  8866048
370
    -3
100
AcDbVertex
100
AcDb2dVertex
 10
347.8239302496538
 20
-1011.052321774293
 30
0.0
  0
VERTEX
  5
1AB
330
192
100
AcDbEntity
  8
Graypants_Hewn48-12
 62
    36
420
  8866048
370
    -3
100
AcDbVertex
100
AcDb2dVertex
 10
348.5246627902405
 20
-1012.573324055394
 30
0.0
  0
VERTEX
  5
1AC
330
192
100
AcDbEntity
  8
Graypants_Hewn48-12
 62
    36
420
  8866048
370
    -3
100
AcDbVertex
100
AcDb2dVertex
 10
349.2360423933667
 20
-1014.037528014818
 30
0.0
  0
VERTEX
  5
1AD
330
192
100
AcDbEntity
  8
Graypants_Hewn48-12
 62
    36
420
  8866048
370
    -3
100
AcDbVertex
100
AcDb2dVertex
 10
349.9718785058326
 20
-1015.475979270184
 30
0.0
  0
VERTEX
  5
1AE
330
192
100
AcDbEntity
  8
Graypants_Hewn48-12
 62
    36
420
  8866048
370
    -3
100
AcDbVertex
100
AcDb2dVertex
 10
350.7316541162515
 20
-1016.887851968961
 30
0.0
  0
VERTEX
  5
1AF
330
192
100
AcDbEntity
  8
Graypants_Hewn48-12
 62
    36
420
  8866048
370
    -3
100
AcDbVertex
100
AcDb2dVertex
 10
351.5148522132367
 20
-1018.272320258615
 30
0.0
  0
VERTEX
  5
1B0
330
192
100
AcDbEntity
  8
Graypants_Hewn48-12
 62
    36
420
  8866048
370
    -3
100
AcDbVertex
100
AcDb2dVertex
 10
352.3209557854013
 20
-1019.628558286614
 30
0.0
  0
VERTEX
  5
1B1
330
192
100
AcDbEntity
  8
Graypants_Hewn48-12
 62
    36
420
  8866048
370
    -3
100
AcDbVertex
100
AcDb2dVertex
 10
353.1494478213586
 20
-1020.955740200425
 30
0.0
  0
VERTEX
  5
1B2
330
192
100
AcDbEntity
  8
Graypants_Hewn48-12
 62
    36
420
  8866048
370
    -3
100
AcDbVertex
100
AcDb2dVertex
 10
353.9998113097218
 20
-1022.253040147515
 30
0.0
  0
VERTEX
  5
1B3
330
192
100
AcDbEntity
  8
Graypants_Hewn48-12
 62
    36
420
  8866048
370
    -3
100
AcDbVertex
100
AcDb2dVertex
 10
354.8715292391042
 20
-1023.519632275351
 30
0.0
  0
SEQEND
  5
1B4
330
192
100
AcDbEntity
  8
Graypants_Hewn48-12
 62
    36
420
  8866048
370
    -3
  0
LINE
  5
1B5
330
1F
100
AcDbEntity
  8
Graypants_Hewn48-12
 62
    36
420
  8866048
370
    -3
100
AcDbLine
 10
333.3741609101244
 20
-971.5439031705494
 30
0.0
 11
333.374160909817
 21
-426.6460828683263
 31
0.0
  0
LINE
  5
1B6
330
1F
100
AcDbEntity
  8
Graypants_Hewn48-12
 62
    36
420
  8866048
370
    -3
100
AcDbLine
 10
339.7241609098164
 20
-426.6460828683227
 30
0.0
 11
339.7241609101247
 21
-971.5439031705457
 31
0.0
  0
LINE
  5
1B7
330
1F
100
AcDbEntity
  8
Graypants_Hewn48-12
 62
    36
420
  8866048
370
    -3
100
AcDbLine
 10
339.7309564487576
 20
-972.7404931200109
 30
0.0
 11
339.7514639215954
 21
-973.9359007509743
 31
0.0
  0
POLYLINE
  5
1B8
330
1F
100
AcDbEntity
  8
Graypants_Hewn48-12
 62
    36
420
  8866048
370
    -3
100
AcDb2dPolyline
 66
     1
 10
0.0
 20
0.0
 30
0.0
  0
VERTEX
  5
1B9
330
1B8
100
AcDbEntity
  8
Graypants_Hewn48-12
 62
    36
420
  8866048
370
    -3
100
AcDbVertex
100
AcDb2dVertex
 10
354.8715284718182
 20
-1023.519631187367
 30
0.0
  0
VERTEX
  5
1BA
330
1B8
100
AcDbEntity
  8
Graypants_Hewn48-12
 62
    36
420
  8866048
370
    -3
100
AcDbVertex
100
AcDb2dVertex
 10
355.8232925366491
 20
-1024.902429068556
 30
0.0
  0
VERTEX
  5
1BB
330
1B8
100
AcDbEntity
  8
Graypants_Hewn48-12
 62
    36
420
  8866048
370
    -3
100
AcDbVertex
100
AcDb2dVertex
 10
356.7503486361405
 20
-1026.316501728695
 30
0.0
  0
VERTEX
  5
1BC
330
1B8
100
AcDbEntity
  8
Graypants_Hewn48-12
 62
    36
420
  8866048
370
    -3
100
AcDbVertex
100
AcDb2dVertex
 10
357.6522432066017
 20
-1027.760972960696
 30
0.0
  0
VERTEX
  5
1BD
330
1B8
100
AcDbEntity
  8
Graypants_Hewn48-12
 62
    36
420
  8866048
370
    -3
100
AcDbVertex
100
AcDb2dVertex
 10
358.5285226843424
 20
-1029.234966557472
 30
0.0
  0
VERTEX
  5
1BE
330
1B8
100
AcDbEntity
  8
Graypants_Hewn48-12
 62
    36
420
  8866048
370
    -3
100
AcDbVertex
100
AcDb2dVertex
 10
359.378733505672
 20
-1030.737606311938
 30
0.0
  0
VERTEX
  5
1BF
330
1B8
100
AcDbEntity
  8
Graypants_Hewn48-12
 62
    36
420
  8866048
370
    -3
100
AcDbVertex
100
AcDb2dVertex
 10
360.2024221069
 20
-1032.268016017005
 30
0.0
  0
VERTEX
  5
1C0
330
1B8
100
AcDbEntity
  8
Graypants_Hewn48-12
 62
    36
420
  8866048
370
    -3
100
AcDbVertex
100
AcDb2dVertex
 10
360.999134924336
 20
-1033.825319465587
 30
0.0
  0
VERTEX
  5
1C1
330
1B8
100
AcDbEntity
  8
Graypants_Hewn48-12
 62
    36
420
  8866048
370
    -3
100
AcDbVertex
100
AcDb2dVertex
 10
361.7684183942893
 20
-1035.408640450597
 30
0.0
  0
VERTEX
  5
1C2
330
1B8
100
AcDbEntity
  8
Graypants_Hewn48-12
 62
    36
420
  8866048
370
    -3
100
AcDbVertex
100
AcDb2dVertex
 10
362.5228346092398
 20
-1037.046058630383
 30
0.0
  0
VERTEX
  5
1C3
330
1B8
100
AcDbEntity
  8
Graypants_Hewn48-12
 62
    36
420
  8866048
370
    -3
100
AcDbVertex
100
AcDb2dVertex
 10
363.2480280011366
 20
-1038.708560936524
 30
0.0
  0
VERTEX
  5
1C4
330
1B8
100
AcDbEntity
  8
Graypants_Hewn48-12
 62
    36
420
  8866048
370
    -3
100
AcDbVertex
100
AcDb2dVertex
 10
363.9436333087295
 20
-1040.395125624193
 30
0.0
  0
VERTEX
  5
1C5
330
1B8
100
AcDbEntity
  8
Graypants_Hewn48-12
 62
    36
420
  8866048
370
    -3
100
AcDbVertex
100
AcDb2dVertex
 10
364.6092852707686
 20
-1042.104730948559
 30
0.0
  0
VERTEX
  5
1C6
330
1B8
100
AcDbEntity
  8
Graypants_Hewn48-12
 62
    36
420
  8866048
370
    -3
100
AcDbVertex
100
AcDb2dVertex
 10
365.2446186260038
 20
-1043.836355164796
 30
0.0
  0
VERTEX
  5
1C7
330
1B8
100
AcDbEntity
  8
Graypants_Hewn48-12
 62
    36
420
  8866048
370
    -3
100
AcDbVertex
100
AcDb2dVertex
 10
365.8492681131851
 20
-1045.588976528076
 30
0.0
  0
VERTEX
  5
1C8
330
1B8
100
AcDbEntity
  8
Graypants_Hewn48-12
 62
    36
420
  8866048
370
    -3
100
AcDbVertex
100
AcDb2dVertex
 10
366.4228684710624
 20
-1047.361573293569
 30
0.0
  0
VERTEX
  5
1C9
330
1B8
100
AcDbEntity
  8
Graypants_Hewn48-12
 62
    36
420
  8866048
370
    -3
100
AcDbVertex
100
AcDb2dVertex
 10
366.9650544383858
 20
-1049.153123716448
 30
0.0
  0
VERTEX
  5
1CA
330
1B8
100
AcDbEntity
  8
Graypants_Hewn48-12
 62
    36
420
  8866048
370
    -3
100
AcDbVertex
100
AcDb2dVertex
 10
367.4749216366996
 20
-1050.960523366892
 30
0.0
  0
VERTEX
  5
1CB
330
1B8
100
AcDbEntity
  8
Graypants_Hewn48-12
 62
    36
420
  8866048
370
    -3
100
AcDbVertex
100
AcDb2dVertex
 10
367.9528557963563
 20
-1052.784696071454
 30
0.0
  0
VERTEX
  5
1CC
330
1B8
100
AcDbEntity
  8
Graypants_Hewn48-12
 62
    36
420
  8866048
370
    -3
100
AcDbVertex
100
AcDb2dVertex
 10
368.398636722742
 20
-1054.624538483808
 30
0.0
  0
VERTEX
  5
1CD
330
1B8
100
AcDbEntity
  8
Graypants_Hewn48-12
 62
    36
420
  8866048
370
    -3
100
AcDbVertex
100
AcDb2dVertex
 10
368.8120442212431
 20
-1056.478947257629
 30
0.0
  0
VERTEX
  5
1CE
330
1B8
100
AcDbEntity
  8
Graypants_Hewn48-12
 62
    36
420
  8866048
370
    -3
100
AcDbVertex
100
AcDb2dVertex
 10
369.192858097246
 20
-1058.346819046591
 30
0.0
  0
VERTEX
  5
1CF
330
1B8
100
AcDbEntity
  8
Graypants_Hewn48-12
 62
    36
420
  8866048
370
    -3
100
AcDbVertex
100
AcDb2dVertex
 10
369.5408581561371
 20
-1060.227050504366
 30
0.0
  0
VERTEX
  5
1D0
330
1B8
100
AcDbEntity
  8
Graypants_Hewn48-12
 62
    36
420
  8866048
370
    -3
100
AcDbVertex
100
AcDb2dVertex
 10
369.8558242033026
 20
-1062.118538284631
 30
0.0
  0
VERTEX
  5
1D1
330
1B8
100
AcDbEntity
  8
Graypants_Hewn48-12
 62
    36
420
  8866048
370
    -3
100
AcDbVertex
100
AcDb2dVertex
 10
370.1375360441289
 20
-1064.020179041058
 30
0.0
  0
VERTEX
  5
1D2
330
1B8
100
AcDbEntity
  8
Graypants_Hewn48-12
 62
    36
420
  8866048
370
    -3
100
AcDbVertex
100
AcDb2dVertex
 10
370.3812123275826
 20
-1065.893009799482
 30
0.0
  0
VERTEX
  5
1D3
330
1B8
100
AcDbEntity
  8
Graypants_Hewn48-12
 62
    36
420
  8866048
370
    -3
100
AcDbVertex
100
AcDb2dVertex
 10
370.5926396163649
 20
-1067.773426976997
 30
0.0
  0
VERTEX
  5
1D4
330
1B8
100
AcDbEntity
  8
Graypants_Hewn48-12
 62
    36
420
  8866048
370
    -3
100
AcDbVertex
100
AcDb2dVertex
 10
370.771738599295
 20
-1069.660349897568
 30
0.0
  0
VERTEX
  5
1D5
330
1B8
100
AcDbEntity
  8
Graypants_Hewn48-12
 62
    36
420
  8866048
370
    -3
100
AcDbVertex
100
AcDb2dVertex
 10
370.9184299651918
 20
-1071.552697885155
 30
0.0
  0
VERTEX
  5
1D6
330
1B8
100
AcDbEntity
  8
Graypants_Hewn48-12
 62
    36
420
  8866048
370
    -3
100
AcDbVertex
100
AcDb2dVertex
 10
371.0326344028746
 20
-1073.449390263721
 30
0.0
  0
VERTEX
  5
1D7
330
1B8
100
AcDbEntity
  8
Graypants_Hewn48-12
 62
    36
420
  8866048
370
    -3
100
AcDbVertex
100
AcDb2dVertex
 10
371.1142726011624
 20
-1075.349346357229
 30
0.0
  0
VERTEX
  5
1D8
330
1B8
100
AcDbEntity
  8
Graypants_Hewn48-12
 62
    36
420
  8866048
370
    -3
100
AcDbVertex
100
AcDb2dVertex
 10
371.1632652488743
 20
-1077.251485489641
 30
0.0
  0
VERTEX
  5
1D9
330
1B8
100
AcDbEntity
  8
Graypants_Hewn48-12
 62
    36
420
  8866048
370
    -3
100
AcDbVertex
100
AcDb2dVertex
 10
371.1795330348295
 20
-1079.154726984919
 30
0.0
  0
SEQEND
  5
1DA
330
1B8
100
AcDbEntity
  8
Graypants_Hewn48-12
 62
    36
420
  8866048
370
    -3
  0
LINE
  5
1DB
330
1F
100
AcDbEntity
  8
Graypants_Hewn48-12
 62
    36
420
  8866048
370
    -3
100
AcDbLine
 10
364.8295330348306
 20
-1109.39165353208
 30
0.0
 11
364.8295330348301
 21
-1079.154726984919
 31
0.0
  0
LINE
  5
1DC
330
1F
100
AcDbEntity
  8
Graypants_Hewn48-12
 62
    36
420
  8866048
370
    -3
100
AcDbLine
 10
-296.8001224351638
 20
-394.8960828702504
 30
0.0
 11
-312.8021224351637
 21
-394.8960828702504
 31
0.0
  0
LINE
  5
1DD
330
1F
100
AcDbEntity
  8
Graypants_Hewn48-12
 62
    36
420
  8866048
370
    -3
100
AcDbLine
 10
-311.1979398469857
 20
-422.4550828702501
 30
0.0
 11
-311.1979398469857
 21
-421.1850828702504
 31
0.0
  0
LINE
  5
1DE
330
1F
100
AcDbEntity
  8
Graypants_Hewn48-12
 62
    36
420
  8866048
370
    -3
100
AcDbLine
 10
-298.4043050233431
 20
-421.1850828702504
 30
0.0
 11
-298.4043050233431
 21
-422.4550828702501
 31
0.0
  0
LINE
  5
1DF
330
1F
100
AcDbEntity
  8
Graypants_Hewn48-12
 62
    36
420
  8866048
370
    -3
100
AcDbLine
 10
-298.4043050233431
 20
-421.1850828702504
 30
0.0
 11
-298.3241224351643
 21
-421.1850828702506
 31
0.0
  0
LINE
  5
1E0
330
1F
100
AcDbEntity
  8
Graypants_Hewn48-12
 62
    36
420
  8866048
370
    -3
100
AcDbLine
 10
-298.7686224351642
 20
-396.9280828702501
 30
0.0
 11
-298.7686224351633
 21
-420.4230828702516
 31
0.0
  0
LINE
  5
1E1
330
1F
100
AcDbEntity
  8
Graypants_Hewn48-12
 62
    36
420
  8866048
370
    -3
100
AcDbLine
 10
-310.8336224351624
 20
-420.423082870252
 30
0.0
 11
-310.8336224351633
 21
-396.9280828702505
 31
0.0
  0
LINE
  5
1E2
330
1F
100
AcDbEntity
  8
Graypants_Hewn48-12
 62
    36
420
  8866048
370
    -3
100
AcDbLine
 10
-296.8001224351638
 20
-394.8960828702504
 30
0.0
 11
-296.8001224351638
 21
-396.9280828702501
 31
0.0
  0
LINE
  5
1E3
330
1F
100
AcDbEntity
  8
Graypants_Hewn48-12
 62
    36
420
  8866048
370
    -3
100
AcDbLine
 10
-312.8021224351637
 20
-396.9280828702501
 30
0.0
 11
-312.8021224351637
 21
-394.8960828702504
 31
0.0
  0
LINE
  5
1E4
330
1F
100
AcDbEntity
  8
Graypants_Hewn48-12
 62
    36
420
  8866048
370
    -3
100
AcDbLine
 10
-306.7569224351646
 20
-427.7890828702504
 30
0.0
 11
-306.7470398988958
 21
-422.4550828702501
 31
0.0
  0
LINE
  5
1E5
330
1F
100
AcDbEntity
  8
Graypants_Hewn48-12
 62
    36
420
  8866048
370
    -3
100
AcDbLine
 10
-298.324122435165
 20
-420.4230828702504
 30
0.0
 11
-298.324122435165
 21
-421.1850828702504
 31
0.0
  0
LINE
  5
1E6
330
1F
100
AcDbEntity
  8
Graypants_Hewn48-12
 62
    36
420
  8866048
370
    -3
100
AcDbLine
 10
-311.278122435165
 20
-421.1850828702504
 30
0.0
 11
-311.278122435165
 21
-420.4230828702504
 31
0.0
  0
LINE
  5
1E7
330
1F
100
AcDbEntity
  8
Graypants_Hewn48-12
 62
    36
420
  8866048
370
    -3
100
AcDbLine
 10
-311.2781224351647
 20
-421.1850828702504
 30
0.0
 11
-311.1979398469859
 21
-421.1850828702504
 31
0.0
  0
LINE
  5
1E8
330
1F
100
AcDbEntity
  8
Graypants_Hewn48-12
 62
    36
420
  8866048
370
    -3
100
AcDbLine
 10
-306.7569221826318
 20
-422.45508287025
 30
0.0
 11
-306.7569224351648
 21
-427.7890828702504
 31
0.0
  0
LINE
  5
1E9
330
1F
100
AcDbEntity
  8
Graypants_Hewn48-12
 62
    36
420
  8866048
370
    -3
100
AcDbLine
 10
-302.8453226876973
 20
-422.4550828702501
 30
0.0
 11
-302.8453224351645
 21
-427.7890828702504
 31
0.0
  0
LINE
  5
1EA
330
1F
100
AcDbEntity
  8
Graypants_Hewn48-12
 62
    36
420
  8866048
370
    -3
100
AcDbLine
 10
-302.8552054049021
 20
-422.4548426768008
 30
0.0
 11
-302.8453224351642
 21
-427.7890828702504
 31
0.0
  0
LINE
  5
1EB
330
1F
100
AcDbEntity
  8
Graypants_Hewn48-12
 62
    36
420
  8866048
370
    -3
100
AcDbLine
 10
-299.8481224351649
 20
-1085.95240353209
 30
0.0
 11
-309.7541224351651
 21
-1085.95240353209
 31
0.0
  0
LINE
  5
1EC
330
1F
100
AcDbEntity
  8
Graypants_Hewn48-12
 62
    36
420
  8866048
370
    -3
100
AcDbLine
 10
-305.8171224351615
 20
-1109.391653532081
 30
0.0
 11
-305.8171224351611
 21
-1096.790836800564
 31
0.0
  0
LINE
  5
1ED
330
1F
100
AcDbEntity
  8
Graypants_Hewn48-12
 62
    36
420
  8866048
370
    -3
100
AcDbLine
 10
-303.7851224351612
 20
-1096.790836800564
 30
0.0
 11
-303.7851224351614
 21
-1109.391653532081
 31
0.0
  0
LINE
  5
1EE
330
1F
100
AcDbEntity
  8
Graypants_Hewn48-12
 62
    36
420
  8866048
370
    -3
100
AcDbLine
 10
309.7541224124648
 20
-1085.95240353209
 30
0.0
 11
299.8481224124644
 21
-1085.95240353209
 31
0.0
  0
LINE
  5
1EF
330
1F
100
AcDbEntity
  8
Graypants_Hewn48-12
 62
    36
420
  8866048
370
    -3
100
AcDbLine
 10
303.7851224124688
 20
-1109.391653532081
 30
0.0
 11
303.7851224124684
 21
-1096.790836800564
 31
0.0
  0
LINE
  5
1F0
330
1F
100
AcDbEntity
  8
Graypants_Hewn48-12
 62
    36
420
  8866048
370
    -3
100
AcDbLine
 10
305.8171224124681
 20
-1096.790836800564
 30
0.0
 11
305.817122412469
 21
-1109.391226299336
 31
0.0
  0
LINE
  5
1F1
330
1F
100
AcDbEntity
  8
Graypants_Hewn48-12
 62
    36
420
  8866048
370
    -3
100
AcDbLine
 10
304.8011224013535
 20
-426.6460828683245
 30
0.0
 11
228.4423724020899
 21
-426.6460828702583
 31
0.0
  0
LINE
  5
1F2
330
1F
100
AcDbEntity
  8
Graypants_Hewn48-12
 62
    36
420
  8866048
370
    -3
100
AcDbLine
 10
381.1598724006171
 20
-426.6460828702583
 30
0.0
 11
304.8011224013535
 21
-426.6460828683245
 31
0.0
  0
LINE
  5
1F3
330
1F
100
AcDbEntity
  8
Graypants_Hewn48-12
 62
    36
420
  8866048
370
    -3
100
AcDbLine
 10
-296.8001224351638
 20
-396.9280828702501
 30
0.0
 11
-312.8021224351637
 21
-396.9280828702501
 31
0.0
  0
LINE
  5
1F4
330
1F
100
AcDbEntity
  8
Graypants_Hewn48-12
 62
    36
420
  8866048
370
    -3
100
AcDbLine
 10
-304.8011224351649
 20
-427.7890828702504
 30
0.0
 11
-306.7569224351651
 21
-427.7890828702504
 31
0.0
  0
LINE
  5
1F5
330
1F
100
AcDbEntity
  8
Graypants_Hewn48-12
 62
    36
420
  8866048
370
    -3
100
AcDbLine
 10
-302.8453224351642
 20
-427.7890828702504
 30
0.0
 11
-304.8011224351649
 21
-427.7890828702504
 31
0.0
  0
LINE
  5
1F6
330
1F
100
AcDbEntity
  8
Graypants_Hewn48-12
 62
    36
420
  8866048
370
    -3
100
AcDbLine
 10
-304.8011224351649
 20
-420.4230828702504
 30
0.0
 11
-311.278122435165
 21
-420.4230828702504
 31
0.0
  0
LINE
  5
1F7
330
1F
100
AcDbEntity
  8
Graypants_Hewn48-12
 62
    36
420
  8866048
370
    -3
100
AcDbLine
 10
-304.8011224351649
 20
-422.4550828702501
 30
0.0
 11
-311.1979398469862
 21
-422.4550828702501
 31
0.0
  0
LINE
  5
1F8
330
1F
100
AcDbEntity
  8
Graypants_Hewn48-12
 62
    36
420
  8866048
370
    -3
100
AcDbLine
 10
-298.4043050233433
 20
-422.4550828702501
 30
0.0
 11
-304.8011224351649
 21
-422.4550828702501
 31
0.0
  0
LINE
  5
1F9
330
1F
100
AcDbEntity
  8
Graypants_Hewn48-12
 62
    36
420
  8866048
370
    -3
100
AcDbLine
 10
-298.324122435165
 20
-420.4230828702504
 30
0.0
 11
-304.8011224351649
 21
-420.4230828702504
 31
0.0
  0
ARC
  5
1FA
330
1F
100
AcDbEntity
  8
Graypants_Hewn48-12
 62
    36
420
  8866048
370
    -3
100
AcDbCircle
 10
-304.8011224351623
 20
20.06449256597421
 30
0.0
 40
1.016000000000076
100
AcDbArc
 50
359.999999999976
 51
180.0000000000241
  0
ARC
  5
1FB
330
1F
100
AcDbEntity
  8
Graypants_Hewn48-12
 62
    36
420
  8866048
370
    -3
100
AcDbCircle
 10
304.8011224351615
 20
-20.06750743402648
 30
0.0
 40
1.015999999999849
210
0.0
220
0.0
230
-1.0
100
AcDbArc
 50
179.9999999999886
 51
0.0000000000114199
  0
CIRCLE
  5
1FD
330
1F
100
AcDbEntity
  8
Graypants_Hewn48-12
  6
Hidden
 62
    36
420
  8866048
370
    -3
100
AcDbCircle
 10
-304.8011224013529
 20
-0.0015074340263559
 30
0.0
 40
77.78749999993249
210
0.0
220
0.0
230
-1.0
  0
CIRCLE
  5
1FE
330
1F
100
AcDbEntity
  8
Graypants_Hewn48-12
 62
    36
420
  8866048
370
    -3
100
AcDbCircle
 10
304.8011224351637
 20
-0.0015074340262353
 30
0.0
 40
8.000999999999976
210
0.0
220
0.0
230
-1.0
  0
LINE
  5
1FF
330
1F
100
AcDbEntity
  8
Graypants_Hewn48-12
 62
    36
420
  8866048
370
    -3
100
AcDbLine
 10
-305.8171224351614
 20
7.934722464357983
 30
0.0
 11
-305.8171224351622
 21
20.06449256597378
 31
0.0
  0
LINE
  5
200
330
1F
100
AcDbEntity
  8
Graypants_Hewn48-12
 62
    36
420
  8866048
370
    -3
100
AcDbLine
 10
-303.7851224351622
 20
20.0644926049595
 30
0.0
 11
-303.7851224351614
 21
7.934722464356162
 31
0.0
  0
LINE
  5
201
330
1F
100
AcDbEntity
  8
Graypants_Hewn48-12
 62
    36
420
  8866048
370
    -3
100
AcDbLine
 10
-305.8171224351613
 20
-20.06750749792442
 30
0.0
 11
-305.817122435161
 21
-7.937737332409113
 31
0.0
  0
LINE
  5
202
330
1F
100
AcDbEntity
  8
Graypants_Hewn48-12
 62
    36
420
  8866048
370
    -3
100
AcDbLine
 10
-303.785122435161
 20
-7.937737332409795
 30
0.0
 11
-303.7851224351616
 21
-20.06750743402628
 31
0.0
  0
LINE
  5
203
330
1F
100
AcDbEntity
  8
Graypants_Hewn48-12
 62
    36
420
  8866048
370
    -3
100
AcDbLine
 10
-552.4500000000003
 20
-50.80201216772795
 30
0.0
 11
552.4499999772997
 21
-50.79798782027657
 31
0.0
  0
LINE
  5
204
330
1F
100
AcDbEntity
  8
Graypants_Hewn48-12
100
AcDbLine
 10
-565.0154614499652
 20
12.87349593304683
 30
0.0
 11
-565.0154614499652
 21
-13.12650406664576
 31
0.0
  0
LINE
  5
205
330
1F
100
AcDbEntity
  8
Graypants_Hewn48-12
100
AcDbLine
 10
565.0154229695099
 20
12.87349593304683
 30
0.0
 11
565.0154229695099
 21
-13.12650406664849
 31
0.0
  0
LINE
  5
206
330
1F
100
AcDbEntity
  8
Graypants_Hewn48-12
 62
    36
420
  8866048
370
    -3
100
AcDbLine
 10
-303.7708476167047
 20
12.87349593304683
 30
0.0
 11
565.0154229695099
 21
12.87349593304683
 31
0.0
  0
LINE
  5
207
330
1F
100
AcDbEntity
  8
Graypants_Hewn48-12
 62
    36
420
  8866048
370
    -3
100
AcDbLine
 10
-303.7705501217833
 20
-13.12650406664576
 30
0.0
 11
565.0154229695099
 21
-13.12650406664849
 31
0.0
  0
LINE
  5
208
330
1F
100
AcDbEntity
  8
Graypants_Hewn48-12
 62
    36
420
  8866048
370
    -3
100
AcDbLine
 10
603.25
 20
-1109.39165353208
 30
0.0
 11
603.25
 21
-1411.791653532089
 31
0.0
  0
LINE
  5
209
330
1F
100
AcDbEntity
  8
Graypants_Hewn48-12
 62
    36
420
  8866048
370
    -3
100
AcDbLine
 10
-603.25
 20
-1411.791653532089
 30
0.0
 11
-603.25
 21
-1109.39165353208
 31
0.0
  0
LINE
  5
20A
330
1F
100
AcDbEntity
  8
Graypants_Hewn48-12
 62
    36
420
  8866048
370
    -3
100
AcDbLine
 10
998.1445754456963
 20
-1102.46240353209
 30
0.0
 11
993.1915754457332
 21
-1102.46240353209
 31
0.0
  0
LINE
  5
20B
330
1F
100
AcDbEntity
  8
Graypants_Hewn48-12
 62
    36
420
  8866048
370
    -3
100
AcDbLine
 10
1003.097575445733
 20
-1085.95240353209
 30
0.0
 11
1003.097575445733
 21
-1095.770539959198
 31
0.0
  0
LINE
  5
20C
330
1F
100
AcDbEntity
  8
Graypants_Hewn48-12
 62
    36
420
  8866048
370
    -3
100
AcDbLine
 10
1003.097575445733
 20
-1097.867624164507
 30
0.0
 11
1003.097575445733
 21
-1102.46240353209
 31
0.0
  0
LINE
  5
20D
330
1F
100
AcDbEntity
  8
Graypants_Hewn48-12
 62
    36
420
  8866048
370
    -3
100
AcDbLine
 10
993.1915754457332
 20
-1102.46240353209
 30
0.0
 11
993.1915754457332
 21
-1097.867634905594
 31
0.0
  0
LINE
  5
20E
330
1F
100
AcDbEntity
  8
Graypants_Hewn48-12
 62
    36
420
  8866048
370
    -3
100
AcDbLine
 10
993.1915754457332
 20
-1095.770549240651
 30
0.0
 11
993.1915754457332
 21
-1085.95240353209
 31
0.0
  0
LINE
  5
20F
330
1F
100
AcDbEntity
  8
Graypants_Hewn48-12
 62
    36
420
  8866048
370
    -3
100
AcDbLine
 10
1003.097575445733
 20
-1102.46240353209
 30
0.0
 11
998.1445754456963
 21
-1102.46240353209
 31
0.0
  0
ARC
  5
210
330
1F
100
AcDbEntity
  8
Graypants_Hewn48-12
 62
    36
420
  8866048
370
    -3
100
AcDbCircle
 10
-998.1445811187658
 20
-1116.262396144388
 30
0.0
 40
21.08194304890977
210
0.0
220
0.0
230
-1.0
100
AcDbArc
 50
103.588093352299
 51
160.9785459566397
  0
ARC
  5
211
330
1F
100
AcDbEntity
  8
Graypants_Hewn48-12
 62
    36
420
  8866048
370
    -3
100
AcDbCircle
 10
998.1446349772193
 20
-1116.262589523591
 30
0.0
 40
19.05012215500476
100
AcDbArc
 50
105.0701486453115
 51
158.8563924282191
  0
ARC
  5
212
330
1F
100
AcDbEntity
  8
Graypants_Hewn48-12
 62
    36
420
  8866048
370
    -3
100
AcDbCircle
 10
1008.265913759018
 20
-1096.819082061852
 30
0.0
 40
5.273628870295235
100
AcDbArc
 50
168.531600985316
 51
191.468399014684
  0
ARC
  5
213
330
1F
100
AcDbEntity
  8
Graypants_Hewn48-12
 62
    36
420
  8866048
370
    -3
100
AcDbCircle
 10
988.0232298218838
 20
-1096.819092073123
 30
0.0
 40
5.273636180008059
100
AcDbArc
 50
348.5316090065787
 51
11.46839099342644
  0
POLYLINE
  5
214
330
1F
100
AcDbEntity
  8
Graypants_Hewn48-12
 62
    36
420
  8866048
370
    -3
100
AcDb2dPolyline
 66
     1
 10
0.0
 20
0.0
 30
0.0
  0
VERTEX
  5
215
330
214
100
AcDbEntity
  8
Graypants_Hewn48-12
 62
    36
420
  8866048
370
    -3
100
AcDbVertex
100
AcDb2dVertex
 10
921.7858254341845
 20
-426.6460828683245
 30
0.0
  0
VERTEX
  5
216
330
214
100
AcDbEntity
  8
Graypants_Hewn48-12
 62
    36
420
  8866048
370
    -3
100
AcDbVertex
100
AcDb2dVertex
 10
921.7370463230063
 20
-426.64524993903
 30
0.0
  0
VERTEX
  5
217
330
214
100
AcDbEntity
  8
Graypants_Hewn48-12
 62
    36
420
  8866048
370
    -3
100
AcDbVertex
100
AcDb2dVertex
 10
921.6883240860898
 20
-426.6427521223051
 30
0.0
  0
VERTEX
  5
218
330
214
100
AcDbEntity
  8
Graypants_Hewn48-12
 62
    36
420
  8866048
370
    -3
100
AcDbVertex
100
AcDb2dVertex
 10
921.6397155313837
 20
-426.6385923304925
 30
0.0
  0
VERTEX
  5
219
330
214
100
AcDbEntity
  8
Graypants_Hewn48-12
 62
    36
420
  8866048
370
    -3
100
AcDbVertex
100
AcDb2dVertex
 10
921.5912773342883
 20
-426.6327754137232
 30
0.0
  0
VERTEX
  5
21A
330
214
100
AcDbEntity
  8
Graypants_Hewn48-12
 62
    36
420
  8866048
370
    -3
100
AcDbVertex
100
AcDb2dVertex
 10
921.543065971575
 20
-426.625308154262
 30
0.0
  0
VERTEX
  5
21B
330
214
100
AcDbEntity
  8
Graypants_Hewn48-12
 62
    36
420
  8866048
370
    -3
100
AcDbVertex
100
AcDb2dVertex
 10
921.4951376555358
 20
-426.6161992585995
 30
0.0
  0
VERTEX
  5
21C
330
214
100
AcDbEntity
  8
Graypants_Hewn48-12
 62
    36
420
  8866048
370
    -3
100
AcDbVertex
100
AcDb2dVertex
 10
921.4475482684433
 20
-426.6054593473005
 30
0.0
  0
VERTEX
  5
21D
330
214
100
AcDbEntity
  8
Graypants_Hewn48-12
 62
    36
420
  8866048
370
    -3
100
AcDbVertex
100
AcDb2dVertex
 10
921.4003532973943
 20
-426.5931009426212
 30
0.0
  0
VERTEX
  5
21E
330
214
100
AcDbEntity
  8
Graypants_Hewn48-12
 62
    36
420
  8866048
370
    -3
100
AcDbVertex
100
AcDb2dVertex
 10
921.3536077696135
 20
-426.5791384539086
 30
0.0
  0
VERTEX
  5
21F
330
214
100
AcDbEntity
  8
Graypants_Hewn48-12
 62
    36
420
  8866048
370
    -3
100
AcDbVertex
100
AcDb2dVertex
 10
921.3073661882958
 20
-426.5635881608
 30
0.0
  0
VERTEX
  5
220
330
214
100
AcDbEntity
  8
Graypants_Hewn48-12
 62
    36
420
  8866048
370
    -3
100
AcDbVertex
100
AcDb2dVertex
 10
921.2616824690558
 20
-426.5464681942414
 30
0.0
  0
VERTEX
  5
221
330
214
100
AcDbEntity
  8
Graypants_Hewn48-12
 62
    36
420
  8866048
370
    -3
100
AcDbVertex
100
AcDb2dVertex
 10
921.2166098770673
 20
-426.5277985153483
 30
0.0
  0
VERTEX
  5
222
330
214
100
AcDbEntity
  8
Graypants_Hewn48-12
 62
    36
420
  8866048
370
    -3
100
AcDbVertex
100
AcDb2dVertex
 10
921.172200964956
 20
-426.5076008921309
 30
0.0
  0
VERTEX
  5
223
330
214
100
AcDbEntity
  8
Graypants_Hewn48-12
 62
    36
420
  8866048
370
    -3
100
AcDbVertex
100
AcDb2dVertex
 10
921.128507511527
 20
-426.4858988741144
 30
0.0
  0
VERTEX
  5
224
330
214
100
AcDbEntity
  8
Graypants_Hewn48-12
 62
    36
420
  8866048
370
    -3
100
AcDbVertex
100
AcDb2dVertex
 10
921.0855804613923
 20
-426.4627177648812
 30
0.0
  0
VERTEX
  5
225
330
214
100
AcDbEntity
  8
Graypants_Hewn48-12
 62
    36
420
  8866048
370
    -3
100
AcDbVertex
100
AcDb2dVertex
 10
921.0434698655724
 20
-426.4380845925675
 30
0.0
  0
VERTEX
  5
226
330
214
100
AcDbEntity
  8
Graypants_Hewn48-12
 62
    36
420
  8866048
370
    -3
100
AcDbVertex
100
AcDb2dVertex
 10
921.0022248231381
 20
-426.4120280783505
 30
0.0
  0
VERTEX
  5
227
330
214
100
AcDbEntity
  8
Graypants_Hewn48-12
 62
    36
420
  8866048
370
    -3
100
AcDbVertex
100
AcDb2dVertex
 10
920.9618934239642
 20
-426.3845786029601
 30
0.0
  0
VERTEX
  5
228
330
214
100
AcDbEntity
  8
Graypants_Hewn48-12
 62
    36
420
  8866048
370
    -3
100
AcDbVertex
100
AcDb2dVertex
 10
920.9225226926576
 20
-426.3557681712568
 30
0.0
  0
VERTEX
  5
229
330
214
100
AcDbEntity
  8
Graypants_Hewn48-12
 62
    36
420
  8866048
370
    -3
100
AcDbVertex
100
AcDb2dVertex
 10
920.8841585337301
 20
-426.3256303749151
 30
0.0
  0
VERTEX
  5
22A
330
214
100
AcDbEntity
  8
Graypants_Hewn48-12
 62
    36
420
  8866048
370
    -3
100
AcDbVertex
100
AcDb2dVertex
 10
920.8468456780749
 20
-426.2942003532575
 30
0.0
  0
VERTEX
  5
22B
330
214
100
AcDbEntity
  8
Graypants_Hewn48-12
 62
    36
420
  8866048
370
    -3
100
AcDbVertex
100
AcDb2dVertex
 10
920.8106276308125
 20
-426.2615147522833
 30
0.0
  0
VERTEX
  5
22C
330
214
100
AcDbEntity
  8
Graypants_Hewn48-12
 62
    36
420
  8866048
370
    -3
100
AcDbVertex
100
AcDb2dVertex
 10
920.7755466205662
 20
-426.2276116819411
 30
0.0
  0
VERTEX
  5
22D
330
214
100
AcDbEntity
  8
Graypants_Hewn48-12
 62
    36
420
  8866048
370
    -3
100
AcDbVertex
100
AcDb2dVertex
 10
920.7416435502241
 20
-426.1925306716944
 30
0.0
  0
VERTEX
  5
22E
330
214
100
AcDbEntity
  8
Graypants_Hewn48-12
 62
    36
420
  8866048
370
    -3
100
AcDbVertex
100
AcDb2dVertex
 10
920.7089579492501
 20
-426.1563126244318
 30
0.0
  0
VERTEX
  5
22F
330
214
100
AcDbEntity
  8
Graypants_Hewn48-12
 62
    36
420
  8866048
370
    -3
100
AcDbVertex
100
AcDb2dVertex
 10
920.6775279275928
 20
-426.1189997687763
 30
0.0
  0
VERTEX
  5
230
330
214
100
AcDbEntity
  8
Graypants_Hewn48-12
 62
    36
420
  8866048
370
    -3
100
AcDbVertex
100
AcDb2dVertex
 10
920.6473901312515
 20
-426.0806356098487
 30
0.0
  0
VERTEX
  5
231
330
214
100
AcDbEntity
  8
Graypants_Hewn48-12
 62
    36
420
  8866048
370
    -3
100
AcDbVertex
100
AcDb2dVertex
 10
920.6185796995484
 20
-426.0412648785419
 30
0.0
  0
VERTEX
  5
232
330
214
100
AcDbEntity
  8
Graypants_Hewn48-12
 62
    36
420
  8866048
370
    -3
100
AcDbVertex
100
AcDb2dVertex
 10
920.5911302241584
 20
-426.0009334793677
 30
0.0
  0
VERTEX
  5
233
330
214
100
AcDbEntity
  8
Graypants_Hewn48-12
 62
    36
420
  8866048
370
    -3
100
AcDbVertex
100
AcDb2dVertex
 10
920.5650737099417
 20
-425.9596884369333
 30
0.0
  0
VERTEX
  5
234
330
214
100
AcDbEntity
  8
Graypants_Hewn48-12
 62
    36
420
  8866048
370
    -3
100
AcDbVertex
100
AcDb2dVertex
 10
920.5404405376282
 20
-425.9175778411132
 30
0.0
  0
VERTEX
  5
235
330
214
100
AcDbEntity
  8
Graypants_Hewn48-12
 62
    36
420
  8866048
370
    -3
100
AcDbVertex
100
AcDb2dVertex
 10
920.5172594283953
 20
-425.8746507909784
 30
0.0
  0
VERTEX
  5
236
330
214
100
AcDbEntity
  8
Graypants_Hewn48-12
 62
    36
420
  8866048
370
    -3
100
AcDbVertex
100
AcDb2dVertex
 10
920.4955574103792
 20
-425.8309573375493
 30
0.0
  0
VERTEX
  5
237
330
214
100
AcDbEntity
  8
Graypants_Hewn48-12
 62
    36
420
  8866048
370
    -3
100
AcDbVertex
100
AcDb2dVertex
 10
920.4753597871621
 20
-425.7865484254377
 30
0.0
  0
VERTEX
  5
238
330
214
100
AcDbEntity
  8
Graypants_Hewn48-12
 62
    36
420
  8866048
370
    -3
100
AcDbVertex
100
AcDb2dVertex
 10
920.4566901082693
 20
-425.741475833449
 30
0.0
  0
VERTEX
  5
239
330
214
100
AcDbEntity
  8
Graypants_Hewn48-12
 62
    36
420
  8866048
370
    -3
100
AcDbVertex
100
AcDb2dVertex
 10
920.4395701417111
 20
-425.6957921142092
 30
0.0
  0
VERTEX
  5
23A
330
214
100
AcDbEntity
  8
Graypants_Hewn48-12
 62
    36
420
  8866048
370
    -3
100
AcDbVertex
100
AcDb2dVertex
 10
920.4240198486028
 20
-425.6495505328912
 30
0.0
  0
VERTEX
  5
23B
330
214
100
AcDbEntity
  8
Graypants_Hewn48-12
 62
    36
420
  8866048
370
    -3
100
AcDbVertex
100
AcDb2dVertex
 10
920.4100573598905
 20
-425.6028050051104
 30
0.0
  0
VERTEX
  5
23C
330
214
100
AcDbEntity
  8
Graypants_Hewn48-12
 62
    36
420
  8866048
370
    -3
100
AcDbVertex
100
AcDb2dVertex
 10
920.3976989552115
 20
-425.5556100340612
 30
0.0
  0
VERTEX
  5
23D
330
214
100
AcDbEntity
  8
Graypants_Hewn48-12
 62
    36
420
  8866048
370
    -3
100
AcDbVertex
100
AcDb2dVertex
 10
920.3869590439128
 20
-425.5080206469686
 30
0.0
  0
VERTEX
  5
23E
330
214
100
AcDbEntity
  8
Graypants_Hewn48-12
 62
    36
420
  8866048
370
    -3
100
AcDbVertex
100
AcDb2dVertex
 10
920.3778501482508
 20
-425.4600923309294
 30
0.0
  0
VERTEX
  5
23F
330
214
100
AcDbEntity
  8
Graypants_Hewn48-12
 62
    36
420
  8866048
370
    -3
100
AcDbVertex
100
AcDb2dVertex
 10
920.3703828887899
 20
-425.4118809682159
 30
0.0
  0
VERTEX
  5
240
330
214
100
AcDbEntity
  8
Graypants_Hewn48-12
 62
    36
420
  8866048
370
    -3
100
AcDbVertex
100
AcDb2dVertex
 10
920.364565972021
 20
-425.3634427711207
 30
0.0
  0
VERTEX
  5
241
330
214
100
AcDbEntity
  8
Graypants_Hewn48-12
 62
    36
420
  8866048
370
    -3
100
AcDbVertex
100
AcDb2dVertex
 10
920.3604061802087
 20
-425.3148342164145
 30
0.0
  0
VERTEX
  5
242
330
214
100
AcDbEntity
  8
Graypants_Hewn48-12
 62
    36
420
  8866048
370
    -3
100
AcDbVertex
100
AcDb2dVertex
 10
920.3579083634841
 20
-425.2661119794979
 30
0.0
  0
VERTEX
  5
243
330
214
100
AcDbEntity
  8
Graypants_Hewn48-12
 62
    36
420
  8866048
370
    -3
100
AcDbVertex
100
AcDb2dVertex
 10
920.3570754341899
 20
-425.2173328683197
 30
0.0
  0
VERTEX
  5
244
330
214
100
AcDbEntity
  8
Graypants_Hewn48-12
 62
    36
420
  8866048
370
    -3
100
AcDbVertex
100
AcDb2dVertex
 10
920.35707543432
 20
-394.8960828682797
 30
0.0
  0
SEQEND
  5
245
330
214
100
AcDbEntity
  8
Graypants_Hewn48-12
 62
    36
420
  8866048
370
    -3
  0
POLYLINE
  5
246
330
1F
100
AcDbEntity
  8
Graypants_Hewn48-12
 62
    36
420
  8866048
370
    -3
100
AcDb2dPolyline
 66
     1
 10
0.0
 20
0.0
 30
0.0
  0
VERTEX
  5
247
330
246
100
AcDbEntity
  8
Graypants_Hewn48-12
 62
    36
420
  8866048
370
    -3
100
AcDbVertex
100
AcDb2dVertex
 10
1075.932075434186
 20
-394.8960828722217
 30
0.0
  0
VERTEX
  5
248
330
246
100
AcDbEntity
  8
Graypants_Hewn48-12
 62
    36
420
  8866048
370
    -3
100
AcDbVertex
100
AcDb2dVertex
 10
1075.93207543278
 20
-425.2173328722617
 30
0.0
  0
VERTEX
  5
249
330
246
100
AcDbEntity
  8
Graypants_Hewn48-12
 62
    36
420
  8866048
370
    -3
100
AcDbVertex
100
AcDb2dVertex
 10
1075.931242503483
 20
-425.2661119834398
 30
0.0
  0
VERTEX
  5
24A
330
246
100
AcDbEntity
  8
Graypants_Hewn48-12
 62
    36
420
  8866048
370
    -3
100
AcDbVertex
100
AcDb2dVertex
 10
1075.928744686756
 20
-425.3148342203563
 30
0.0
  0
VERTEX
  5
24B
330
246
100
AcDbEntity
  8
Graypants_Hewn48-12
 62
    36
420
  8866048
370
    -3
100
AcDbVertex
100
AcDb2dVertex
 10
1075.924584894942
 20
-425.3634427750623
 30
0.0
  0
VERTEX
  5
24C
330
246
100
AcDbEntity
  8
Graypants_Hewn48-12
 62
    36
420
  8866048
370
    -3
100
AcDbVertex
100
AcDb2dVertex
 10
1075.91876797817
 20
-425.4118809721573
 30
0.0
  0
VERTEX
  5
24D
330
246
100
AcDbEntity
  8
Graypants_Hewn48-12
 62
    36
420
  8866048
370
    -3
100
AcDbVertex
100
AcDb2dVertex
 10
1075.911300718707
 20
-425.4600923348703
 30
0.0
  0
VERTEX
  5
24E
330
246
100
AcDbEntity
  8
Graypants_Hewn48-12
 62
    36
420
  8866048
370
    -3
100
AcDbVertex
100
AcDb2dVertex
 10
1075.902191823042
 20
-425.5080206509091
 30
0.0
  0
VERTEX
  5
24F
330
246
100
AcDbEntity
  8
Graypants_Hewn48-12
 62
    36
420
  8866048
370
    -3
100
AcDbVertex
100
AcDb2dVertex
 10
1075.891451911741
 20
-425.5556100380011
 30
0.0
  0
VERTEX
  5
250
330
246
100
AcDbEntity
  8
Graypants_Hewn48-12
 62
    36
420
  8866048
370
    -3
100
AcDbVertex
100
AcDb2dVertex
 10
1075.87909350706
 20
-425.6028050090496
 30
0.0
  0
VERTEX
  5
251
330
246
100
AcDbEntity
  8
Graypants_Hewn48-12
 62
    36
420
  8866048
370
    -3
100
AcDbVertex
100
AcDb2dVertex
 10
1075.865131018345
 20
-425.6495505368297
 30
0.0
  0
VERTEX
  5
252
330
246
100
AcDbEntity
  8
Graypants_Hewn48-12
 62
    36
420
  8866048
370
    -3
100
AcDbVertex
100
AcDb2dVertex
 10
1075.849580725235
 20
-425.6957921181469
 30
0.0
  0
VERTEX
  5
253
330
246
100
AcDbEntity
  8
Graypants_Hewn48-12
 62
    36
420
  8866048
370
    -3
100
AcDbVertex
100
AcDb2dVertex
 10
1075.832460758674
 20
-425.7414758373859
 30
0.0
  0
VERTEX
  5
254
330
246
100
AcDbEntity
  8
Graypants_Hewn48-12
 62
    36
420
  8866048
370
    -3
100
AcDbVertex
100
AcDb2dVertex
 10
1075.813791079779
 20
-425.7865484293737
 30
0.0
  0
VERTEX
  5
255
330
246
100
AcDbEntity
  8
Graypants_Hewn48-12
 62
    36
420
  8866048
370
    -3
100
AcDbVertex
100
AcDb2dVertex
 10
1075.793593456559
 20
-425.8309573414841
 30
0.0
  0
VERTEX
  5
256
330
246
100
AcDbEntity
  8
Graypants_Hewn48-12
 62
    36
420
  8866048
370
    -3
100
AcDbVertex
100
AcDb2dVertex
 10
1075.771891438541
 20
-425.8746507949122
 30
0.0
  0
VERTEX
  5
257
330
246
100
AcDbEntity
  8
Graypants_Hewn48-12
 62
    36
420
  8866048
370
    -3
100
AcDbVertex
100
AcDb2dVertex
 10
1075.748710329306
 20
-425.9175778450458
 30
0.0
  0
VERTEX
  5
258
330
246
100
AcDbEntity
  8
Graypants_Hewn48-12
 62
    36
420
  8866048
370
    -3
100
AcDbVertex
100
AcDb2dVertex
 10
1075.72407715699
 20
-425.9596884408646
 30
0.0
  0
VERTEX
  5
259
330
246
100
AcDbEntity
  8
Graypants_Hewn48-12
 62
    36
420
  8866048
370
    -3
100
AcDbVertex
100
AcDb2dVertex
 10
1075.698020642772
 20
-426.0009334832977
 30
0.0
  0
VERTEX
  5
25A
330
246
100
AcDbEntity
  8
Graypants_Hewn48-12
 62
    36
420
  8866048
370
    -3
100
AcDbVertex
100
AcDb2dVertex
 10
1075.670571167379
 20
-426.0412648824706
 30
0.0
  0
VERTEX
  5
25B
330
246
100
AcDbEntity
  8
Graypants_Hewn48-12
 62
    36
420
  8866048
370
    -3
100
AcDbVertex
100
AcDb2dVertex
 10
1075.641760735675
 20
-426.0806356137759
 30
0.0
  0
VERTEX
  5
25C
330
246
100
AcDbEntity
  8
Graypants_Hewn48-12
 62
    36
420
  8866048
370
    -3
100
AcDbVertex
100
AcDb2dVertex
 10
1075.611622939331
 20
-426.118999772702
 30
0.0
  0
VERTEX
  5
25D
330
246
100
AcDbEntity
  8
Graypants_Hewn48-12
 62
    36
420
  8866048
370
    -3
100
AcDbVertex
100
AcDb2dVertex
 10
1075.580192917672
 20
-426.1563126283559
 30
0.0
  0
VERTEX
  5
25E
330
246
100
AcDbEntity
  8
Graypants_Hewn48-12
 62
    36
420
  8866048
370
    -3
100
AcDbVertex
100
AcDb2dVertex
 10
1075.547507316696
 20
-426.1925306756168
 30
0.0
  0
VERTEX
  5
25F
330
246
100
AcDbEntity
  8
Graypants_Hewn48-12
 62
    36
420
  8866048
370
    -3
100
AcDbVertex
100
AcDb2dVertex
 10
1075.513604246352
 20
-426.2276116858617
 30
0.0
  0
VERTEX
  5
260
330
246
100
AcDbEntity
  8
Graypants_Hewn48-12
 62
    36
420
  8866048
370
    -3
100
AcDbVertex
100
AcDb2dVertex
 10
1075.478523236104
 20
-426.2615147562022
 30
0.0
  0
VERTEX
  5
261
330
246
100
AcDbEntity
  8
Graypants_Hewn48-12
 62
    36
420
  8866048
370
    -3
100
AcDbVertex
100
AcDb2dVertex
 10
1075.44230518884
 20
-426.2942003571745
 30
0.0
  0
VERTEX
  5
262
330
246
100
AcDbEntity
  8
Graypants_Hewn48-12
 62
    36
420
  8866048
370
    -3
100
AcDbVertex
100
AcDb2dVertex
 10
1075.404992333183
 20
-426.3256303788303
 30
0.0
  0
VERTEX
  5
263
330
246
100
AcDbEntity
  8
Graypants_Hewn48-12
 62
    36
420
  8866048
370
    -3
100
AcDbVertex
100
AcDb2dVertex
 10
1075.366628174254
 20
-426.3557681751699
 30
0.0
  0
VERTEX
  5
264
330
246
100
AcDbEntity
  8
Graypants_Hewn48-12
 62
    36
420
  8866048
370
    -3
100
AcDbVertex
100
AcDb2dVertex
 10
1075.327257442946
 20
-426.3845786068713
 30
0.0
  0
VERTEX
  5
265
330
246
100
AcDbEntity
  8
Graypants_Hewn48-12
 62
    36
420
  8866048
370
    -3
100
AcDbVertex
100
AcDb2dVertex
 10
1075.286926043771
 20
-426.4120280822597
 30
0.0
  0
VERTEX
  5
266
330
246
100
AcDbEntity
  8
Graypants_Hewn48-12
 62
    36
420
  8866048
370
    -3
100
AcDbVertex
100
AcDb2dVertex
 10
1075.245681001335
 20
-426.4380845964746
 30
0.0
  0
VERTEX
  5
267
330
246
100
AcDbEntity
  8
Graypants_Hewn48-12
 62
    36
420
  8866048
370
    -3
100
AcDbVertex
100
AcDb2dVertex
 10
1075.203570405514
 20
-426.4627177687861
 30
0.0
  0
VERTEX
  5
268
330
246
100
AcDbEntity
  8
Graypants_Hewn48-12
 62
    36
420
  8866048
370
    -3
100
AcDbVertex
100
AcDb2dVertex
 10
1075.160643355378
 20
-426.4858988780172
 30
0.0
  0
VERTEX
  5
269
330
246
100
AcDbEntity
  8
Graypants_Hewn48-12
 62
    36
420
  8866048
370
    -3
100
AcDbVertex
100
AcDb2dVertex
 10
1075.116949901948
 20
-426.5076008960314
 30
0.0
  0
VERTEX
  5
26A
330
246
100
AcDbEntity
  8
Graypants_Hewn48-12
 62
    36
420
  8866048
370
    -3
100
AcDbVertex
100
AcDb2dVertex
 10
1075.072540989836
 20
-426.5277985192466
 30
0.0
  0
VERTEX
  5
26B
330
246
100
AcDbEntity
  8
Graypants_Hewn48-12
 62
    36
420
  8866048
370
    -3
100
AcDbVertex
100
AcDb2dVertex
 10
1075.027468397846
 20
-426.5464681981375
 30
0.0
  0
VERTEX
  5
26C
330
246
100
AcDbEntity
  8
Graypants_Hewn48-12
 62
    36
420
  8866048
370
    -3
100
AcDbVertex
100
AcDb2dVertex
 10
1074.981784678606
 20
-426.5635881646936
 30
0.0
  0
VERTEX
  5
26D
330
246
100
AcDbEntity
  8
Graypants_Hewn48-12
 62
    36
420
  8866048
370
    -3
100
AcDbVertex
100
AcDb2dVertex
 10
1074.935543097287
 20
-426.5791384577999
 30
0.0
  0
VERTEX
  5
26E
330
246
100
AcDbEntity
  8
Graypants_Hewn48-12
 62
    36
420
  8866048
370
    -3
100
AcDbVertex
100
AcDb2dVertex
 10
1074.888797569506
 20
-426.5931009465102
 30
0.0
  0
VERTEX
  5
26F
330
246
100
AcDbEntity
  8
Graypants_Hewn48-12
 62
    36
420
  8866048
370
    -3
100
AcDbVertex
100
AcDb2dVertex
 10
1074.841602598456
 20
-426.6054593511871
 30
0.0
  0
VERTEX
  5
270
330
246
100
AcDbEntity
  8
Graypants_Hewn48-12
 62
    36
420
  8866048
370
    -3
100
AcDbVertex
100
AcDb2dVertex
 10
1074.794013211363
 20
-426.6161992624837
 30
0.0
  0
VERTEX
  5
271
330
246
100
AcDbEntity
  8
Graypants_Hewn48-12
 62
    36
420
  8866048
370
    -3
100
AcDbVertex
100
AcDb2dVertex
 10
1074.746084895323
 20
-426.6253081581438
 30
0.0
  0
VERTEX
  5
272
330
246
100
AcDbEntity
  8
Graypants_Hewn48-12
 62
    36
420
  8866048
370
    -3
100
AcDbVertex
100
AcDb2dVertex
 10
1074.697873532609
 20
-426.6327754176025
 30
0.0
  0
VERTEX
  5
273
330
246
100
AcDbEntity
  8
Graypants_Hewn48-12
 62
    36
420
  8866048
370
    -3
100
AcDbVertex
100
AcDb2dVertex
 10
1074.649435335514
 20
-426.6385923343693
 30
0.0
  0
VERTEX
  5
274
330
246
100
AcDbEntity
  8
Graypants_Hewn48-12
 62
    36
420
  8866048
370
    -3
100
AcDbVertex
100
AcDb2dVertex
 10
1074.600826780808
 20
-426.6427521261795
 30
0.0
  0
VERTEX
  5
275
330
246
100
AcDbEntity
  8
Graypants_Hewn48-12
 62
    36
420
  8866048
370
    -3
100
AcDbVertex
100
AcDb2dVertex
 10
1074.552104543891
 20
-426.645249942902
 30
0.0
  0
VERTEX
  5
276
330
246
100
AcDbEntity
  8
Graypants_Hewn48-12
 62
    36
420
  8866048
370
    -3
100
AcDbVertex
100
AcDb2dVertex
 10
1074.503325432713
 20
-426.646082872194
 30
0.0
  0
SEQEND
  5
277
330
246
100
AcDbEntity
  8
Graypants_Hewn48-12
 62
    36
420
  8866048
370
    -3
  0
LINE
  5
278
330
1F
100
AcDbEntity
  8
Graypants_Hewn48-12
 62
    36
420
  8866048
370
    -3
100
AcDbLine
 10
1075.932075434186
 20
-394.8960828722199
 30
0.0
 11
920.3570754343209
 21
-394.8960828682797
 31
0.0
  0
LINE
  5
279
330
1F
100
AcDbEntity
  8
Graypants_Hewn48-12
 62
    36
420
  8866048
370
    -3
100
AcDbLine
 10
1048.948095048003
 20
-1411.791653532089
 30
0.0
 11
1048.948095048003
 21
-1109.39165353208
 31
0.0
  0
LINE
  5
27A
330
1F
100
AcDbEntity
  8
Graypants_Hewn48-12
 62
    36
420
  8866048
370
    -3
100
AcDbLine
 10
1048.944070700551
 20
-1109.39165353208
 30
0.0
 11
1048.944070700551
 21
-1411.791653532089
 31
0.0
  0
LINE
  5
27B
330
1F
100
AcDbEntity
  8
Graypants_Hewn48-12
 62
    36
420
  8866048
370
    -3
100
AcDbLine
 10
947.344070700552
 20
-1109.39165353208
 30
0.0
 11
947.3480950480034
 21
-1109.39165353208
 31
0.0
  0
LINE
  5
27C
330
1F
100
AcDbEntity
  8
Graypants_Hewn48-12
 62
    36
420
  8866048
370
    -3
100
AcDbLine
 10
947.344070700552
 20
-1411.791653532089
 30
0.0
 11
947.3480950480034
 21
-1411.791653532089
 31
0.0
  0
LINE
  5
27D
330
1F
100
AcDbEntity
  8
Graypants_Hewn48-12
 62
    36
420
  8866048
370
    -3
100
AcDbLine
 10
947.3480950480034
 20
-1411.791653532089
 30
0.0
 11
947.3480950480034
 21
-1109.39165353208
 31
0.0
  0
LINE
  5
27E
330
1F
100
AcDbEntity
  8
Graypants_Hewn48-12
 62
    36
420
  8866048
370
    -3
100
AcDbLine
 10
947.344070700552
 20
-1411.791653532089
 30
0.0
 11
947.344070700552
 21
-1109.39165353208
 31
0.0
  0
LINE
  5
27F
330
1F
100
AcDbEntity
  8
Graypants_Hewn48-12
 62
    36
420
  8866048
370
    -3
100
AcDbLine
 10
1032.777957512882
 20
-1079.154726984919
 30
0.0
 11
1032.777957512881
 21
-1109.391538450785
 31
0.0
  0
POLYLINE
  5
280
330
1F
100
AcDbEntity
  8
Graypants_Hewn48-12
 62
    36
420
  8866048
370
    -3
100
AcDb2dPolyline
 66
     1
 10
0.0
 20
0.0
 30
0.0
  0
VERTEX
  5
281
330
280
100
AcDbEntity
  8
Graypants_Hewn48-12
 62
    36
420
  8866048
370
    -3
100
AcDbVertex
100
AcDb2dVertex
 10
1026.427957512882
 20
-1079.154726984919
 30
0.0
  0
VERTEX
  5
282
330
280
100
AcDbEntity
  8
Graypants_Hewn48-12
 62
    36
420
  8866048
370
    -3
100
AcDbVertex
100
AcDb2dVertex
 10
1026.412620145027
 20
-1077.36080817047
 30
0.0
  0
VERTEX
  5
283
330
280
100
AcDbEntity
  8
Graypants_Hewn48-12
 62
    36
420
  8866048
370
    -3
100
AcDbVertex
100
AcDb2dVertex
 10
1026.366437398088
 20
-1075.567955747761
 30
0.0
  0
VERTEX
  5
284
330
280
100
AcDbEntity
  8
Graypants_Hewn48-12
 62
    36
420
  8866048
370
    -3
100
AcDbVertex
100
AcDb2dVertex
 10
1026.289495685654
 20
-1073.77726202954
 30
0.0
  0
VERTEX
  5
285
330
280
100
AcDbEntity
  8
Graypants_Hewn48-12
 62
    36
420
  8866048
370
    -3
100
AcDbVertex
100
AcDb2dVertex
 10
1026.181881421315
 20
-1071.989819328559
 30
0.0
  0
VERTEX
  5
286
330
280
100
AcDbEntity
  8
Graypants_Hewn48-12
 62
    36
420
  8866048
370
    -3
100
AcDbVertex
100
AcDb2dVertex
 10
1026.043681018661
 20
-1070.206719957567
 30
0.0
  0
VERTEX
  5
287
330
280
100
AcDbEntity
  8
Graypants_Hewn48-12
 62
    36
420
  8866048
370
    -3
100
AcDbVertex
100
AcDb2dVertex
 10
1025.874980891281
 20
-1068.429056229314
 30
0.0
  0
VERTEX
  5
288
330
280
100
AcDbEntity
  8
Graypants_Hewn48-12
 62
    36
420
  8866048
370
    -3
100
AcDbVertex
100
AcDb2dVertex
 10
1025.675867452765
 20
-1066.657920456549
 30
0.0
  0
VERTEX
  5
289
330
280
100
AcDbEntity
  8
Graypants_Hewn48-12
 62
    36
420
  8866048
370
    -3
100
AcDbVertex
100
AcDb2dVertex
 10
1025.446427116703
 20
-1064.894404952023
 30
0.0
  0
VERTEX
  5
28A
330
280
100
AcDbEntity
  8
Graypants_Hewn48-12
 62
    36
420
  8866048
370
    -3
100
AcDbVertex
100
AcDb2dVertex
 10
1025.181537176079
 20
-1063.106290565139
 30
0.0
  0
VERTEX
  5
28B
330
280
100
AcDbEntity
  8
Graypants_Hewn48-12
 62
    36
420
  8866048
370
    -3
100
AcDbVertex
100
AcDb2dVertex
 10
1024.885483401625
 20
-1061.328282364647
 30
0.0
  0
VERTEX
  5
28C
330
280
100
AcDbEntity
  8
Graypants_Hewn48-12
 62
    36
420
  8866048
370
    -3
100
AcDbVertex
100
AcDb2dVertex
 10
1024.55851243643
 20
-1059.561492281324
 30
0.0
  0
VERTEX
  5
28D
330
280
100
AcDbEntity
  8
Graypants_Hewn48-12
 62
    36
420
  8866048
370
    -3
100
AcDbVertex
100
AcDb2dVertex
 10
1024.200870923582
 20
-1057.807032245947
 30
0.0
  0
VERTEX
  5
28E
330
280
100
AcDbEntity
  8
Graypants_Hewn48-12
 62
    36
420
  8866048
370
    -3
100
AcDbVertex
100
AcDb2dVertex
 10
1023.812805506169
 20
-1056.066014189294
 30
0.0
  0
VERTEX
  5
28F
330
280
100
AcDbEntity
  8
Graypants_Hewn48-12
 62
    36
420
  8866048
370
    -3
100
AcDbVertex
100
AcDb2dVertex
 10
1023.394562827278
 20
-1054.339550042142
 30
0.0
  0
VERTEX
  5
290
330
280
100
AcDbEntity
  8
Graypants_Hewn48-12
 62
    36
420
  8866048
370
    -3
100
AcDbVertex
100
AcDb2dVertex
 10
1022.946389529999
 20
-1052.628751735268
 30
0.0
  0
VERTEX
  5
291
330
280
100
AcDbEntity
  8
Graypants_Hewn48-12
 62
    36
420
  8866048
370
    -3
100
AcDbVertex
100
AcDb2dVertex
 10
1022.468532257419
 20
-1050.93473119945
 30
0.0
  0
VERTEX
  5
292
330
280
100
AcDbEntity
  8
Graypants_Hewn48-12
 62
    36
420
  8866048
370
    -3
100
AcDbVertex
100
AcDb2dVertex
 10
1021.96185432086
 20
-1049.260467165072
 30
0.0
  0
VERTEX
  5
293
330
280
100
AcDbEntity
  8
Graypants_Hewn48-12
 62
    36
420
  8866048
370
    -3
100
AcDbVertex
100
AcDb2dVertex
 10
1021.426215326135
 20
-1047.605059531756
 30
0.0
  0
VERTEX
  5
294
330
280
100
AcDbEntity
  8
Graypants_Hewn48-12
 62
    36
420
  8866048
370
    -3
100
AcDbVertex
100
AcDb2dVertex
 10
1020.862028191957
 20
-1045.969521389277
 30
0.0
  0
VERTEX
  5
295
330
280
100
AcDbEntity
  8
Graypants_Hewn48-12
 62
    36
420
  8866048
370
    -3
100
AcDbVertex
100
AcDb2dVertex
 10
1020.269705837039
 20
-1044.354865827409
 30
0.0
  0
VERTEX
  5
296
330
280
100
AcDbEntity
  8
Graypants_Hewn48-12
 62
    36
420
  8866048
370
    -3
100
AcDbVertex
100
AcDb2dVertex
 10
1019.649661180095
 20
-1042.762105935926
 30
0.0
  0
VERTEX
  5
297
330
280
100
AcDbEntity
  8
Graypants_Hewn48-12
 62
    36
420
  8866048
370
    -3
100
AcDbVertex
100
AcDb2dVertex
 10
1019.002307139838
 20
-1041.192254804605
 30
0.0
  0
VERTEX
  5
298
330
280
100
AcDbEntity
  8
Graypants_Hewn48-12
 62
    36
420
  8866048
370
    -3
100
AcDbVertex
100
AcDb2dVertex
 10
1018.328056634981
 20
-1039.646325523218
 30
0.0
  0
VERTEX
  5
299
330
280
100
AcDbEntity
  8
Graypants_Hewn48-12
 62
    36
420
  8866048
370
    -3
100
AcDbVertex
100
AcDb2dVertex
 10
1017.627322584237
 20
-1038.125331181542
 30
0.0
  0
VERTEX
  5
29A
330
280
100
AcDbEntity
  8
Graypants_Hewn48-12
 62
    36
420
  8866048
370
    -3
100
AcDbVertex
100
AcDb2dVertex
 10
1016.915932558166
 20
-1036.661115752247
 30
0.0
  0
VERTEX
  5
29B
330
280
100
AcDbEntity
  8
Graypants_Hewn48-12
 62
    36
420
  8866048
370
    -3
100
AcDbVertex
100
AcDb2dVertex
 10
1016.180089702453
 20
-1035.222661572848
 30
0.0
  0
VERTEX
  5
29C
330
280
100
AcDbEntity
  8
Graypants_Hewn48-12
 62
    36
420
  8866048
370
    -3
100
AcDbVertex
100
AcDb2dVertex
 10
1015.42030971886
 20
-1033.810791659833
 30
0.0
  0
VERTEX
  5
29D
330
280
100
AcDbEntity
  8
Graypants_Hewn48-12
 62
    36
420
  8866048
370
    -3
100
AcDbVertex
100
AcDb2dVertex
 10
1014.637108309151
 20
-1032.42632902969
 30
0.0
  0
VERTEX
  5
29E
330
280
100
AcDbEntity
  8
Graypants_Hewn48-12
 62
    36
420
  8866048
370
    -3
100
AcDbVertex
100
AcDb2dVertex
 10
1013.831001175091
 20
-1031.070096698906
 30
0.0
  0
VERTEX
  5
29F
330
280
100
AcDbEntity
  8
Graypants_Hewn48-12
 62
    36
420
  8866048
370
    -3
100
AcDbVertex
100
AcDb2dVertex
 10
1013.002504018442
 20
-1029.742917683969
 30
0.0
  0
VERTEX
  5
2A0
330
280
100
AcDbEntity
  8
Graypants_Hewn48-12
 62
    36
420
  8866048
370
    -3
100
AcDbVertex
100
AcDb2dVertex
 10
1012.152132540968
 20
-1028.445615001367
 30
0.0
  0
VERTEX
  5
2A1
330
280
100
AcDbEntity
  8
Graypants_Hewn48-12
 62
    36
420
  8866048
370
    -3
100
AcDbVertex
100
AcDb2dVertex
 10
1011.280402444434
 20
-1027.179011667588
 30
0.0
  0
SEQEND
  5
2A2
330
280
100
AcDbEntity
  8
Graypants_Hewn48-12
 62
    36
420
  8866048
370
    -3
  0
POLYLINE
  5
2A3
330
1F
100
AcDbEntity
  8
Graypants_Hewn48-12
 62
    36
420
  8866048
370
    -3
100
AcDb2dPolyline
 66
     1
 10
0.0
 20
0.0
 30
0.0
  0
VERTEX
  5
2A4
330
2A3
100
AcDbEntity
  8
Graypants_Hewn48-12
 62
    36
420
  8866048
370
    -3
100
AcDbVertex
100
AcDb2dVertex
 10
1016.469943893023
 20
-1023.519618342857
 30
0.0
  0
VERTEX
  5
2A5
330
2A3
100
AcDbEntity
  8
Graypants_Hewn48-12
 62
    36
420
  8866048
370
    -3
100
AcDbVertex
100
AcDb2dVertex
 10
1017.421708256206
 20
-1024.902416025986
 30
0.0
  0
VERTEX
  5
2A6
330
2A3
100
AcDbEntity
  8
Graypants_Hewn48-12
 62
    36
420
  8866048
370
    -3
100
AcDbVertex
100
AcDb2dVertex
 10
1018.348764657023
 20
-1026.316488505739
 30
0.0
  0
VERTEX
  5
2A7
330
2A3
100
AcDbEntity
  8
Graypants_Hewn48-12
 62
    36
420
  8866048
370
    -3
100
AcDbVertex
100
AcDb2dVertex
 10
1019.250659530746
 20
-1027.76095957316
 30
0.0
  0
VERTEX
  5
2A8
330
2A3
100
AcDbEntity
  8
Graypants_Hewn48-12
 62
    36
420
  8866048
370
    -3
100
AcDbVertex
100
AcDb2dVertex
 10
1020.126939312645
 20
-1029.234953019296
 30
0.0
  0
VERTEX
  5
2A9
330
2A3
100
AcDbEntity
  8
Graypants_Hewn48-12
 62
    36
420
  8866048
370
    -3
100
AcDbVertex
100
AcDb2dVertex
 10
1020.97715043799
 20
-1030.737592635195
 30
0.0
  0
VERTEX
  5
2AA
330
2A3
100
AcDbEntity
  8
Graypants_Hewn48-12
 62
    36
420
  8866048
370
    -3
100
AcDbVertex
100
AcDb2dVertex
 10
1021.800839342053
 20
-1032.2680022119
 30
0.0
  0
VERTEX
  5
2AB
330
2A3
100
AcDbEntity
  8
Graypants_Hewn48-12
 62
    36
420
  8866048
370
    -3
100
AcDbVertex
100
AcDb2dVertex
 10
1022.597552460105
 20
-1033.825305540459
 30
0.0
  0
VERTEX
  5
2AC
330
2A3
100
AcDbEntity
  8
Graypants_Hewn48-12
 62
    36
420
  8866048
370
    -3
100
AcDbVertex
100
AcDb2dVertex
 10
1023.366836227416
 20
-1035.408626411918
 30
0.0
  0
VERTEX
  5
2AD
330
2A3
100
AcDbEntity
  8
Graypants_Hewn48-12
 62
    36
420
  8866048
370
    -3
100
AcDbVertex
100
AcDb2dVertex
 10
1024.121252985509
 20
-1037.046045026635
 30
0.0
  0
VERTEX
  5
2AE
330
2A3
100
AcDbEntity
  8
Graypants_Hewn48-12
 62
    36
420
  8866048
370
    -3
100
AcDbVertex
100
AcDb2dVertex
 10
1024.846446904142
 20
-1038.708547803902
 30
0.0
  0
VERTEX
  5
2AF
330
2A3
100
AcDbEntity
  8
Graypants_Hewn48-12
 62
    36
420
  8866048
370
    -3
100
AcDbVertex
100
AcDb2dVertex
 10
1025.542052720388
 20
-1040.395112995057
 30
0.0
  0
VERTEX
  5
2B0
330
2A3
100
AcDbEntity
  8
Graypants_Hewn48-12
 62
    36
420
  8866048
370
    -3
100
AcDbVertex
100
AcDb2dVertex
 10
1026.207705171319
 20
-1042.104718851436
 30
0.0
  0
VERTEX
  5
2B1
330
2A3
100
AcDbEntity
  8
Graypants_Hewn48-12
 62
    36
420
  8866048
370
    -3
100
AcDbVertex
100
AcDb2dVertex
 10
1026.843038994008
 20
-1043.836343624376
 30
0.0
  0
VERTEX
  5
2B2
330
2A3
100
AcDbEntity
  8
Graypants_Hewn48-12
 62
    36
420
  8866048
370
    -3
100
AcDbVertex
100
AcDb2dVertex
 10
1027.447688925528
 20
-1045.588965565214
 30
0.0
  0
VERTEX
  5
2B3
330
2A3
100
AcDbEntity
  8
Graypants_Hewn48-12
 62
    36
420
  8866048
370
    -3
100
AcDbVertex
100
AcDb2dVertex
 10
1028.021289702951
 20
-1047.361562925287
 30
0.0
  0
VERTEX
  5
2B4
330
2A3
100
AcDbEntity
  8
Graypants_Hewn48-12
 62
    36
420
  8866048
370
    -3
100
AcDbVertex
100
AcDb2dVertex
 10
1028.563476063351
 20
-1049.15311395593
 30
0.0
  0
VERTEX
  5
2B5
330
2A3
100
AcDbEntity
  8
Graypants_Hewn48-12
 62
    36
420
  8866048
370
    -3
100
AcDbVertex
100
AcDb2dVertex
 10
1029.073343659295
 20
-1050.960514343322
 30
0.0
  0
VERTEX
  5
2B6
330
2A3
100
AcDbEntity
  8
Graypants_Hewn48-12
 62
    36
420
  8866048
370
    -3
100
AcDbVertex
100
AcDb2dVertex
 10
1029.551278190505
 20
-1052.784687815275
 30
0.0
  0
VERTEX
  5
2B7
330
2A3
100
AcDbEntity
  8
Graypants_Hewn48-12
 62
    36
420
  8866048
370
    -3
100
AcDbVertex
100
AcDb2dVertex
 10
1029.997059461414
 20
-1054.624531020724
 30
0.0
  0
VERTEX
  5
2B8
330
2A3
100
AcDbEntity
  8
Graypants_Hewn48-12
 62
    36
420
  8866048
370
    -3
100
AcDbVertex
100
AcDb2dVertex
 10
1030.410467276455
 20
-1056.478940608604
 30
0.0
  0
VERTEX
  5
2B9
330
2A3
100
AcDbEntity
  8
Graypants_Hewn48-12
 62
    36
420
  8866048
370
    -3
100
AcDbVertex
100
AcDb2dVertex
 10
1030.791281440062
 20
-1058.346813227846
 30
0.0
  0
VERTEX
  5
2BA
330
2A3
100
AcDbEntity
  8
Graypants_Hewn48-12
 62
    36
420
  8866048
370
    -3
100
AcDbVertex
100
AcDb2dVertex
 10
1031.139281756669
 20
-1060.227045527387
 30
0.0
  0
VERTEX
  5
2BB
330
2A3
100
AcDbEntity
  8
Graypants_Hewn48-12
 62
    36
420
  8866048
370
    -3
100
AcDbVertex
100
AcDb2dVertex
 10
1031.45424803071
 20
-1062.11853415616
 30
0.0
  0
VERTEX
  5
2BC
330
2A3
100
AcDbEntity
  8
Graypants_Hewn48-12
 62
    36
420
  8866048
370
    -3
100
AcDbVertex
100
AcDb2dVertex
 10
1031.735960066619
 20
-1064.020175763098
 30
0.0
  0
VERTEX
  5
2BD
330
2A3
100
AcDbEntity
  8
Graypants_Hewn48-12
 62
    36
420
  8866048
370
    -3
100
AcDbVertex
100
AcDb2dVertex
 10
1031.979636455664
 20
-1065.893006907162
 30
0.0
  0
VERTEX
  5
2BE
330
2A3
100
AcDbEntity
  8
Graypants_Hewn48-12
 62
    36
420
  8866048
370
    -3
100
AcDbVertex
100
AcDb2dVertex
 10
1032.191063837125
 20
-1067.773424485437
 30
0.0
  0
VERTEX
  5
2BF
330
2A3
100
AcDbEntity
  8
Graypants_Hewn48-12
 62
    36
420
  8866048
370
    -3
100
AcDbVertex
100
AcDb2dVertex
 10
1032.370162899329
 20
-1069.66034781777
 30
0.0
  0
VERTEX
  5
2C0
330
2A3
100
AcDbEntity
  8
Graypants_Hewn48-12
 62
    36
420
  8866048
370
    -3
100
AcDbVertex
100
AcDb2dVertex
 10
1032.516854330601
 20
-1071.552696224007
 30
0.0
  0
VERTEX
  5
2C1
330
2A3
100
AcDbEntity
  8
Graypants_Hewn48-12
 62
    36
420
  8866048
370
    -3
100
AcDbVertex
100
AcDb2dVertex
 10
1032.631058819267
 20
-1073.449389023995
 30
0.0
  0
VERTEX
  5
2C2
330
2A3
100
AcDbEntity
  8
Graypants_Hewn48-12
 62
    36
420
  8866048
370
    -3
100
AcDbVertex
100
AcDb2dVertex
 10
1032.712697053651
 20
-1075.349345537578
 30
0.0
  0
VERTEX
  5
2C3
330
2A3
100
AcDbEntity
  8
Graypants_Hewn48-12
 62
    36
420
  8866048
370
    -3
100
AcDbVertex
100
AcDb2dVertex
 10
1032.761689722081
 20
-1077.251485084604
 30
0.0
  0
VERTEX
  5
2C4
330
2A3
100
AcDbEntity
  8
Graypants_Hewn48-12
 62
    36
420
  8866048
370
    -3
100
AcDbVertex
100
AcDb2dVertex
 10
1032.777957512882
 20
-1079.154726984919
 30
0.0
  0
SEQEND
  5
2C5
330
2A3
100
AcDbEntity
  8
Graypants_Hewn48-12
 62
    36
420
  8866048
370
    -3
  0
POLYLINE
  5
2C6
330
1F
100
AcDbEntity
  8
Graypants_Hewn48-12
 62
    36
420
  8866048
370
    -3
100
AcDb2dPolyline
 66
     1
 10
0.0
 20
0.0
 30
0.0
  0
VERTEX
  5
2C7
330
2C6
100
AcDbEntity
  8
Graypants_Hewn48-12
 62
    36
420
  8866048
370
    -3
100
AcDbVertex
100
AcDb2dVertex
 10
1001.322192465791
 20
-971.5439031705457
 30
0.0
  0
VERTEX
  5
2C8
330
2C6
100
AcDbEntity
  8
Graypants_Hewn48-12
 62
    36
420
  8866048
370
    -3
100
AcDbVertex
100
AcDb2dVertex
 10
1001.337536201473
 20
-973.3378346605361
 30
0.0
  0
VERTEX
  5
2C9
330
2C6
100
AcDbEntity
  8
Graypants_Hewn48-12
 62
    36
420
  8866048
370
    -3
100
AcDbVertex
100
AcDb2dVertex
 10
1001.383724143497
 20
-975.1306900947992
 30
0.0
  0
VERTEX
  5
2CA
330
2C6
100
AcDbEntity
  8
Graypants_Hewn48-12
 62
    36
420
  8866048
370
    -3
100
AcDbVertex
100
AcDb2dVertex
 10
1001.460670363444
 20
-976.9213803685525
 30
0.0
  0
VERTEX
  5
2CB
330
2C6
100
AcDbEntity
  8
Graypants_Hewn48-12
 62
    36
420
  8866048
370
    -3
100
AcDbVertex
100
AcDb2dVertex
 10
1001.568288932892
 20
-978.7088163770134
 30
0.0
  0
VERTEX
  5
2CC
330
2C6
100
AcDbEntity
  8
Graypants_Hewn48-12
 62
    36
420
  8866048
370
    -3
100
AcDbVertex
100
AcDb2dVertex
 10
1001.706493923424
 20
-980.4919090153994
 30
0.0
  0
VERTEX
  5
2CD
330
2C6
100
AcDbEntity
  8
Graypants_Hewn48-12
 62
    36
420
  8866048
370
    -3
100
AcDbVertex
100
AcDb2dVertex
 10
1001.875199406619
 20
-982.2695691789281
 30
0.0
  0
VERTEX
  5
2CE
330
2C6
100
AcDbEntity
  8
Graypants_Hewn48-12
 62
    36
420
  8866048
370
    -3
100
AcDbVertex
100
AcDb2dVertex
 10
1002.074319454057
 20
-984.040707762817
 30
0.0
  0
VERTEX
  5
2CF
330
2C6
100
AcDbEntity
  8
Graypants_Hewn48-12
 62
    36
420
  8866048
370
    -3
100
AcDbVertex
100
AcDb2dVertex
 10
1002.30376813732
 20
-985.8042356622834
 30
0.0
  0
VERTEX
  5
2D0
330
2C6
100
AcDbEntity
  8
Graypants_Hewn48-12
 62
    36
420
  8866048
370
    -3
100
AcDbVertex
100
AcDb2dVertex
 10
1002.568663394475
 20
-987.5923400833443
 30
0.0
  0
VERTEX
  5
2D1
330
2C6
100
AcDbEntity
  8
Graypants_Hewn48-12
 62
    36
420
  8866048
370
    -3
100
AcDbVertex
100
AcDb2dVertex
 10
1002.86472204548
 20
-989.3703389105938
 30
0.0
  0
VERTEX
  5
2D2
330
2C6
100
AcDbEntity
  8
Graypants_Hewn48-12
 62
    36
420
  8866048
370
    -3
100
AcDbVertex
100
AcDb2dVertex
 10
1003.191697451635
 20
-991.1371200930723
 30
0.0
  0
VERTEX
  5
2D3
330
2C6
100
AcDbEntity
  8
Graypants_Hewn48-12
 62
    36
420
  8866048
370
    -3
100
AcDbVertex
100
AcDb2dVertex
 10
1003.549342974239
 20
-992.8915715798203
 30
0.0
  0
VERTEX
  5
2D4
330
2C6
100
AcDbEntity
  8
Graypants_Hewn48-12
 62
    36
420
  8866048
370
    -3
100
AcDbVertex
100
AcDb2dVertex
 10
1003.937411974588
 20
-994.6325813198782
 30
0.0
  0
VERTEX
  5
2D5
330
2C6
100
AcDbEntity
  8
Graypants_Hewn48-12
 62
    36
420
  8866048
370
    -3
100
AcDbVertex
100
AcDb2dVertex
 10
1004.355657813984
 20
-996.3590372622868
 30
0.0
  0
VERTEX
  5
2D6
330
2C6
100
AcDbEntity
  8
Graypants_Hewn48-12
 62
    36
420
  8866048
370
    -3
100
AcDbVertex
100
AcDb2dVertex
 10
1004.803833853723
 20
-998.0698273560865
 30
0.0
  0
VERTEX
  5
2D7
330
2C6
100
AcDbEntity
  8
Graypants_Hewn48-12
 62
    36
420
  8866048
370
    -3
100
AcDbVertex
100
AcDb2dVertex
 10
1005.281693455105
 20
-999.7638395503176
 30
0.0
  0
VERTEX
  5
2D8
330
2C6
100
AcDbEntity
  8
Graypants_Hewn48-12
 62
    36
420
  8866048
370
    -3
100
AcDbVertex
100
AcDb2dVertex
 10
1005.788379064096
 20
-1001.438113406468
 30
0.0
  0
VERTEX
  5
2D9
330
2C6
100
AcDbEntity
  8
Graypants_Hewn48-12
 62
    36
420
  8866048
370
    -3
100
AcDbVertex
100
AcDb2dVertex
 10
1006.324026015226
 20
-1003.093530279158
 30
0.0
  0
VERTEX
  5
2DA
330
2C6
100
AcDbEntity
  8
Graypants_Hewn48-12
 62
    36
420
  8866048
370
    -3
100
AcDbVertex
100
AcDb2dVertex
 10
1006.888221452045
 20
-1004.729077160559
 30
0.0
  0
VERTEX
  5
2DB
330
2C6
100
AcDbEntity
  8
Graypants_Hewn48-12
 62
    36
420
  8866048
370
    -3
100
AcDbVertex
100
AcDb2dVertex
 10
1007.480552518106
 20
-1006.343741042843
 30
0.0
  0
VERTEX
  5
2DC
330
2C6
100
AcDbEntity
  8
Graypants_Hewn48-12
 62
    36
420
  8866048
370
    -3
100
AcDbVertex
100
AcDb2dVertex
 10
1008.100606356963
 20
-1007.936508918183
 30
0.0
  0
VERTEX
  5
2DD
330
2C6
100
AcDbEntity
  8
Graypants_Hewn48-12
 62
    36
420
  8866048
370
    -3
100
AcDbVertex
100
AcDb2dVertex
 10
1008.747970112166
 20
-1009.50636777875
 30
0.0
  0
VERTEX
  5
2DE
330
2C6
100
AcDbEntity
  8
Graypants_Hewn48-12
 62
    36
420
  8866048
370
    -3
100
AcDbVertex
100
AcDb2dVertex
 10
1009.422230927269
 20
-1011.052304616716
 30
0.0
  0
VERTEX
  5
2DF
330
2C6
100
AcDbEntity
  8
Graypants_Hewn48-12
 62
    36
420
  8866048
370
    -3
100
AcDbVertex
100
AcDb2dVertex
 10
1010.122975945824
 20
-1012.573306424254
 30
0.0
  0
VERTEX
  5
2E0
330
2C6
100
AcDbEntity
  8
Graypants_Hewn48-12
 62
    36
420
  8866048
370
    -3
100
AcDbVertex
100
AcDb2dVertex
 10
1010.834367970255
 20
-1014.037510361915
 30
0.0
  0
VERTEX
  5
2E1
330
2C6
100
AcDbEntity
  8
Graypants_Hewn48-12
 62
    36
420
  8866048
370
    -3
100
AcDbVertex
100
AcDb2dVertex
 10
1011.57021651468
 20
-1015.475961622838
 30
0.0
  0
VERTEX
  5
2E2
330
2C6
100
AcDbEntity
  8
Graypants_Hewn48-12
 62
    36
420
  8866048
370
    -3
100
AcDbVertex
100
AcDb2dVertex
 10
1012.330004562728
 20
-1016.887834356593
 30
0.0
  0
VERTEX
  5
2E3
330
2C6
100
AcDbEntity
  8
Graypants_Hewn48-12
 62
    36
420
  8866048
370
    -3
100
AcDbVertex
100
AcDb2dVertex
 10
1013.113215098029
 20
-1018.272302712754
 30
0.0
  0
VERTEX
  5
2E4
330
2C6
100
AcDbEntity
  8
Graypants_Hewn48-12
 62
    36
420
  8866048
370
    -3
100
AcDbVertex
100
AcDb2dVertex
 10
1013.919331104213
 20
-1019.62854084089
 30
0.0
  0
VERTEX
  5
2E5
330
2C6
100
AcDbEntity
  8
Graypants_Hewn48-12
 62
    36
420
  8866048
370
    -3
100
AcDbVertex
100
AcDb2dVertex
 10
1014.74783556491
 20
-1020.955722890573
 30
0.0
  0
VERTEX
  5
2E6
330
2C6
100
AcDbEntity
  8
Graypants_Hewn48-12
 62
    36
420
  8866048
370
    -3
100
AcDbVertex
100
AcDb2dVertex
 10
1015.598211463749
 20
-1022.253023011376
 30
0.0
  0
VERTEX
  5
2E7
330
2C6
100
AcDbEntity
  8
Graypants_Hewn48-12
 62
    36
420
  8866048
370
    -3
100
AcDbVertex
100
AcDb2dVertex
 10
1016.469941784359
 20
-1023.519615352869
 30
0.0
  0
SEQEND
  5
2E8
330
2C6
100
AcDbEntity
  8
Graypants_Hewn48-12
 62
    36
420
  8866048
370
    -3
  0
LINE
  5
2E9
330
1F
100
AcDbEntity
  8
Graypants_Hewn48-12
 62
    36
420
  8866048
370
    -3
100
AcDbLine
 10
994.9721924657915
 20
-971.5439031705494
 30
0.0
 11
994.9721924654841
 21
-426.6460828683263
 31
0.0
  0
LINE
  5
2EA
330
1F
100
AcDbEntity
  8
Graypants_Hewn48-12
 62
    36
420
  8866048
370
    -3
100
AcDbLine
 10
1001.322192465484
 20
-426.6460828683227
 30
0.0
 11
1001.322192465792
 21
-971.5439031705457
 31
0.0
  0
LINE
  5
2EB
330
1F
100
AcDbEntity
  8
Graypants_Hewn48-12
 62
    36
420
  8866048
370
    -3
100
AcDbLine
 10
1026.427957512881
 20
-1109.39165353208
 30
0.0
 11
1026.427957512882
 21
-1079.154726984919
 31
0.0
  0
ARC
  5
2EC
330
1F
100
AcDbEntity
  8
Graypants_Hewn48-12
 62
    36
420
  8866048
370
    -3
100
AcDbCircle
 10
998.1445156544129
 20
-1116.262568683357
 30
0.0
 40
19.05011247074351
100
AcDbArc
 50
21.14170693141317
 51
74.92984270264999
  0
ARC
  5
2ED
330
1F
100
AcDbEntity
  8
Graypants_Hewn48-12
 62
    36
420
  8866048
370
    -3
100
AcDbCircle
 10
-998.1445913408811
 20
-1116.262451145042
 30
0.0
 40
21.08199255565716
210
0.0
220
0.0
230
-1.0
100
AcDbArc
 50
19.02111026665644
 51
76.4118788634818
  0
LINE
  5
2EE
330
1F
100
AcDbEntity
  8
Graypants_Hewn48-12
 62
    36
420
  8866048
370
    -3
100
AcDbLine
 10
998.1445754456963
 20
-1085.95240353209
 30
0.0
 11
993.1915754457332
 21
-1085.95240353209
 31
0.0
  0
LINE
  5
2EF
330
1F
100
AcDbEntity
  8
Graypants_Hewn48-12
 62
    36
420
  8866048
370
    -3
100
AcDbLine
 10
1003.097575445733
 20
-1085.95240353209
 30
0.0
 11
998.1445754456963
 21
-1085.95240353209
 31
0.0
  0
LINE
  5
2F0
330
1F
100
AcDbEntity
  8
Graypants_Hewn48-12
 62
    36
420
  8866048
370
    -3
100
AcDbLine
 10
1074.503325432713
 20
-426.646082872194
 30
0.0
 11
921.7858254341845
 21
-426.6460828683245
 31
0.0
  0
LINE
  5
2F1
330
1F
100
AcDbEntity
  8
Graypants_Hewn48-12
 62
    36
420
  8866048
370
    -3
100
AcDbLine
 10
947.3480950480034
 20
-1411.791653532089
 30
0.0
 11
1048.948095048003
 21
-1411.791653532089
 31
0.0
  0
LINE
  5
2F2
330
1F
100
AcDbEntity
  8
Graypants_Hewn48-12
 62
    36
420
  8866048
370
    -3
100
AcDbLine
 10
947.3480950480034
 20
-1109.39165353208
 30
0.0
 11
1048.948095048003
 21
-1109.39165353208
 31
0.0
  0
ARC
  5
2F3
330
1F
100
AcDbEntity
  8
Graypants_Hewn48-12
 62
    36
420
  8866048
370
    -3
100
AcDbCircle
 10
-552.4500000000003
 20
-0.0020121677282403
 30
0.0
 40
50.79999999999974
100
AcDbArc
 50
89.99999997439522
 51
270.0
  0
ARC
  5
2F4
330
1F
100
AcDbEntity
  8
Graypants_Hewn48-12
 62
    36
420
  8866048
370
    -3
100
AcDbCircle
 10
552.45
 20
0.002012179723405
 30
0.0
 40
50.79999999999998
100
AcDbArc
 50
269.999999974397
 51
90.00000000000026
  0
ARC
  5
2F5
330
1F
100
AcDbEntity
  8
Graypants_Hewn48-12
 62
    36
420
  8866048
370
    -3
100
AcDbCircle
 10
-552.4499999998693
 20
0.0020121797194927
 30
0.0
 40
23.57272143758886
210
0.0
220
0.0
230
-1.0
100
AcDbArc
 50
90.00011697748197
 51
270.0001170172244
  0
ARC
  5
2F6
330
1F
100
AcDbEntity
  8
Graypants_Hewn48-12
 62
    36
420
  8866048
370
    -3
100
AcDbCircle
 10
552.4503647882485
 20
-0.0020149750730525
 30
0.0
 40
23.57272143758813
210
0.0
220
0.0
230
-1.0
100
AcDbArc
 50
270.000116977485
 51
90.00011697683564
  0
ARC
  5
2F7
330
1F
100
AcDbEntity
  8
Graypants_Hewn48-12
 62
    36
420
  8866048
370
    -3
100
AcDbCircle
 10
552.4499943878328
 20
-0.0020093616758459
 30
0.0
 40
38.88825089597222
210
0.0
220
0.0
230
-1.0
100
AcDbArc
 50
270.0000395569615
 51
90.00002694063099
  0
ARC
  5
2F8
330
1F
100
AcDbEntity
  8
Graypants_Hewn48-12
 62
    36
420
  8866048
370
    -3
100
AcDbCircle
 10
552.4499999999662
 20
-0.00201216772705
 30
0.0
 40
41.27500000003288
210
0.0
220
0.0
230
-1.0
100
AcDbArc
 50
270.0000233714339
 51
90.00002339989854
  0
ARC
  5
2F9
330
1F
100
AcDbEntity
  8
Graypants_Hewn48-12
 62
    36
420
  8866048
370
    -3
100
AcDbCircle
 10
-552.4499999999488
 20
0.0020121797422235
 30
0.0
 40
38.88825089597432
210
0.0
220
0.0
230
-1.0
100
AcDbArc
 50
90.00003955696182
 51
270.00002694064
  0
ARC
  5
2FA
330
1F
100
AcDbEntity
  8
Graypants_Hewn48-12
 62
    36
420
  8866048
370
    -3
100
AcDbCircle
 10
-552.4499999999673
 20
0.0020121797213731
 30
0.0
 40
41.27500000003303
210
0.0
220
0.0
230
-1.0
100
AcDbArc
 50
90.00002337142604
 51
270.0000233999014
  0
LINE
  5
2FB
330
1F
100
AcDbEntity
  8
Graypants_Hewn48-12
 62
    36
420
  8866048
370
    -3
100
AcDbLine
 10
997.3508254457338
 20
-1085.95240353209
 30
0.0
 11
997.3508254440258
 21
-426.646082870239
 31
0.0
  0
LINE
  5
2FC
330
1F
100
AcDbEntity
  8
Graypants_Hewn48-12
 62
    36
420
  8866048
370
    -3
100
AcDbLine
 10
998.9383254441445
 20
-426.6460828702793
 30
0.0
 11
998.9383254457334
 21
-1085.95240353209
 31
0.0
  0
POLYLINE
  5
2FD
330
1F
100
AcDbEntity
  8
Graypants_Hewn48-12
 62
    36
420
  8866048
370
    -3
100
AcDb2dPolyline
 66
     1
 10
0.0
 20
0.0
 30
0.0
  0
VERTEX
  5
2FE
330
2FD
100
AcDbEntity
  8
Graypants_Hewn48-12
 62
    36
420
  8866048
370
    -3
100
AcDbVertex
100
AcDb2dVertex
 10
1011.280404655977
 20
-1027.179014803455
 30
0.0
  0
VERTEX
  5
2FF
330
2FD
100
AcDbEntity
  8
Graypants_Hewn48-12
 62
    36
420
  8866048
370
    -3
100
AcDbVertex
100
AcDb2dVertex
 10
1010.328638855408
 20
-1025.796226847863
 30
0.0
  0
VERTEX
  5
300
330
2FD
100
AcDbEntity
  8
Graypants_Hewn48-12
 62
    36
420
  8866048
370
    -3
100
AcDbVertex
100
AcDb2dVertex
 10
1009.401577319555
 20
-1024.382156218609
 30
0.0
  0
VERTEX
  5
301
330
2FD
100
AcDbEntity
  8
Graypants_Hewn48-12
 62
    36
420
  8866048
370
    -3
100
AcDbVertex
100
AcDb2dVertex
 10
1008.499674815674
 20
-1022.937681840821
 30
0.0
  0
VERTEX
  5
302
330
2FD
100
AcDbEntity
  8
Graypants_Hewn48-12
 62
    36
420
  8866048
370
    -3
100
AcDbVertex
100
AcDb2dVertex
 10
1007.623386111023
 20
-1021.463682639627
 30
0.0
  0
VERTEX
  5
303
330
2FD
100
AcDbEntity
  8
Graypants_Hewn48-12
 62
    36
420
  8866048
370
    -3
100
AcDbVertex
100
AcDb2dVertex
 10
1006.773165972861
 20
-1019.961037540156
 30
0.0
  0
VERTEX
  5
304
330
2FD
100
AcDbEntity
  8
Graypants_Hewn48-12
 62
    36
420
  8866048
370
    -3
100
AcDbVertex
100
AcDb2dVertex
 10
1005.949469168444
 20
-1018.430625467537
 30
0.0
  0
VERTEX
  5
305
330
2FD
100
AcDbEntity
  8
Graypants_Hewn48-12
 62
    36
420
  8866048
370
    -3
100
AcDbVertex
100
AcDb2dVertex
 10
1005.152750465029
 20
-1016.873325346899
 30
0.0
  0
VERTEX
  5
306
330
2FD
100
AcDbEntity
  8
Graypants_Hewn48-12
 62
    36
420
  8866048
370
    -3
100
AcDbVertex
100
AcDb2dVertex
 10
1004.383464629876
 20
-1015.290016103369
 30
0.0
  0
VERTEX
  5
307
330
2FD
100
AcDbEntity
  8
Graypants_Hewn48-12
 62
    36
420
  8866048
370
    -3
100
AcDbVertex
100
AcDb2dVertex
 10
1003.629036404321
 20
-1013.652589281997
 30
0.0
  0
VERTEX
  5
308
330
2FD
100
AcDbEntity
  8
Graypants_Hewn48-12
 62
    36
420
  8866048
370
    -3
100
AcDbVertex
100
AcDb2dVertex
 10
1002.903831724937
 20
-1011.990078184289
 30
0.0
  0
VERTEX
  5
309
330
2FD
100
AcDbEntity
  8
Graypants_Hewn48-12
 62
    36
420
  8866048
370
    -3
100
AcDbVertex
100
AcDb2dVertex
 10
1002.20821579161
 20
-1010.30350448605
 30
0.0
  0
VERTEX
  5
30A
330
2FD
100
AcDbEntity
  8
Graypants_Hewn48-12
 62
    36
420
  8866048
370
    -3
100
AcDbVertex
100
AcDb2dVertex
 10
1001.542553804228
 20
-1008.593889863082
 30
0.0
  0
VERTEX
  5
30B
330
2FD
100
AcDbEntity
  8
Graypants_Hewn48-12
 62
    36
420
  8866048
370
    -3
100
AcDbVertex
100
AcDb2dVertex
 10
1000.907210962678
 20
-1006.862255991192
 30
0.0
  0
VERTEX
  5
30C
330
2FD
100
AcDbEntity
  8
Graypants_Hewn48-12
 62
    36
420
  8866048
370
    -3
100
AcDbVertex
100
AcDb2dVertex
 10
1000.302552466848
 20
-1005.109624546182
 30
0.0
  0
VERTEX
  5
30D
330
2FD
100
AcDbEntity
  8
Graypants_Hewn48-12
 62
    36
420
  8866048
370
    -3
100
AcDbVertex
100
AcDb2dVertex
 10
999.7289435166249
 20
-1003.337017203856
 30
0.0
  0
VERTEX
  5
30E
330
2FD
100
AcDbEntity
  8
Graypants_Hewn48-12
 62
    36
420
  8866048
370
    -3
100
AcDbVertex
100
AcDb2dVertex
 10
999.1867493118962
 20
-1001.545455640019
 30
0.0
  0
VERTEX
  5
30F
330
2FD
100
AcDbEntity
  8
Graypants_Hewn48-12
 62
    36
420
  8866048
370
    -3
100
AcDbVertex
100
AcDb2dVertex
 10
998.9383254455279
 20
-1000.681079121157
 30
0.0
  0
SEQEND
  5
310
330
2FD
100
AcDbEntity
  8
Graypants_Hewn48-12
 62
    36
420
  8866048
370
    -3
  0
ARC
  5
311
330
1F
100
AcDbEntity
  8
Graypants_Hewn48-12
 62
    36
420
  8866048
370
    -3
100
AcDbCircle
 10
-1103.882157354322
 20
-971.6338562332317
 30
0.0
 40
108.9100020364268
210
0.0
220
0.0
230
-1.0
100
AcDbArc
 50
348.0032258830038
 51
0.0473228476318366
  0
LINE
  5
312
330
1F
100
AcDbEntity
  8
Graypants_Hewn48-12
 62
    36
420
  8866048
370
    -3
100
AcDbLine
 10
552.4499999999998
 20
50.80201217972333
 30
0.0
 11
-552.4499999772984
 21
50.7979878322715
 31
0.0
  0
LINE
  5
313
330
1F
100
AcDbEntity
  8
Graypants_Hewn48-12
 62
    36
420
  8866048
370
    -3
100
AcDbLine
 10
552.4500168363838
 20
41.27701217975098
 30
0.0
 11
-552.4499831430385
 21
41.27298783230233
 31
0.0
  0
LINE
  5
314
330
1F
100
AcDbEntity
  8
Graypants_Hewn48-12
 62
    36
420
  8866048
370
    -3
100
AcDbLine
 10
552.4500268483671
 20
38.89026307570728
 30
0.0
 11
-552.4499761024717
 21
38.88624153429217
 31
0.0
  0
LINE
  5
315
330
1F
100
AcDbEntity
  8
Graypants_Hewn48-12
 62
    36
420
  8866048
370
    -3
100
AcDbLine
 10
-565.0154614499652
 20
-13.12650406664576
 30
0.0
 11
-305.8028165299613
 21
-13.12650406664576
 31
0.0
  0
LINE
  5
316
330
1F
100
AcDbEntity
  8
Graypants_Hewn48-12
 62
    36
420
  8866048
370
    -3
100
AcDbLine
 10
-565.0154614499652
 20
12.87349593304683
 30
0.0
 11
-305.8026779187924
 21
12.87349593304683
 31
0.0
  0
LINE
  5
317
330
1F
100
AcDbEntity
  8
Graypants_Hewn48-12
 62
    36
420
  8866048
370
    -3
100
AcDbLine
 10
-570.0154614499656
 20
-13.12650406664894
 30
0.0
 11
-570.0154614499656
 21
-10.23080605542551
 31
0.0
  0
LINE
  5
318
330
1F
100
AcDbEntity
  8
Graypants_Hewn48-12
 62
    36
420
  8866048
370
    -3
100
AcDbLine
 10
-570.0154614499656
 20
-10.23080605542551
 30
0.0
 11
-570.0154614499656
 21
12.87349593304683
 31
0.0
  0
LINE
  5
319
330
1F
100
AcDbEntity
  8
Graypants_Hewn48-12
 62
    36
420
  8866048
370
    -3
100
AcDbLine
 10
570.0154229695108
 20
-13.12650406664849
 30
0.0
 11
565.0154229695099
 21
-13.12650406664849
 31
0.0
  0
LINE
  5
31A
330
1F
100
AcDbEntity
  8
Graypants_Hewn48-12
 62
    36
420
  8866048
370
    -3
100
AcDbLine
 10
-565.0154614499652
 20
-13.12650406664849
 30
0.0
 11
-570.0154614499656
 21
-13.12650406664849
 31
0.0
  0
LINE
  5
31B
330
1F
100
AcDbEntity
  8
Graypants_Hewn48-12
 62
    36
420
  8866048
370
    -3
100
AcDbLine
 10
570.0154229695108
 20
-13.12650406664894
 30
0.0
 11
570.0154229695108
 21
-10.23080605542551
 31
0.0
  0
LINE
  5
31C
330
1F
100
AcDbEntity
  8
Graypants_Hewn48-12
 62
    36
420
  8866048
370
    -3
100
AcDbLine
 10
570.0154229695108
 20
12.87349593304683
 30
0.0
 11
565.0154229695099
 21
12.87349593304683
 31
0.0
  0
LINE
  5
31D
330
1F
100
AcDbEntity
  8
Graypants_Hewn48-12
 62
    36
420
  8866048
370
    -3
100
AcDbLine
 10
570.0154229695108
 20
-10.23080605542551
 30
0.0
 11
570.0154229695108
 21
12.87349593304683
 31
0.0
  0
LINE
  5
31E
330
1F
100
AcDbEntity
  8
Graypants_Hewn48-12
 62
    36
420
  8866048
370
    -3
100
AcDbLine
 10
-565.0154614499652
 20
12.87349593304683
 30
0.0
 11
-570.0154614499656
 21
12.87349593304683
 31
0.0
  0
LINE
  5
31F
330
1F
100
AcDbEntity
  8
Graypants_Hewn48-12
 62
    36
420
  8866048
370
    -3
100
AcDbLine
 10
552.4500481269324
 20
23.57473361725923
 30
0.0
 11
-552.4503166614513
 21
23.57070646246601
 31
0.0
  0
LINE
  5
320
330
1F
100
AcDbEntity
  8
Graypants_Hewn48-12
 62
    36
420
  8866048
370
    -3
100
AcDbLine
 10
-552.4500212362509
 20
-38.8902602576388
 30
0.0
 11
552.4499817145816
 21
-38.88623871622778
 31
0.0
  0
LINE
  5
321
330
1F
100
AcDbEntity
  8
Graypants_Hewn48-12
 62
    36
420
  8866048
370
    -3
100
AcDbLine
 10
-552.4500168363884
 20
-41.27701216775651
 30
0.0
 11
552.4499831430376
 21
-41.27298782030832
 31
0.0
  0
LINE
  5
322
330
1F
100
AcDbEntity
  8
Graypants_Hewn48-12
 62
    36
420
  8866048
370
    -3
100
AcDbLine
 10
-552.4504129153129
 20
-23.57473641261205
 30
0.0
 11
552.4499518564553
 21
-23.57070925782019
 31
0.0
  0
ENDSEC
  0
SECTION
  2
OBJECTS
  0
DICTIONARY
  5
C
330
0
100
AcDbDictionary
281
     1
  3
ACAD_DETAILVIEWSTYLE
350
35E
  3
ACAD_GROUP
350
D
  3
ACAD_LAYOUT
350
1A
  3
ACAD_MATERIAL
350
43
  3
ACAD_MLEADERSTYLE
350
6B
  3
ACAD_MLINESTYLE
350
17
  3
ACAD_PLOTSETTINGS
350
19
  3
ACAD_PLOTSTYLENAME
350
E
  3
ACAD_SCALELIST
350
47
  3
ACAD_SECTIONVIEWSTYLE
350
35F
  3
ACAD_TABLESTYLE
350
69
  3
ACAD_VISUALSTYLE
350
2A
  3
AcDbVariableDictionary
350
323
  3
ACDB_RECOMPOSE_DATA
350
35B
  0
SUN
  5
6D
330
29
100
AcDbSun
 90
        1
290
     0
 63
     7
421
 16777215
 40
1.0
291
     1
 91
  2455826
 92
 54000000
292
     0
 70
     2
 71
   256
280
     1
  0
DICTIONARY
  5
35E
102
{ACAD_REACTORS
330
C
102
}
330
C
100
AcDbDictionary
281
     1
  0
DICTIONARY
  5
D
102
{ACAD_REACTORS
330
C
102
}
330
C
100
AcDbDictionary
281
     1
  0
DICTIONARY
  5
1A
102
{ACAD_REACTORS
330
C
102
}
330
C
100
AcDbDictionary
281
     1
  3
Layout1
350
1E
  3
Layout2
350
26
  3
Model
350
22
  0
DICTIONARY
  5
43
102
{ACAD_REACTORS
330
C
102
}
330
C
100
AcDbDictionary
281
     1
  3
ByBlock
350
45
  3
ByLayer
350
44
  3
Global
350
46
  0
DICTIONARY
  5
6B
102
{ACAD_REACTORS
330
C
102
}
330
C
100
AcDbDictionary
281
     1
  3
Standard
350
6C
  0
DICTIONARY
  5
17
102
{ACAD_REACTORS
330
C
102
}
330
C
100
AcDbDictionary
281
     1
  3
Standard
350
18
  0
DICTIONARY
  5
19
102
{ACAD_REACTORS
330
C
102
}
330
C
100
AcDbDictionary
281
     1
  0
ACDBDICTIONARYWDFLT
  5
E
102
{ACAD_REACTORS
330
C
102
}
330
C
100
AcDbDictionary
281
     1
  3
Normal
350
F
100
AcDbDictionaryWithDefault
340
F
  0
DICTIONARY
  5
47
102
{ACAD_REACTORS
330
C
102
}
330
C
100
AcDbDictionary
281
     1
  3
A0
350
48
  3
A1
350
49
  3
A2
350
4A
  3
A3
350
4B
  3
A4
350
4C
  3
A5
350
4D
  3
A6
350
4E
  3
A7
350
4F
  3
A8
350
50
  3
A9
350
51
  3
B0
350
52
  3
B1
350
53
  3
B2
350
54
  3
B3
350
55
  3
B4
350
56
  3
B5
350
57
  3
B6
350
58
  3
B7
350
59
  3
B8
350
5A
  3
B9
350
5B
  3
C0
350
5C
  3
C1
350
5D
  3
C2
350
5E
  3
C3
350
5F
  3
C4
350
60
  3
C5
350
61
  3
C6
350
62
  3
C7
350
63
  3
C8
350
64
  3
C9
350
65
  3
D0
350
66
  3
D1
350
67
  3
D2
350
68
  0
DICTIONARY
  5
35F
102
{ACAD_REACTORS
330
C
102
}
330
C
100
AcDbDictionary
281
     1
  0
DICTIONARY
  5
69
102
{ACAD_REACTORS
330
C
102
}
330
C
100
AcDbDictionary
281
     1
  3
Standard
350
6A
  0
DICTIONARY
  5
2A
102
{ACAD_REACTORS
330
C
102
}
330
C
100
AcDbDictionary
281
     1
  3
2dWireframe
350
2F
  3
Basic
350
32
  3
Brighten
350
36
  3
ColorChange
350
3A
  3
Conceptual
350
34
  3
Dim
350
35
  3
EdgeColorOff
350
3D
  3
Facepattern
350
39
  3
Flat
350
2B
  3
FlatWithEdges
350
2C
  3
Gouraud
350
2D
  3
GouraudWithEdges
350
2E
  3
Hidden
350
31
  3
JitterOff
350
3B
  3
Linepattern
350
38
  3
OverhangOff
350
3C
  3
Realistic
350
33
  3
Shaded
350
42
  3
Shaded with edges
350
41
  3
Shades of Gray
350
3E
  3
Sketchy
350
3F
  3
Thicken
350
37
  3
Wireframe
350
30
  3
X-Ray
350
40
  0
DICTIONARY
  5
323
102
{ACAD_REACTORS
330
C
102
}
330
C
100
AcDbDictionary
281
     1
  3
CANNOSCALE
350
324
  3
CMLEADERSTYLE
350
35D
  3
CTABLESTYLE
350
35C
  3
XCLIPFRAME
350
325
  0
XRECORD
  5
35B
102
{ACAD_REACTORS
330
C
102
}
330
C
100
AcDbXrecord
280
     1
 90
        1
330
6A
  0
LAYOUT
  5
1E
102
{ACAD_REACTORS
330
1A
102
}
330
1A
100
AcDbPlotSettings
  1

  2
none_device
  4

  6

 40
0.0
 41
0.0
 42
0.0
 43
0.0
 44
0.0
 45
0.0
 46
0.0
 47
0.0
 48
0.0
 49
0.0
140
0.0
141
0.0
142
1.0
143
1.0
 70
   688
 72
     0
 73
     0
 74
     5
  7

 75
    16
 76
     0
 77
     2
 78
   300
147
1.0
148
0.0
149
0.0
100
AcDbLayout
  1
Layout1
 70
     1
 71
     1
 10
0.0
 20
0.0
 11
12.0
 21
9.0
 12
0.0
 22
0.0
 32
0.0
 14
1.000000000000000E+20
 24
1.000000000000000E+20
 34
1.000000000000000E+20
 15
-1.000000000000000E+20
 25
-1.000000000000000E+20
 35
-1.000000000000000E+20
146
0.0
 13
0.0
 23
0.0
 33
0.0
 16
1.0
 26
0.0
 36
0.0
 17
0.0
 27
1.0
 37
0.0
 76
     0
330
1B
  0
LAYOUT
  5
26
102
{ACAD_REACTORS
330
1A
102
}
330
1A
100
AcDbPlotSettings
  1

  2
none_device
  4

  6

 40
0.0
 41
0.0
 42
0.0
 43
0.0
 44
0.0
 45
0.0
 46
0.0
 47
0.0
 48
0.0
 49
0.0
140
0.0
141
0.0
142
1.0
143
1.0
 70
   688
 72
     0
 73
     0
 74
     5
  7

 75
    16
 76
     0
 77
     2
 78
   300
147
1.0
148
0.0
149
0.0
100
AcDbLayout
  1
Layout2
 70
     1
 71
     2
 10
0.0
 20
0.0
 11
0.0
 21
0.0
 12
0.0
 22
0.0
 32
0.0
 14
0.0
 24
0.0
 34
0.0
 15
0.0
 25
0.0
 35
0.0
146
0.0
 13
0.0
 23
0.0
 33
0.0
 16
1.0
 26
0.0
 36
0.0
 17
0.0
 27
1.0
 37
0.0
 76
     0
330
23
  0
LAYOUT
  5
22
102
{ACAD_REACTORS
330
1A
102
}
330
1A
100
AcDbPlotSettings
  1

  2
none_device
  4
Letter_(8.50_x_11.00_Inches)
  6

 40
6.35
 41
6.35
 42
6.35000508
 43
6.35000508
 44
215.9
 45
279.4
 46
0.0
 47
0.0
 48
0.0
 49
0.0
140
0.0
141
0.0
142
1.0
143
1.0
 70
  1712
 72
     0
 73
     0
 74
     0
  7

 75
     0
 76
     0
 77
     2
 78
   300
147
1.0
148
0.0
149
0.0
100
AcDbLayout
  1
Model
 70
     1
 71
     0
 10
0.0
 20
0.0
 11
12.0
 21
9.0
 12
0.0
 22
0.0
 32
0.0
 14
1.000000000000000E+20
 24
1.000000000000000E+20
 34
1.000000000000000E+20
 15
-1.000000000000000E+20
 25
-1.000000000000000E+20
 35
-1.000000000000000E+20
146
0.0
 13
0.0
 23
0.0
 33
0.0
 16
1.0
 26
0.0
 36
0.0
 17
0.0
 27
1.0
 37
0.0
 76
     0
330
1F
331
29
  0
MATERIAL
  5
45
102
{ACAD_REACTORS
330
43
102
}
330
43
100
AcDbMaterial
  1
ByBlock
 72
     1
 94
      127
  0
MATERIAL
  5
44
102
{ACAD_REACTORS
330
43
102
}
330
43
100
AcDbMaterial
  1
ByLayer
 72
     1
 94
      127
  0
MATERIAL
  5
46
102
{ACAD_REACTORS
330
43
102
}
330
43
100
AcDbMaterial
  1
Global
 72
     1
 94
      127
  0
MLEADERSTYLE
  5
6C
102
{ACAD_REACTORS
330
6B
102
}
102
{ACAD_XDICTIONARY
360
359
102
}
330
6B
100
AcDbMLeaderStyle
170
     2
171
     1
172
     0
 90
        2
 40
0.0
 41
0.0
173
     1
 91
-1056964608
340
14
 92
       -2
290
     1
 42
0.09
291
     1
 43
0.36
  3
Standard
341
0
 44
0.18
300

342
11
174
     1
178
     6
175
     1
176
     0
 93
-1056964608
 45
0.18
292
     0
297
     0
 46
0.18
343
0
 94
-1056964608
 47
1.0
 49
1.0
140
1.0
293
     1
141
0.0
294
     1
177
     0
142
1.0
295
     0
296
     0
143
0.125
1001
ACAD_MLEADERVER
1070
     2
  0
MLINESTYLE
  5
18
102
{ACAD_REACTORS
330
17
102
}
330
17
100
AcDbMlineStyle
  2
Standard
 70
     0
  3

 62
   256
 51
90.0
 52
90.0
 71
     2
 49
0.5
 62
   256
  6
BYLAYER
 49
-0.5
 62
   256
  6
BYLAYER
  0
ACDBPLACEHOLDER
  5
F
102
{ACAD_REACTORS
330
E
102
}
330
E
  0
SCALE
  5
48
102
{ACAD_REACTORS
330
47
102
}
330
47
100
AcDbScale
 70
     0
300
1:1
140
1.0
141
1.0
290
     1
  0
SCALE
  5
49
102
{ACAD_REACTORS
330
47
102
}
330
47
100
AcDbScale
 70
     0
300
1:2
140
1.0
141
2.0
290
     0
  0
SCALE
  5
4A
102
{ACAD_REACTORS
330
47
102
}
330
47
100
AcDbScale
 70
     0
300
1:4
140
1.0
141
4.0
290
     0
  0
SCALE
  5
4B
102
{ACAD_REACTORS
330
47
102
}
330
47
100
AcDbScale
 70
     0
300
1:5
140
1.0
141
5.0
290
     0
  0
SCALE
  5
4C
102
{ACAD_REACTORS
330
47
102
}
330
47
100
AcDbScale
 70
     0
300
1:8
140
1.0
141
8.0
290
     0
  0
SCALE
  5
4D
102
{ACAD_REACTORS
330
47
102
}
330
47
100
AcDbScale
 70
     0
300
1:10
140
1.0
141
10.0
290
     0
  0
SCALE
  5
4E
102
{ACAD_REACTORS
330
47
102
}
330
47
100
AcDbScale
 70
     0
300
1:16
140
1.0
141
16.0
290
     0
  0
SCALE
  5
4F
102
{ACAD_REACTORS
330
47
102
}
330
47
100
AcDbScale
 70
     0
300
1:20
140
1.0
141
20.0
290
     0
  0
SCALE
  5
50
102
{ACAD_REACTORS
330
47
102
}
330
47
100
AcDbScale
 70
     0
300
1:30
140
1.0
141
30.0
290
     0
  0
SCALE
  5
51
102
{ACAD_REACTORS
330
47
102
}
330
47
100
AcDbScale
 70
     0
300
1:40
140
1.0
141
40.0
290
     0
  0
SCALE
  5
52
102
{ACAD_REACTORS
330
47
102
}
330
47
100
AcDbScale
 70
     0
300
1:50
140
1.0
141
50.0
290
     0
  0
SCALE
  5
53
102
{ACAD_REACTORS
330
47
102
}
330
47
100
AcDbScale
 70
     0
300
1:100
140
1.0
141
100.0
290
     0
  0
SCALE
  5
54
102
{ACAD_REACTORS
330
47
102
}
330
47
100
AcDbScale
 70
     0
300
2:1
140
2.0
141
1.0
290
     0
  0
SCALE
  5
55
102
{ACAD_REACTORS
330
47
102
}
330
47
100
AcDbScale
 70
     0
300
4:1
140
4.0
141
1.0
290
     0
  0
SCALE
  5
56
102
{ACAD_REACTORS
330
47
102
}
330
47
100
AcDbScale
 70
     0
300
8:1
140
8.0
141
1.0
290
     0
  0
SCALE
  5
57
102
{ACAD_REACTORS
330
47
102
}
330
47
100
AcDbScale
 70
     0
300
10:1
140
10.0
141
1.0
290
     0
  0
SCALE
  5
58
102
{ACAD_REACTORS
330
47
102
}
330
47
100
AcDbScale
 70
     0
300
100:1
140
100.0
141
1.0
290
     0
  0
SCALE
  5
59
102
{ACAD_REACTORS
330
47
102
}
330
47
100
AcDbScale
 70
     0
300
1/128" = 1'-0"
140
0.0078125
141
12.0
290
     0
  0
SCALE
  5
5A
102
{ACAD_REACTORS
330
47
102
}
330
47
100
AcDbScale
 70
     0
300
1/64" = 1'-0"
140
0.015625
141
12.0
290
     0
  0
SCALE
  5
5B
102
{ACAD_REACTORS
330
47
102
}
330
47
100
AcDbScale
 70
     0
300
1/32" = 1'-0"
140
0.03125
141
12.0
290
     0
  0
SCALE
  5
5C
102
{ACAD_REACTORS
330
47
102
}
330
47
100
AcDbScale
 70
     0
300
1/16" = 1'-0"
140
0.0625
141
12.0
290
     0
  0
SCALE
  5
5D
102
{ACAD_REACTORS
330
47
102
}
330
47
100
AcDbScale
 70
     0
300
3/32" = 1'-0"
140
0.09375
141
12.0
290
     0
  0
SCALE
  5
5E
102
{ACAD_REACTORS
330
47
102
}
330
47
100
AcDbScale
 70
     0
300
1/8" = 1'-0"
140
0.125
141
12.0
290
     0
  0
SCALE
  5
5F
102
{ACAD_REACTORS
330
47
102
}
330
47
100
AcDbScale
 70
     0
300
3/16" = 1'-0"
140
0.1875
141
12.0
290
     0
  0
SCALE
  5
60
102
{ACAD_REACTORS
330
47
102
}
330
47
100
AcDbScale
 70
     0
300
1/4" = 1'-0"
140
0.25
141
12.0
290
     0
  0
SCALE
  5
61
102
{ACAD_REACTORS
330
47
102
}
330
47
100
AcDbScale
 70
     0
300
3/8" = 1'-0"
140
0.375
141
12.0
290
     0
  0
SCALE
  5
62
102
{ACAD_REACTORS
330
47
102
}
330
47
100
AcDbScale
 70
     0
300
1/2" = 1'-0"
140
0.5
141
12.0
290
     0
  0
SCALE
  5
63
102
{ACAD_REACTORS
330
47
102
}
330
47
100
AcDbScale
 70
     0
300
3/4" = 1'-0"
140
0.75
141
12.0
290
     0
  0
SCALE
  5
64
102
{ACAD_REACTORS
330
47
102
}
330
47
100
AcDbScale
 70
     0
300
1" = 1'-0"
140
1.0
141
12.0
290
     0
  0
SCALE
  5
65
102
{ACAD_REACTORS
330
47
102
}
330
47
100
AcDbScale
 70
     0
300
1-1/2" = 1'-0"
140
1.5
141
12.0
290
     0
  0
SCALE
  5
66
102
{ACAD_REACTORS
330
47
102
}
330
47
100
AcDbScale
 70
     0
300
3" = 1'-0"
140
3.0
141
12.0
290
     0
  0
SCALE
  5
67
102
{ACAD_REACTORS
330
47
102
}
330
47
100
AcDbScale
 70
     0
300
6" = 1'-0"
140
6.0
141
12.0
290
     0
  0
SCALE
  5
68
102
{ACAD_REACTORS
330
47
102
}
330
47
100
AcDbScale
 70
     0
300
1'-0" = 1'-0"
140
12.0
141
12.0
290
     0
  0
TABLESTYLE
  5
6A
102
{ACAD_REACTORS
330
69
102
}
102
{ACAD_XDICTIONARY
360
356
102
}
330
69
100
AcDbTableStyle
  3
Standard
 70
     0
 71
     0
 40
0.06
 41
0.06
280
     0
281
     0
  7
Standard
140
0.18
170
     2
 62
     0
 63
   257
283
     0
 90
        4
 91
        0
  1

274
    -2
284
     1
 64
     0
275
    -2
285
     1
 65
     0
276
    -2
286
     1
 66
     0
277
    -2
287
     1
 67
     0
278
    -2
288
     1
 68
     0
279
    -2
289
     1
 69
     0
  7
Standard
140
0.25
170
     5
 62
     0
 63
   257
283
     0
 90
        4
 91
        0
  1

274
    -2
284
     1
 64
     0
275
    -2
285
     1
 65
     0
276
    -2
286
     1
 66
     0
277
    -2
287
     1
 67
     0
278
    -2
288
     1
 68
     0
279
    -2
289
     1
 69
     0
  7
Standard
140
0.18
170
     5
 62
     0
 63
   257
283
     0
 90
        4
 91
        0
  1

274
    -2
284
     1
 64
     0
275
    -2
285
     1
 65
     0
276
    -2
286
     1
 66
     0
277
    -2
287
     1
 67
     0
278
    -2
288
     1
 68
     0
279
    -2
289
     1
 69
     0
  0
VISUALSTYLE
  5
2F
102
{ACAD_REACTORS
330
2A
102
}
102
{ACAD_XDICTIONARY
360
32E
102
}
330
2A
100
AcDbVisualStyle
  2
2dWireframe
 70
     4
 71
     0
 72
     2
 73
     0
 90
        0
 40
0.6
 41
30.0
 62
     5
 63
     7
421
 16777215
 74
     1
 91
        4
 64
     7
 65
   257
 75
     1
175
     1
 42
1.0
 92
        0
 66
   257
 43
1.0
 76
     1
 77
     6
 78
     2
 67
     7
 79
     5
170
     0
171
     0
290
     0
174
     0
 93
        1
 44
0.0
173
     0
291
     0
 45
0.0
  0
VISUALSTYLE
  5
32
102
{ACAD_REACTORS
330
2A
102
}
102
{ACAD_XDICTIONARY
360
334
102
}
330
2A
100
AcDbVisualStyle
  2
Basic
 70
     7
 71
     1
 72
     0
 73
     1
 90
        0
 40
0.6
 41
30.0
 62
     5
 63
     7
421
 16777215
 74
     0
 91
        4
 64
     7
 65
   257
 75
     1
175
     1
 42
1.0
 92
        8
 66
     7
 43
1.0
 76
     1
 77
     6
 78
     2
 67
     7
 79
     5
170
     0
171
     0
290
     0
174
     0
 93
        1
 44
0.0
173
     0
291
     1
 45
0.0
  0
VISUALSTYLE
  5
36
102
{ACAD_REACTORS
330
2A
102
}
102
{ACAD_XDICTIONARY
360
33C
102
}
330
2A
100
AcDbVisualStyle
  2
Brighten
 70
    12
 71
     2
 72
     2
 73
     0
 90
        0
 40
0.6
 41
30.0
 62
     5
 63
     7
421
 16777215
 74
     1
 91
        4
 64
     7
 65
   257
 75
     1
175
     1
 42
1.0
 92
        8
 66
     7
 43
1.0
 76
     1
 77
     6
 78
     2
 67
     7
 79
     5
170
     0
171
     0
290
     0
174
     0
 93
        1
 44
50.0
173
     0
291
     1
 45
0.0
  0
VISUALSTYLE
  5
3A
102
{ACAD_REACTORS
330
2A
102
}
102
{ACAD_XDICTIONARY
360
344
102
}
330
2A
100
AcDbVisualStyle
  2
ColorChange
 70
    16
 71
     2
 72
     2
 73
     3
 90
        0
 40
0.6
 41
30.0
 62
     5
 63
     8
421
  8421504
 74
     1
 91
        4
 64
     7
 65
   257
 75
     1
175
     1
 42
1.0
 92
        8
 66
     8
424
  8421504
 43
1.0
 76
     1
 77
     6
 78
     2
 67
     7
 79
     5
170
     0
171
     0
290
     0
174
     0
 93
        1
 44
0.0
173
     0
291
     1
 45
0.0
  0
VISUALSTYLE
  5
34
102
{ACAD_REACTORS
330
2A
102
}
102
{ACAD_XDICTIONARY
360
338
102
}
330
2A
100
AcDbVisualStyle
  2
Conceptual
 70
     9
 71
     3
 72
     2
 73
     0
 90
        0
 40
0.6
 41
30.0
 62
     5
 63
     7
421
 16777215
 74
     2
 91
        2
 64
     7
 65
   257
 75
     1
175
     1
 42
179.0
 92
        8
 66
     7
 43
1.0
 76
     1
 77
     6
 78
     2
 67
     7
 79
     3
170
     0
171
     0
290
     0
174
     0
 93
        1
 44
0.0
173
     0
291
     0
 45
0.0
  0
VISUALSTYLE
  5
35
102
{ACAD_REACTORS
330
2A
102
}
102
{ACAD_XDICTIONARY
360
33A
102
}
330
2A
100
AcDbVisualStyle
  2
Dim
 70
    11
 71
     2
 72
     2
 73
     0
 90
        0
 40
0.6
 41
30.0
 62
     5
 63
     7
421
 16777215
 74
     1
 91
        4
 64
     7
 65
   257
 75
     1
175
     1
 42
1.0
 92
        8
 66
     7
 43
1.0
 76
     1
 77
     6
 78
     2
 67
     7
 79
     5
170
     0
171
     0
290
     0
174
     0
 93
        1
 44
-50.0
173
     0
291
     1
 45
0.0
  0
VISUALSTYLE
  5
3D
102
{ACAD_REACTORS
330
2A
102
}
102
{ACAD_XDICTIONARY
360
34A
102
}
330
2A
100
AcDbVisualStyle
  2
EdgeColorOff
 70
    22
 71
     2
 72
     2
 73
     0
 90
        0
 40
0.6
 41
30.0
 62
     5
 63
     7
421
 16777215
 74
     1
 91
        4
 64
     7
 65
   257
 75
     1
175
     1
 42
1.0
 92
        8
 66
     7
 43
1.0
 76
     1
 77
     6
 78
     2
 67
     7
 79
     5
170
     0
171
     0
290
     0
174
     0
 93
        1
 44
0.0
173
     0
291
     1
 45
0.0
  0
VISUALSTYLE
  5
39
102
{ACAD_REACTORS
330
2A
102
}
102
{ACAD_XDICTIONARY
360
342
102
}
330
2A
100
AcDbVisualStyle
  2
Facepattern
 70
    15
 71
     2
 72
     2
 73
     0
 90
        0
 40
0.6
 41
30.0
 62
     5
 63
     7
421
 16777215
 74
     1
 91
        4
 64
     7
 65
   257
 75
     1
175
     1
 42
1.0
 92
        8
 66
     7
 43
1.0
 76
     1
 77
     6
 78
     2
 67
     7
 79
     5
170
     0
171
     0
290
     0
174
     0
 93
        1
 44
0.0
173
     0
291
     1
 45
0.0
  0
VISUALSTYLE
  5
2B
102
{ACAD_REACTORS
330
2A
102
}
102
{ACAD_XDICTIONARY
360
326
102
}
330
2A
100
AcDbVisualStyle
  2
Flat
 70
     0
 71
     2
 72
     1
 73
     1
 90
        2
 40
0.6
 41
30.0
 62
     5
 63
     7
421
 16777215
 74
     0
 91
        0
 64
     7
 65
   257
 75
     1
175
     1
 42
1.0
 92
        8
 66
     7
 43
1.0
 76
     1
 77
     6
 78
     2
 67
     7
 79
     5
170
     0
171
     0
290
     0
174
     0
 93
       13
 44
0.0
173
     0
291
     1
 45
0.0
  0
VISUALSTYLE
  5
2C
102
{ACAD_REACTORS
330
2A
102
}
102
{ACAD_XDICTIONARY
360
328
102
}
330
2A
100
AcDbVisualStyle
  2
FlatWithEdges
 70
     1
 71
     2
 72
     1
 73
     1
 90
        2
 40
0.6
 41
30.0
 62
     5
 63
     7
421
 16777215
 74
     1
 91
        0
 64
     7
 65
   257
 75
     1
175
     1
 42
1.0
 92
        0
 66
   257
 43
1.0
 76
     1
 77
     6
 78
     2
 67
     7
 79
     5
170
     0
171
     0
290
     0
174
     0
 93
       13
 44
0.0
173
     0
291
     1
 45
0.0
  0
VISUALSTYLE
  5
2D
102
{ACAD_REACTORS
330
2A
102
}
102
{ACAD_XDICTIONARY
360
32A
102
}
330
2A
100
AcDbVisualStyle
  2
Gouraud
 70
     2
 71
     2
 72
     2
 73
     1
 90
        2
 40
0.6
 41
30.0
 62
     5
 63
     7
421
 16777215
 74
     0
 91
        0
 64
     7
 65
   257
 75
     1
175
     1
 42
1.0
 92
        0
 66
     7
 43
1.0
 76
     1
 77
     6
 78
     2
 67
     7
 79
     5
170
     0
171
     0
290
     0
174
     0
 93
       13
 44
0.0
173
     0
291
     1
 45
0.0
  0
VISUALSTYLE
  5
2E
102
{ACAD_REACTORS
330
2A
102
}
102
{ACAD_XDICTIONARY
360
32C
102
}
330
2A
100
AcDbVisualStyle
  2
GouraudWithEdges
 70
     3
 71
     2
 72
     2
 73
     1
 90
        2
 40
0.6
 41
30.0
 62
     5
 63
     7
421
 16777215
 74
     1
 91
        0
 64
     7
 65
   257
 75
     1
175
     1
 42
1.0
 92
        0
 66
   257
 43
1.0
 76
     1
 77
     6
 78
     2
 67
     7
 79
     5
170
     0
171
     0
290
     0
174
     0
 93
       13
 44
0.0
173
     0
291
     1
 45
0.0
  0
VISUALSTYLE
  5
31
102
{ACAD_REACTORS
330
2A
102
}
102
{ACAD_XDICTIONARY
360
332
102
}
330
2A
100
AcDbVisualStyle
  2
Hidden
 70
     6
 71
     1
 72
     2
 73
     2
 90
        0
 40
0.6
 41
30.0
 62
     5
 63
     7
421
 16777215
 74
     2
 91
        2
 64
     7
 65
   257
 75
     2
175
     1
 42
40.0
 92
        0
 66
   257
 43
1.0
 76
     1
 77
     6
 78
     2
 67
     7
 79
     3
170
     0
171
     0
290
     0
174
     0
 93
        1
 44
0.0
173
     0
291
     0
 45
0.0
  0
VISUALSTYLE
  5
3B
102
{ACAD_REACTORS
330
2A
102
}
102
{ACAD_XDICTIONARY
360
346
102
}
330
2A
100
AcDbVisualStyle
  2
JitterOff
 70
    20
 71
     2
 72
     2
 73
     0
 90
        0
 40
0.6
 41
30.0
 62
     5
 63
     7
421
 16777215
 74
     1
 91
        4
 64
     7
 65
   257
 75
     1
175
     1
 42
1.0
 92
       10
 66
     7
 43
1.0
 76
     1
 77
     6
 78
     2
 67
     7
 79
     5
170
     0
171
     0
290
     0
174
     0
 93
        1
 44
0.0
173
     0
291
     1
 45
0.0
  0
VISUALSTYLE
  5
38
102
{ACAD_REACTORS
330
2A
102
}
102
{ACAD_XDICTIONARY
360
340
102
}
330
2A
100
AcDbVisualStyle
  2
Linepattern
 70
    14
 71
     2
 72
     2
 73
     0
 90
        0
 40
0.6
 41
30.0
 62
     5
 63
     7
421
 16777215
 74
     1
 91
        4
 64
     7
 65
   257
 75
     7
175
     7
 42
1.0
 92
        8
 66
     7
 43
1.0
 76
     1
 77
     6
 78
     2
 67
     7
 79
     5
170
     0
171
     0
290
     0
174
     0
 93
        1
 44
0.0
173
     0
291
     1
 45
0.0
  0
VISUALSTYLE
  5
3C
102
{ACAD_REACTORS
330
2A
102
}
102
{ACAD_XDICTIONARY
360
348
102
}
330
2A
100
AcDbVisualStyle
  2
OverhangOff
 70
    21
 71
     2
 72
     2
 73
     0
 90
        0
 40
0.6
 41
30.0
 62
     5
 63
     7
421
 16777215
 74
     1
 91
        4
 64
     7
 65
   257
 75
     1
175
     1
 42
1.0
 92
        9
 66
     7
 43
1.0
 76
     1
 77
     6
 78
     2
 67
     7
 79
     5
170
     0
171
     0
290
     0
174
     0
 93
        1
 44
0.0
173
     0
291
     1
 45
0.0
  0
VISUALSTYLE
  5
33
102
{ACAD_REACTORS
330
2A
102
}
102
{ACAD_XDICTIONARY
360
336
102
}
330
2A
100
AcDbVisualStyle
  2
Realistic
 70
     8
 71
     2
 72
     3
 73
     0
 90
        2
 40
0.6
 41
30.0
 62
     5
 63
     7
421
 16777215
 74
     0
 91
        0
 64
     7
 65
   257
 75
     1
175
     1
 42
1.0
 92
        8
 66
   257
 43
1.0
 76
     1
 77
     6
 78
     2
 67
     7
 79
     3
170
     0
171
     0
290
     0
174
     0
 93
       13
 44
0.0
173
     0
291
     0
 45
0.0
  0
VISUALSTYLE
  5
42
102
{ACAD_REACTORS
330
2A
102
}
102
{ACAD_XDICTIONARY
360
354
102
}
330
2A
100
AcDbVisualStyle
  2
Shaded
 70
    27
 71
     2
 72
     2
 73
     1
 90
        2
 40
0.6
 41
30.0
 62
     5
 63
     7
421
 16777215
 74
     0
 91
        4
 64
     7
 65
   257
 75
     1
175
     1
 42
1.0
 92
        8
 66
   257
 43
1.0
 76
     1
 77
     6
 78
     2
 67
     8
425
  7895160
 79
     3
170
     0
171
     0
290
     0
174
     0
 93
        5
 44
0.0
173
     0
291
     0
 45
0.0
  0
VISUALSTYLE
  5
41
102
{ACAD_REACTORS
330
2A
102
}
102
{ACAD_XDICTIONARY
360
352
102
}
330
2A
100
AcDbVisualStyle
  2
Shaded with edges
 70
    26
 71
     2
 72
     2
 73
     1
 90
        2
 40
0.6
 41
30.0
 62
     5
 63
     7
421
 16777215
 74
     1
 91
       10
 64
     7
 65
   257
 75
     2
175
     1
 42
1.0
 92
        8
 66
   257
 43
1.0
 76
     1
 77
     6
 78
     2
 67
     7
 79
     3
170
     0
171
     0
290
     0
174
     0
 93
        5
 44
0.0
173
     0
291
     0
 45
0.0
  0
VISUALSTYLE
  5
3E
102
{ACAD_REACTORS
330
2A
102
}
102
{ACAD_XDICTIONARY
360
34C
102
}
330
2A
100
AcDbVisualStyle
  2
Shades of Gray
 70
    23
 71
     2
 72
     2
 73
     3
 90
        0
 40
0.6
 41
30.0
 62
     5
 63
     7
421
 16777215
 74
     2
 91
        2
 64
     7
 65
     7
 75
     1
175
     1
 42
40.0
 92
        8
 66
     7
 43
1.0
 76
     1
 77
     6
 78
     2
 67
     7
 79
     3
170
     0
171
     0
290
     0
174
     0
 93
        1
 44
0.0
173
     0
291
     0
 45
0.0
  0
VISUALSTYLE
  5
3F
102
{ACAD_REACTORS
330
2A
102
}
102
{ACAD_XDICTIONARY
360
34E
102
}
330
2A
100
AcDbVisualStyle
  2
Sketchy
 70
    24
 71
     1
 72
     2
 73
     2
 90
        0
 40
0.6
 41
30.0
 62
     5
 63
     7
421
 16777215
 74
     2
 91
        2
 64
     7
 65
     7
 75
     1
175
     1
 42
40.0
 92
       11
 66
     7
 43
1.0
 76
     1
 77
     6
 78
     2
 67
     7
 79
     6
170
     0
171
     0
290
     0
174
     0
 93
        1
 44
0.0
173
     0
291
     0
 45
0.0
  0
VISUALSTYLE
  5
37
102
{ACAD_REACTORS
330
2A
102
}
102
{ACAD_XDICTIONARY
360
33E
102
}
330
2A
100
AcDbVisualStyle
  2
Thicken
 70
    13
 71
     2
 72
     2
 73
     0
 90
        0
 40
0.6
 41
30.0
 62
     5
 63
     7
421
 16777215
 74
     1
 91
        4
 64
     7
 65
   257
 75
     1
175
     1
 42
1.0
 92
       12
 66
     7
 43
1.0
 76
     1
 77
     6
 78
     2
 67
     7
 79
     5
170
     0
171
     0
290
     0
174
     0
 93
        1
 44
0.0
173
     0
291
     1
 45
0.0
  0
VISUALSTYLE
  5
30
102
{ACAD_REACTORS
330
2A
102
}
102
{ACAD_XDICTIONARY
360
330
102
}
330
2A
100
AcDbVisualStyle
  2
Wireframe
 70
     5
 71
     0
 72
     2
 73
     0
 90
        0
 40
0.6
 41
30.0
 62
     5
 63
     7
421
 16777215
 74
     1
 91
        4
 64
     7
 65
   257
 75
     1
175
     1
 42
1.0
 92
        0
 66
   257
 43
1.0
 76
     1
 77
     6
 78
     2
 67
     7
 79
     3
170
     0
171
     0
290
     0
174
     0
 93
        1
 44
0.0
173
     0
291
     0
 45
0.0
  0
VISUALSTYLE
  5
40
102
{ACAD_REACTORS
330
2A
102
}
102
{ACAD_XDICTIONARY
360
350
102
}
330
2A
100
AcDbVisualStyle
  2
X-Ray
 70
    25
 71
     2
 72
     2
 73
     1
 90
        1
 40
0.5
 41
30.0
 62
     5
 63
     7
421
 16777215
 74
     1
 91
        0
 64
     7
 65
   257
 75
     1
175
     1
 42
1.0
 92
        8
 66
     7
 43
1.0
 76
     1
 77
     6
 78
     2
 67
     7
 79
     3
170
     0
171
     0
290
     0
174
     0
 93
       13
 44
0.0
173
     0
291
     0
 45
0.0
  0
DICTIONARYVAR
  5
324
102
{ACAD_REACTORS
330
323
102
}
330
323
100
DictionaryVariables
280
     0
  1
1:1
  0
DICTIONARYVAR
  5
35D
102
{ACAD_REACTORS
330
323
102
}
330
323
100
DictionaryVariables
280
     0
  1
Standard
  0
DICTIONARYVAR
  5
35C
102
{ACAD_REACTORS
330
323
102
}
330
323
100
DictionaryVariables
280
     0
  1
Standard
  0
DICTIONARYVAR
  5
325
102
{ACAD_REACTORS
330
323
102
}
330
323
100
DictionaryVariables
280
     0
  1
2
  0
DICTIONARY
  5
359
330
6C
100
AcDbDictionary
280
     1
281
     1
  3
ACAD_XREC_ROUNDTRIP
360
35A
  0
DICTIONARY
  5
356
330
6A
100
AcDbDictionary
280
     1
281
     1
  3
ACAD_ROUNDTRIP_2008_TABLESTYLE_CELLSTYLEMAP
360
357
  0
DICTIONARY
  5
32E
330
2F
100
AcDbDictionary
280
     1
281
     1
  3
ACAD_XREC_ROUNDTRIP
360
32F
  0
DICTIONARY
  5
334
330
32
100
AcDbDictionary
280
     1
281
     1
  3
ACAD_XREC_ROUNDTRIP
360
335
  0
DICTIONARY
  5
33C
330
36
100
AcDbDictionary
280
     1
281
     1
  3
ACAD_XREC_ROUNDTRIP
360
33D
  0
DICTIONARY
  5
344
330
3A
100
AcDbDictionary
280
     1
281
     1
  3
ACAD_XREC_ROUNDTRIP
360
345
  0
DICTIONARY
  5
338
330
34
100
AcDbDictionary
280
     1
281
     1
  3
ACAD_XREC_ROUNDTRIP
360
339
  0
DICTIONARY
  5
33A
330
35
100
AcDbDictionary
280
     1
281
     1
  3
ACAD_XREC_ROUNDTRIP
360
33B
  0
DICTIONARY
  5
34A
330
3D
100
AcDbDictionary
280
     1
281
     1
  3
ACAD_XREC_ROUNDTRIP
360
34B
  0
DICTIONARY
  5
342
330
39
100
AcDbDictionary
280
     1
281
     1
  3
ACAD_XREC_ROUNDTRIP
360
343
  0
DICTIONARY
  5
326
330
2B
100
AcDbDictionary
280
     1
281
     1
  3
ACAD_XREC_ROUNDTRIP
360
327
  0
DICTIONARY
  5
328
330
2C
100
AcDbDictionary
280
     1
281
     1
  3
ACAD_XREC_ROUNDTRIP
360
329
  0
DICTIONARY
  5
32A
330
2D
100
AcDbDictionary
280
     1
281
     1
  3
ACAD_XREC_ROUNDTRIP
360
32B
  0
DICTIONARY
  5
32C
330
2E
100
AcDbDictionary
280
     1
281
     1
  3
ACAD_XREC_ROUNDTRIP
360
32D
  0
DICTIONARY
  5
332
330
31
100
AcDbDictionary
280
     1
281
     1
  3
ACAD_XREC_ROUNDTRIP
360
333
  0
DICTIONARY
  5
346
330
3B
100
AcDbDictionary
280
     1
281
     1
  3
ACAD_XREC_ROUNDTRIP
360
347
  0
DICTIONARY
  5
340
330
38
100
AcDbDictionary
280
     1
281
     1
  3
ACAD_XREC_ROUNDTRIP
360
341
  0
DICTIONARY
  5
348
330
3C
100
AcDbDictionary
280
     1
281
     1
  3
ACAD_XREC_ROUNDTRIP
360
349
  0
DICTIONARY
  5
336
330
33
100
AcDbDictionary
280
     1
281
     1
  3
ACAD_XREC_ROUNDTRIP
360
337
  0
DICTIONARY
  5
354
330
42
100
AcDbDictionary
280
     1
281
     1
  3
ACAD_XREC_ROUNDTRIP
360
355
  0
DICTIONARY
  5
352
330
41
100
AcDbDictionary
280
     1
281
     1
  3
ACAD_XREC_ROUNDTRIP
360
353
  0
DICTIONARY
  5
34C
330
3E
100
AcDbDictionary
280
     1
281
     1
  3
ACAD_XREC_ROUNDTRIP
360
34D
  0
DICTIONARY
  5
34E
330
3F
100
AcDbDictionary
280
     1
281
     1
  3
ACAD_XREC_ROUNDTRIP
360
34F
  0
DICTIONARY
  5
33E
330
37
100
AcDbDictionary
280
     1
281
     1
  3
ACAD_XREC_ROUNDTRIP
360
33F
  0
DICTIONARY
  5
330
330
30
100
AcDbDictionary
280
     1
281
     1
  3
ACAD_XREC_ROUNDTRIP
360
331
  0
DICTIONARY
  5
350
330
40
100
AcDbDictionary
280
     1
281
     1
  3
ACAD_XREC_ROUNDTRIP
360
351
  0
XRECORD
  5
35A
102
{ACAD_REACTORS
330
359
102
}
330
359
100
AcDbXrecord
280
     1
102
ACAD_ROUNDTRIP_2010_MLEADER_STYLE
  0
CELLSTYLEMAP
  5
357
102
{ACAD_REACTORS
330
356
102
}
330
356
100
AcDbCellStyleMap
 90
        3
300
CELLSTYLE
  1
TABLEFORMAT_BEGIN
 90
        5
170
     1
 91
        0
 92
    32768
 62
   257
 93
        1
300
CONTENTFORMAT
  1
CONTENTFORMAT_BEGIN
 90
        0
 91
        0
 92
        4
 93
        0
300

 40
0.0
140
1.0
 94
        5
 62
     0
340
11
144
0.25
309
CONTENTFORMAT_END
171
     1
301
MARGIN
  1
CELLMARGIN_BEGIN
 40
0.06
 40
0.06
 40
0.06
 40
0.06
 40
0.06
 40
0.06
309
CELLMARGIN_END
 94
        6
 95
        1
302
GRIDFORMAT
  1
GRIDFORMAT_BEGIN
 90
        0
 91
        1
 62
     0
 92
       -2
340
14
 93
        0
 40
0.045
309
GRIDFORMAT_END
 95
        2
302
GRIDFORMAT
  1
GRIDFORMAT_BEGIN
 90
        0
 91
        1
 62
     0
 92
       -2
340
14
 93
        0
 40
0.045
309
GRIDFORMAT_END
 95
        4
302
GRIDFORMAT
  1
GRIDFORMAT_BEGIN
 90
        0
 91
        1
 62
     0
 92
       -2
340
14
 93
        0
 40
0.045
309
GRIDFORMAT_END
 95
        8
302
GRIDFORMAT
  1
GRIDFORMAT_BEGIN
 90
        0
 91
        1
 62
     0
 92
       -2
340
14
 93
        0
 40
0.045
309
GRIDFORMAT_END
 95
       16
302
GRIDFORMAT
  1
GRIDFORMAT_BEGIN
 90
        0
 91
        1
 62
     0
 92
       -2
340
14
 93
        0
 40
0.045
309
GRIDFORMAT_END
 95
       32
302
GRIDFORMAT
  1
GRIDFORMAT_BEGIN
 90
        0
 91
        1
 62
     0
 92
       -2
340
14
 93
        0
 40
0.045
309
GRIDFORMAT_END
309
TABLEFORMAT_END
  1
CELLSTYLE_BEGIN
 90
        1
 91
        1
300
_TITLE
309
CELLSTYLE_END
300
CELLSTYLE
  1
TABLEFORMAT_BEGIN
 90
        5
170
     1
 91
        0
 92
        0
 62
   257
 93
        1
300
CONTENTFORMAT
  1
CONTENTFORMAT_BEGIN
 90
        0
 91
        0
 92
        4
 93
        0
300

 40
0.0
140
1.0
 94
        5
 62
     0
340
11
144
0.18
309
CONTENTFORMAT_END
171
     1
301
MARGIN
  1
CELLMARGIN_BEGIN
 40
0.06
 40
0.06
 40
0.06
 40
0.06
 40
0.06
 40
0.06
309
CELLMARGIN_END
 94
        6
 95
        1
302
GRIDFORMAT
  1
GRIDFORMAT_BEGIN
 90
        0
 91
        1
 62
     0
 92
       -2
340
14
 93
        0
 40
0.045
309
GRIDFORMAT_END
 95
        2
302
GRIDFORMAT
  1
GRIDFORMAT_BEGIN
 90
        0
 91
        1
 62
     0
 92
       -2
340
14
 93
        0
 40
0.045
309
GRIDFORMAT_END
 95
        4
302
GRIDFORMAT
  1
GRIDFORMAT_BEGIN
 90
        0
 91
        1
 62
     0
 92
       -2
340
14
 93
        0
 40
0.045
309
GRIDFORMAT_END
 95
        8
302
GRIDFORMAT
  1
GRIDFORMAT_BEGIN
 90
        0
 91
        1
 62
     0
 92
       -2
340
14
 93
        0
 40
0.045
309
GRIDFORMAT_END
 95
       16
302
GRIDFORMAT
  1
GRIDFORMAT_BEGIN
 90
        0
 91
        1
 62
     0
 92
       -2
340
14
 93
        0
 40
0.045
309
GRIDFORMAT_END
 95
       32
302
GRIDFORMAT
  1
GRIDFORMAT_BEGIN
 90
        0
 91
        1
 62
     0
 92
       -2
340
14
 93
        0
 40
0.045
309
GRIDFORMAT_END
309
TABLEFORMAT_END
  1
CELLSTYLE_BEGIN
 90
        2
 91
        1
300
_HEADER
309
CELLSTYLE_END
300
CELLSTYLE
  1
TABLEFORMAT_BEGIN
 90
        5
170
     1
 91
        0
 92
        0
 62
   257
 93
        1
300
CONTENTFORMAT
  1
CONTENTFORMAT_BEGIN
 90
        0
 91
        0
 92
        4
 93
        0
300

 40
0.0
140
1.0
 94
        2
 62
     0
340
11
144
0.18
309
CONTENTFORMAT_END
171
     1
301
MARGIN
  1
CELLMARGIN_BEGIN
 40
0.06
 40
0.06
 40
0.06
 40
0.06
 40
0.06
 40
0.06
309
CELLMARGIN_END
 94
        6
 95
        1
302
GRIDFORMAT
  1
GRIDFORMAT_BEGIN
 90
        0
 91
        1
 62
     0
 92
       -2
340
14
 93
        0
 40
0.045
309
GRIDFORMAT_END
 95
        2
302
GRIDFORMAT
  1
GRIDFORMAT_BEGIN
 90
        0
 91
        1
 62
     0
 92
       -2
340
14
 93
        0
 40
0.045
309
GRIDFORMAT_END
 95
        4
302
GRIDFORMAT
  1
GRIDFORMAT_BEGIN
 90
        0
 91
        1
 62
     0
 92
       -2
340
14
 93
        0
 40
0.045
309
GRIDFORMAT_END
 95
        8
302
GRIDFORMAT
  1
GRIDFORMAT_BEGIN
 90
        0
 91
        1
 62
     0
 92
       -2
340
14
 93
        0
 40
0.045
309
GRIDFORMAT_END
 95
       16
302
GRIDFORMAT
  1
GRIDFORMAT_BEGIN
 90
        0
 91
        1
 62
     0
 92
       -2
340
14
 93
        0
 40
0.045
309
GRIDFORMAT_END
 95
       32
302
GRIDFORMAT
  1
GRIDFORMAT_BEGIN
 90
        0
 91
        1
 62
     0
 92
       -2
340
14
 93
        0
 40
0.045
309
GRIDFORMAT_END
309
TABLEFORMAT_END
  1
CELLSTYLE_BEGIN
 90
        3
 91
        2
300
_DATA
309
CELLSTYLE_END
  0
XRECORD
  5
32F
102
{ACAD_REACTORS
330
32E
102
}
330
32E
100
AcDbXrecord
280
     1
102
RTVSPropertyOp0
 70
     1
102
RTVSPropertyOp1
 70
     1
102
RTVSPropertyOp2
 70
     1
102
RTVSPropertyOp3
 70
     1
102
RTVSPropertyOp4
 70
     1
102
RTVSPropertyOp5
 70
     1
102
RTVSPropertyOp6
 70
     1
102
RTVSPropertyOp7
 70
     1
102
RTVSPropertyOp8
 70
     1
102
RTVSPropertyOp9
 70
     1
102
RTVSPropertyOp10
 70
     1
102
RTVSPropertyOp11
 70
     1
102
RTVSPropertyOp12
 70
     1
102
RTVSPropertyOp13
 70
     1
102
RTVSPropertyOp14
 70
     1
102
RTVSPropertyOp15
 70
     1
102
RTVSPropertyOp16
 70
     1
102
RTVSPropertyOp17
 70
     1
102
RTVSPropertyOp18
 70
     1
102
RTVSPropertyOp19
 70
     1
102
RTVSPropertyOp20
 70
     1
102
RTVSPropertyOp21
 70
     1
102
RTVSPropertyOp22
 70
     1
102
RTVSPropertyOp23
 70
     1
102
RTVSPropertyOp24
 70
     1
102
RTVSPropertyOp25
 70
     1
102
RTVSPropertyOp26
 70
     1
102
RTVSPropertyOp27
 70
     1
102
RTVSPropertyOp28
 70
     1
102
RTVSPropertyOp29
 70
     1
102
RTVSPropertyOp30
 70
     1
102
RTVSPropertyOp31
 70
     1
102
RTVSPropertyOp32
 70
     1
102
RTVSPropertyOp33
 70
     1
102
RTVSPropertyOp34
 70
     1
102
RTVSPropertyOp35
 70
     1
102
RTVSPropertyOp36
 70
     1
102
RTVSPropertyOp37
 70
     1
102
RTVSPropertyOp38
 70
     1
102
RTVSPropertyOp39
 70
     1
102
RTVSPropertyOp40
 70
     1
102
RTVSPropertyOp41
 70
     1
102
RTVSPropertyOp42
 70
     1
102
RTVSPropertyOp43
 70
     1
102
RTVSPropertyOp44
 70
     1
102
RTVSPropertyOp45
 70
     1
102
RTVSPropertyOp46
 70
     1
102
RTVSPropertyOp47
 70
     1
102
RTVSPropertyOp48
 70
     1
102
RTVSPropertyOp49
 70
     1
102
RTVSPropertyOp50
 70
     1
102
RTVSPropertyOp51
 70
     0
102
RTVSPropertyOp52
 70
     0
102
RTVSPropertyOp53
 70
     1
102
RTVSPropertyOp54
 70
     1
102
RTVSPropertyOp55
 70
     1
102
RTVSPropertyOp56
 70
     1
102
RTVSPropertyOp57
 70
     1
102
RTVSPost2010Prop28
280
     1
102
RTVSPost2010PropOp28
 70
     1
102
RTVSPost2010Prop29
280
     1
102
RTVSPost2010PropOp29
 70
     1
102
RTVSPost2010Prop30
280
     0
102
RTVSPost2010PropOp30
 70
     1
102
RTVSPost2010Prop31
280
     0
102
RTVSPost2010PropOp31
 70
     1
102
RTVSPost2010Prop32
280
     0
102
RTVSPost2010PropOp32
 70
     1
102
RTVSPost2010Prop33
280
     0
102
RTVSPost2010PropOp33
 70
     1
102
RTVSPost2010Prop34
280
     0
102
RTVSPost2010PropOp34
 70
     1
102
RTVSPost2010Prop35
280
     0
102
RTVSPost2010PropOp35
 70
     1
102
RTVSPost2010Prop36
280
     0
102
RTVSPost2010PropOp36
 70
     1
102
RTVSPost2010Prop37
 90
       50
102
RTVSPost2010PropOp37
 70
     1
102
RTVSPost2010Prop38
140
0.0
102
RTVSPost2010PropOp38
 70
     1
102
RTVSPost2010Prop39
140
1.0
102
RTVSPost2010PropOp39
 70
     1
102
RTVSPost2010Prop40
 90
        0
102
RTVSPost2010PropOp40
 70
     1
102
RTVSPost2010Prop41ColorIndex
 90
      178
102
RTVSPost2010Prop41ColorRGB
 90
        0
102
RTVSPost2010PropOp41
 70
     1
102
RTVSPost2010Prop42
 90
       50
102
RTVSPost2010PropOp42
 70
     1
102
RTVSPost2010Prop43
 90
        3
102
RTVSPost2010PropOp43
 70
     1
102
RTVSPost2010Prop44ColorIndex
 90
        5
102
RTVSPost2010Prop44ColorRGB
 90
      255
102
RTVSPost2010PropOp44
 70
     1
102
RTVSPost2010Prop45
280
     0
102
RTVSPost2010PropOp45
 70
     1
102
RTVSPost2010Prop46
 90
       50
102
RTVSPost2010PropOp46
 70
     1
102
RTVSPost2010Prop47
 90
       50
102
RTVSPost2010PropOp47
 70
     1
102
RTVSPost2010Prop48
 90
       50
102
RTVSPost2010PropOp48
 70
     1
102
RTVSPost2010Prop49
280
     0
102
RTVSPost2010PropOp49
 70
     1
102
RTVSPost2010Prop50
 90
       50
102
RTVSPost2010PropOp50
 70
     1
102
RTVSPost2010Prop51ColorIndex
 90
      256
102
RTVSPost2010Prop51ColorRGB
 90
-16777216
102
RTVSPost2010PropOp51
 70
     0
102
RTVSPost2010Prop52
140
1.0
102
RTVSPost2010PropOp52
 70
     0
102
RTVSPost2010Prop53
 90
        2
102
RTVSPost2010PropOp53
 70
     1
102
RTVSPost2010Prop54
  1
strokes_ogs.tif
102
RTVSPost2010PropOp54
 70
     1
102
RTVSPost2010Prop55
280
     0
102
RTVSPost2010PropOp55
 70
     1
102
RTVSPost2010Prop56
140
1.0
102
RTVSPost2010PropOp56
 70
     1
102
RTVSPost2010Prop57
140
1.0
102
RTVSPost2010PropOp57
 70
     1
  0
XRECORD
  5
335
102
{ACAD_REACTORS
330
334
102
}
330
334
100
AcDbXrecord
280
     1
102
RTVSPropertyOp0
 70
     1
102
RTVSPropertyOp1
 70
     1
102
RTVSPropertyOp2
 70
     1
102
RTVSPropertyOp3
 70
     1
102
RTVSPropertyOp4
 70
     1
102
RTVSPropertyOp5
 70
     1
102
RTVSPropertyOp6
 70
     1
102
RTVSPropertyOp7
 70
     1
102
RTVSPropertyOp8
 70
     1
102
RTVSPropertyOp9
 70
     1
102
RTVSPropertyOp10
 70
     1
102
RTVSPropertyOp11
 70
     1
102
RTVSPropertyOp12
 70
     1
102
RTVSPropertyOp13
 70
     1
102
RTVSPropertyOp14
 70
     1
102
RTVSPropertyOp15
 70
     1
102
RTVSPropertyOp16
 70
     1
102
RTVSPropertyOp17
 70
     1
102
RTVSPropertyOp18
 70
     1
102
RTVSPropertyOp19
 70
     1
102
RTVSPropertyOp20
 70
     1
102
RTVSPropertyOp21
 70
     1
102
RTVSPropertyOp22
 70
     1
102
RTVSPropertyOp23
 70
     1
102
RTVSPropertyOp24
 70
     1
102
RTVSPropertyOp25
 70
     1
102
RTVSPropertyOp26
 70
     1
102
RTVSPropertyOp27
 70
     1
102
RTVSPropertyOp28
 70
     1
102
RTVSPropertyOp29
 70
     1
102
RTVSPropertyOp30
 70
     1
102
RTVSPropertyOp31
 70
     1
102
RTVSPropertyOp32
 70
     1
102
RTVSPropertyOp33
 70
     1
102
RTVSPropertyOp34
 70
     1
102
RTVSPropertyOp35
 70
     1
102
RTVSPropertyOp36
 70
     1
102
RTVSPropertyOp37
 70
     1
102
RTVSPropertyOp38
 70
     1
102
RTVSPropertyOp39
 70
     1
102
RTVSPropertyOp40
 70
     1
102
RTVSPropertyOp41
 70
     1
102
RTVSPropertyOp42
 70
     1
102
RTVSPropertyOp43
 70
     1
102
RTVSPropertyOp44
 70
     1
102
RTVSPropertyOp45
 70
     1
102
RTVSPropertyOp46
 70
     1
102
RTVSPropertyOp47
 70
     1
102
RTVSPropertyOp48
 70
     1
102
RTVSPropertyOp49
 70
     1
102
RTVSPropertyOp50
 70
     1
102
RTVSPropertyOp51
 70
     0
102
RTVSPropertyOp52
 70
     0
102
RTVSPropertyOp53
 70
     1
102
RTVSPropertyOp54
 70
     1
102
RTVSPropertyOp55
 70
     1
102
RTVSPropertyOp56
 70
     1
102
RTVSPropertyOp57
 70
     1
102
RTVSPost2010Prop28
280
     0
102
RTVSPost2010PropOp28
 70
     1
102
RTVSPost2010Prop29
280
     1
102
RTVSPost2010PropOp29
 70
     1
102
RTVSPost2010Prop30
280
     1
102
RTVSPost2010PropOp30
 70
     1
102
RTVSPost2010Prop31
280
     0
102
RTVSPost2010PropOp31
 70
     1
102
RTVSPost2010Prop32
280
     0
102
RTVSPost2010PropOp32
 70
     1
102
RTVSPost2010Prop33
280
     0
102
RTVSPost2010PropOp33
 70
     1
102
RTVSPost2010Prop34
280
     0
102
RTVSPost2010PropOp34
 70
     1
102
RTVSPost2010Prop35
280
     0
102
RTVSPost2010PropOp35
 70
     1
102
RTVSPost2010Prop36
280
     0
102
RTVSPost2010PropOp36
 70
     1
102
RTVSPost2010Prop37
 90
       50
102
RTVSPost2010PropOp37
 70
     1
102
RTVSPost2010Prop38
140
0.0
102
RTVSPost2010PropOp38
 70
     1
102
RTVSPost2010Prop39
140
1.0
102
RTVSPost2010PropOp39
 70
     1
102
RTVSPost2010Prop40
 90
        0
102
RTVSPost2010PropOp40
 70
     1
102
RTVSPost2010Prop41ColorIndex
 90
      178
102
RTVSPost2010Prop41ColorRGB
 90
        0
102
RTVSPost2010PropOp41
 70
     1
102
RTVSPost2010Prop42
 90
       50
102
RTVSPost2010PropOp42
 70
     1
102
RTVSPost2010Prop43
 90
        3
102
RTVSPost2010PropOp43
 70
     1
102
RTVSPost2010Prop44ColorIndex
 90
        5
102
RTVSPost2010Prop44ColorRGB
 90
      255
102
RTVSPost2010PropOp44
 70
     1
102
RTVSPost2010Prop45
280
     0
102
RTVSPost2010PropOp45
 70
     1
102
RTVSPost2010Prop46
 90
       50
102
RTVSPost2010PropOp46
 70
     1
102
RTVSPost2010Prop47
 90
       50
102
RTVSPost2010PropOp47
 70
     1
102
RTVSPost2010Prop48
 90
       50
102
RTVSPost2010PropOp48
 70
     1
102
RTVSPost2010Prop49
280
     0
102
RTVSPost2010PropOp49
 70
     1
102
RTVSPost2010Prop50
 90
       50
102
RTVSPost2010PropOp50
 70
     1
102
RTVSPost2010Prop51ColorIndex
 90
      256
102
RTVSPost2010Prop51ColorRGB
 90
-16777216
102
RTVSPost2010PropOp51
 70
     0
102
RTVSPost2010Prop52
140
1.0
102
RTVSPost2010PropOp52
 70
     0
102
RTVSPost2010Prop53
 90
        2
102
RTVSPost2010PropOp53
 70
     1
102
RTVSPost2010Prop54
  1
strokes_ogs.tif
102
RTVSPost2010PropOp54
 70
     1
102
RTVSPost2010Prop55
280
     0
102
RTVSPost2010PropOp55
 70
     1
102
RTVSPost2010Prop56
140
1.0
102
RTVSPost2010PropOp56
 70
     1
102
RTVSPost2010Prop57
140
1.0
102
RTVSPost2010PropOp57
 70
     1
  0
XRECORD
  5
33D
102
{ACAD_REACTORS
330
33C
102
}
330
33C
100
AcDbXrecord
280
     1
102
RTVSPropertyOp0
 70
     1
102
RTVSPropertyOp1
 70
     1
102
RTVSPropertyOp2
 70
     1
102
RTVSPropertyOp3
 70
     1
102
RTVSPropertyOp4
 70
     1
102
RTVSPropertyOp5
 70
     1
102
RTVSPropertyOp6
 70
     1
102
RTVSPropertyOp7
 70
     1
102
RTVSPropertyOp8
 70
     1
102
RTVSPropertyOp9
 70
     1
102
RTVSPropertyOp10
 70
     1
102
RTVSPropertyOp11
 70
     1
102
RTVSPropertyOp12
 70
     1
102
RTVSPropertyOp13
 70
     1
102
RTVSPropertyOp14
 70
     1
102
RTVSPropertyOp15
 70
     1
102
RTVSPropertyOp16
 70
     1
102
RTVSPropertyOp17
 70
     1
102
RTVSPropertyOp18
 70
     1
102
RTVSPropertyOp19
 70
     1
102
RTVSPropertyOp20
 70
     1
102
RTVSPropertyOp21
 70
     1
102
RTVSPropertyOp22
 70
     1
102
RTVSPropertyOp23
 70
     1
102
RTVSPropertyOp24
 70
     1
102
RTVSPropertyOp25
 70
     1
102
RTVSPropertyOp26
 70
     1
102
RTVSPropertyOp27
 70
     1
102
RTVSPropertyOp28
 70
     1
102
RTVSPropertyOp29
 70
     1
102
RTVSPropertyOp30
 70
     1
102
RTVSPropertyOp31
 70
     1
102
RTVSPropertyOp32
 70
     1
102
RTVSPropertyOp33
 70
     1
102
RTVSPropertyOp34
 70
     1
102
RTVSPropertyOp35
 70
     1
102
RTVSPropertyOp36
 70
     1
102
RTVSPropertyOp37
 70
     1
102
RTVSPropertyOp38
 70
     1
102
RTVSPropertyOp39
 70
     1
102
RTVSPropertyOp40
 70
     1
102
RTVSPropertyOp41
 70
     1
102
RTVSPropertyOp42
 70
     1
102
RTVSPropertyOp43
 70
     1
102
RTVSPropertyOp44
 70
     1
102
RTVSPropertyOp45
 70
     1
102
RTVSPropertyOp46
 70
     1
102
RTVSPropertyOp47
 70
     1
102
RTVSPropertyOp48
 70
     1
102
RTVSPropertyOp49
 70
     1
102
RTVSPropertyOp50
 70
     1
102
RTVSPropertyOp51
 70
     0
102
RTVSPropertyOp52
 70
     0
102
RTVSPropertyOp53
 70
     1
102
RTVSPropertyOp54
 70
     1
102
RTVSPropertyOp55
 70
     1
102
RTVSPropertyOp56
 70
     1
102
RTVSPropertyOp57
 70
     1
102
RTVSPost2010Prop28
280
     0
102
RTVSPost2010PropOp28
 70
     1
102
RTVSPost2010Prop29
280
     1
102
RTVSPost2010PropOp29
 70
     1
102
RTVSPost2010Prop30
280
     1
102
RTVSPost2010PropOp30
 70
     1
102
RTVSPost2010Prop31
280
     0
102
RTVSPost2010PropOp31
 70
     1
102
RTVSPost2010Prop32
280
     0
102
RTVSPost2010PropOp32
 70
     1
102
RTVSPost2010Prop33
280
     0
102
RTVSPost2010PropOp33
 70
     1
102
RTVSPost2010Prop34
280
     0
102
RTVSPost2010PropOp34
 70
     1
102
RTVSPost2010Prop35
280
     0
102
RTVSPost2010PropOp35
 70
     1
102
RTVSPost2010Prop36
280
     0
102
RTVSPost2010PropOp36
 70
     1
102
RTVSPost2010Prop37
 90
       50
102
RTVSPost2010PropOp37
 70
     1
102
RTVSPost2010Prop38
140
0.0
102
RTVSPost2010PropOp38
 70
     1
102
RTVSPost2010Prop39
140
1.0
102
RTVSPost2010PropOp39
 70
     1
102
RTVSPost2010Prop40
 90
        0
102
RTVSPost2010PropOp40
 70
     1
102
RTVSPost2010Prop41ColorIndex
 90
      178
102
RTVSPost2010Prop41ColorRGB
 90
        0
102
RTVSPost2010PropOp41
 70
     1
102
RTVSPost2010Prop42
 90
       50
102
RTVSPost2010PropOp42
 70
     1
102
RTVSPost2010Prop43
 90
        3
102
RTVSPost2010PropOp43
 70
     1
102
RTVSPost2010Prop44ColorIndex
 90
        5
102
RTVSPost2010Prop44ColorRGB
 90
      255
102
RTVSPost2010PropOp44
 70
     1
102
RTVSPost2010Prop45
280
     0
102
RTVSPost2010PropOp45
 70
     1
102
RTVSPost2010Prop46
 90
       50
102
RTVSPost2010PropOp46
 70
     1
102
RTVSPost2010Prop47
 90
       50
102
RTVSPost2010PropOp47
 70
     1
102
RTVSPost2010Prop48
 90
       50
102
RTVSPost2010PropOp48
 70
     1
102
RTVSPost2010Prop49
280
     0
102
RTVSPost2010PropOp49
 70
     1
102
RTVSPost2010Prop50
 90
       50
102
RTVSPost2010PropOp50
 70
     1
102
RTVSPost2010Prop51ColorIndex
 90
      256
102
RTVSPost2010Prop51ColorRGB
 90
-16777216
102
RTVSPost2010PropOp51
 70
     0
102
RTVSPost2010Prop52
140
1.0
102
RTVSPost2010PropOp52
 70
     0
102
RTVSPost2010Prop53
 90
        2
102
RTVSPost2010PropOp53
 70
     1
102
RTVSPost2010Prop54
  1
strokes_ogs.tif
102
RTVSPost2010PropOp54
 70
     1
102
RTVSPost2010Prop55
280
     0
102
RTVSPost2010PropOp55
 70
     1
102
RTVSPost2010Prop56
140
1.0
102
RTVSPost2010PropOp56
 70
     1
102
RTVSPost2010Prop57
140
1.0
102
RTVSPost2010PropOp57
 70
     1
  0
XRECORD
  5
345
102
{ACAD_REACTORS
330
344
102
}
330
344
100
AcDbXrecord
280
     1
102
RTVSPropertyOp0
 70
     1
102
RTVSPropertyOp1
 70
     1
102
RTVSPropertyOp2
 70
     1
102
RTVSPropertyOp3
 70
     1
102
RTVSPropertyOp4
 70
     1
102
RTVSPropertyOp5
 70
     1
102
RTVSPropertyOp6
 70
     1
102
RTVSPropertyOp7
 70
     1
102
RTVSPropertyOp8
 70
     1
102
RTVSPropertyOp9
 70
     1
102
RTVSPropertyOp10
 70
     1
102
RTVSPropertyOp11
 70
     1
102
RTVSPropertyOp12
 70
     1
102
RTVSPropertyOp13
 70
     1
102
RTVSPropertyOp14
 70
     1
102
RTVSPropertyOp15
 70
     1
102
RTVSPropertyOp16
 70
     1
102
RTVSPropertyOp17
 70
     1
102
RTVSPropertyOp18
 70
     1
102
RTVSPropertyOp19
 70
     1
102
RTVSPropertyOp20
 70
     1
102
RTVSPropertyOp21
 70
     1
102
RTVSPropertyOp22
 70
     1
102
RTVSPropertyOp23
 70
     1
102
RTVSPropertyOp24
 70
     1
102
RTVSPropertyOp25
 70
     1
102
RTVSPropertyOp26
 70
     1
102
RTVSPropertyOp27
 70
     1
102
RTVSPropertyOp28
 70
     1
102
RTVSPropertyOp29
 70
     1
102
RTVSPropertyOp30
 70
     1
102
RTVSPropertyOp31
 70
     1
102
RTVSPropertyOp32
 70
     1
102
RTVSPropertyOp33
 70
     1
102
RTVSPropertyOp34
 70
     1
102
RTVSPropertyOp35
 70
     1
102
RTVSPropertyOp36
 70
     1
102
RTVSPropertyOp37
 70
     1
102
RTVSPropertyOp38
 70
     1
102
RTVSPropertyOp39
 70
     1
102
RTVSPropertyOp40
 70
     1
102
RTVSPropertyOp41
 70
     1
102
RTVSPropertyOp42
 70
     1
102
RTVSPropertyOp43
 70
     1
102
RTVSPropertyOp44
 70
     1
102
RTVSPropertyOp45
 70
     1
102
RTVSPropertyOp46
 70
     1
102
RTVSPropertyOp47
 70
     1
102
RTVSPropertyOp48
 70
     1
102
RTVSPropertyOp49
 70
     1
102
RTVSPropertyOp50
 70
     1
102
RTVSPropertyOp51
 70
     0
102
RTVSPropertyOp52
 70
     0
102
RTVSPropertyOp53
 70
     1
102
RTVSPropertyOp54
 70
     1
102
RTVSPropertyOp55
 70
     1
102
RTVSPropertyOp56
 70
     1
102
RTVSPropertyOp57
 70
     1
102
RTVSPost2010Prop28
280
     0
102
RTVSPost2010PropOp28
 70
     1
102
RTVSPost2010Prop29
280
     1
102
RTVSPost2010PropOp29
 70
     1
102
RTVSPost2010Prop30
280
     1
102
RTVSPost2010PropOp30
 70
     1
102
RTVSPost2010Prop31
280
     0
102
RTVSPost2010PropOp31
 70
     1
102
RTVSPost2010Prop32
280
     0
102
RTVSPost2010PropOp32
 70
     1
102
RTVSPost2010Prop33
280
     0
102
RTVSPost2010PropOp33
 70
     1
102
RTVSPost2010Prop34
280
     0
102
RTVSPost2010PropOp34
 70
     1
102
RTVSPost2010Prop35
280
     0
102
RTVSPost2010PropOp35
 70
     1
102
RTVSPost2010Prop36
280
     0
102
RTVSPost2010PropOp36
 70
     1
102
RTVSPost2010Prop37
 90
       50
102
RTVSPost2010PropOp37
 70
     1
102
RTVSPost2010Prop38
140
0.0
102
RTVSPost2010PropOp38
 70
     1
102
RTVSPost2010Prop39
140
1.0
102
RTVSPost2010PropOp39
 70
     1
102
RTVSPost2010Prop40
 90
        0
102
RTVSPost2010PropOp40
 70
     1
102
RTVSPost2010Prop41ColorIndex
 90
      178
102
RTVSPost2010Prop41ColorRGB
 90
        0
102
RTVSPost2010PropOp41
 70
     1
102
RTVSPost2010Prop42
 90
       50
102
RTVSPost2010PropOp42
 70
     1
102
RTVSPost2010Prop43
 90
        3
102
RTVSPost2010PropOp43
 70
     1
102
RTVSPost2010Prop44ColorIndex
 90
        5
102
RTVSPost2010Prop44ColorRGB
 90
      255
102
RTVSPost2010PropOp44
 70
     1
102
RTVSPost2010Prop45
280
     0
102
RTVSPost2010PropOp45
 70
     1
102
RTVSPost2010Prop46
 90
       50
102
RTVSPost2010PropOp46
 70
     1
102
RTVSPost2010Prop47
 90
       50
102
RTVSPost2010PropOp47
 70
     1
102
RTVSPost2010Prop48
 90
       50
102
RTVSPost2010PropOp48
 70
     1
102
RTVSPost2010Prop49
280
     0
102
RTVSPost2010PropOp49
 70
     1
102
RTVSPost2010Prop50
 90
       50
102
RTVSPost2010PropOp50
 70
     1
102
RTVSPost2010Prop51ColorIndex
 90
      256
102
RTVSPost2010Prop51ColorRGB
 90
-16777216
102
RTVSPost2010PropOp51
 70
     0
102
RTVSPost2010Prop52
140
1.0
102
RTVSPost2010PropOp52
 70
     0
102
RTVSPost2010Prop53
 90
        2
102
RTVSPost2010PropOp53
 70
     1
102
RTVSPost2010Prop54
  1
strokes_ogs.tif
102
RTVSPost2010PropOp54
 70
     1
102
RTVSPost2010Prop55
280
     0
102
RTVSPost2010PropOp55
 70
     1
102
RTVSPost2010Prop56
140
1.0
102
RTVSPost2010PropOp56
 70
     1
102
RTVSPost2010Prop57
140
1.0
102
RTVSPost2010PropOp57
 70
     1
  0
XRECORD
  5
339
102
{ACAD_REACTORS
330
338
102
}
330
338
100
AcDbXrecord
280
     1
102
RTVSPropertyOp0
 70
     1
102
RTVSPropertyOp1
 70
     1
102
RTVSPropertyOp2
 70
     1
102
RTVSPropertyOp3
 70
     1
102
RTVSPropertyOp4
 70
     1
102
RTVSPropertyOp5
 70
     1
102
RTVSPropertyOp6
 70
     1
102
RTVSPropertyOp7
 70
     1
102
RTVSPropertyOp8
 70
     1
102
RTVSPropertyOp9
 70
     1
102
RTVSPropertyOp10
 70
     1
102
RTVSPropertyOp11
 70
     1
102
RTVSPropertyOp12
 70
     1
102
RTVSPropertyOp13
 70
     1
102
RTVSPropertyOp14
 70
     1
102
RTVSPropertyOp15
 70
     1
102
RTVSPropertyOp16
 70
     1
102
RTVSPropertyOp17
 70
     1
102
RTVSPropertyOp18
 70
     1
102
RTVSPropertyOp19
 70
     1
102
RTVSPropertyOp20
 70
     1
102
RTVSPropertyOp21
 70
     1
102
RTVSPropertyOp22
 70
     1
102
RTVSPropertyOp23
 70
     1
102
RTVSPropertyOp24
 70
     1
102
RTVSPropertyOp25
 70
     1
102
RTVSPropertyOp26
 70
     1
102
RTVSPropertyOp27
 70
     1
102
RTVSPropertyOp28
 70
     1
102
RTVSPropertyOp29
 70
     1
102
RTVSPropertyOp30
 70
     1
102
RTVSPropertyOp31
 70
     1
102
RTVSPropertyOp32
 70
     1
102
RTVSPropertyOp33
 70
     1
102
RTVSPropertyOp34
 70
     1
102
RTVSPropertyOp35
 70
     1
102
RTVSPropertyOp36
 70
     1
102
RTVSPropertyOp37
 70
     1
102
RTVSPropertyOp38
 70
     1
102
RTVSPropertyOp39
 70
     1
102
RTVSPropertyOp40
 70
     1
102
RTVSPropertyOp41
 70
     1
102
RTVSPropertyOp42
 70
     1
102
RTVSPropertyOp43
 70
     1
102
RTVSPropertyOp44
 70
     1
102
RTVSPropertyOp45
 70
     1
102
RTVSPropertyOp46
 70
     1
102
RTVSPropertyOp47
 70
     1
102
RTVSPropertyOp48
 70
     1
102
RTVSPropertyOp49
 70
     1
102
RTVSPropertyOp50
 70
     1
102
RTVSPropertyOp51
 70
     0
102
RTVSPropertyOp52
 70
     0
102
RTVSPropertyOp53
 70
     1
102
RTVSPropertyOp54
 70
     1
102
RTVSPropertyOp55
 70
     1
102
RTVSPropertyOp56
 70
     1
102
RTVSPropertyOp57
 70
     1
102
RTVSPost2010Prop28
280
     0
102
RTVSPost2010PropOp28
 70
     1
102
RTVSPost2010Prop29
280
     1
102
RTVSPost2010PropOp29
 70
     1
102
RTVSPost2010Prop30
280
     1
102
RTVSPost2010PropOp30
 70
     1
102
RTVSPost2010Prop31
280
     0
102
RTVSPost2010PropOp31
 70
     1
102
RTVSPost2010Prop32
280
     0
102
RTVSPost2010PropOp32
 70
     1
102
RTVSPost2010Prop33
280
     0
102
RTVSPost2010PropOp33
 70
     1
102
RTVSPost2010Prop34
280
     0
102
RTVSPost2010PropOp34
 70
     1
102
RTVSPost2010Prop35
280
     0
102
RTVSPost2010PropOp35
 70
     1
102
RTVSPost2010Prop36
280
     0
102
RTVSPost2010PropOp36
 70
     1
102
RTVSPost2010Prop37
 90
       50
102
RTVSPost2010PropOp37
 70
     1
102
RTVSPost2010Prop38
140
0.0
102
RTVSPost2010PropOp38
 70
     1
102
RTVSPost2010Prop39
140
1.0
102
RTVSPost2010PropOp39
 70
     1
102
RTVSPost2010Prop40
 90
        0
102
RTVSPost2010PropOp40
 70
     1
102
RTVSPost2010Prop41ColorIndex
 90
      178
102
RTVSPost2010Prop41ColorRGB
 90
        0
102
RTVSPost2010PropOp41
 70
     1
102
RTVSPost2010Prop42
 90
       50
102
RTVSPost2010PropOp42
 70
     1
102
RTVSPost2010Prop43
 90
        3
102
RTVSPost2010PropOp43
 70
     1
102
RTVSPost2010Prop44ColorIndex
 90
        5
102
RTVSPost2010Prop44ColorRGB
 90
      255
102
RTVSPost2010PropOp44
 70
     1
102
RTVSPost2010Prop45
280
     0
102
RTVSPost2010PropOp45
 70
     1
102
RTVSPost2010Prop46
 90
       50
102
RTVSPost2010PropOp46
 70
     1
102
RTVSPost2010Prop47
 90
       50
102
RTVSPost2010PropOp47
 70
     1
102
RTVSPost2010Prop48
 90
       50
102
RTVSPost2010PropOp48
 70
     1
102
RTVSPost2010Prop49
280
     0
102
RTVSPost2010PropOp49
 70
     1
102
RTVSPost2010Prop50
 90
       50
102
RTVSPost2010PropOp50
 70
     1
102
RTVSPost2010Prop51ColorIndex
 90
      256
102
RTVSPost2010Prop51ColorRGB
 90
-16777216
102
RTVSPost2010PropOp51
 70
     0
102
RTVSPost2010Prop52
140
1.0
102
RTVSPost2010PropOp52
 70
     0
102
RTVSPost2010Prop53
 90
        2
102
RTVSPost2010PropOp53
 70
     1
102
RTVSPost2010Prop54
  1
strokes_ogs.tif
102
RTVSPost2010PropOp54
 70
     1
102
RTVSPost2010Prop55
280
     0
102
RTVSPost2010PropOp55
 70
     1
102
RTVSPost2010Prop56
140
1.0
102
RTVSPost2010PropOp56
 70
     1
102
RTVSPost2010Prop57
140
1.0
102
RTVSPost2010PropOp57
 70
     1
  0
XRECORD
  5
33B
102
{ACAD_REACTORS
330
33A
102
}
330
33A
100
AcDbXrecord
280
     1
102
RTVSPropertyOp0
 70
     1
102
RTVSPropertyOp1
 70
     1
102
RTVSPropertyOp2
 70
     1
102
RTVSPropertyOp3
 70
     1
102
RTVSPropertyOp4
 70
     1
102
RTVSPropertyOp5
 70
     1
102
RTVSPropertyOp6
 70
     1
102
RTVSPropertyOp7
 70
     1
102
RTVSPropertyOp8
 70
     1
102
RTVSPropertyOp9
 70
     1
102
RTVSPropertyOp10
 70
     1
102
RTVSPropertyOp11
 70
     1
102
RTVSPropertyOp12
 70
     1
102
RTVSPropertyOp13
 70
     1
102
RTVSPropertyOp14
 70
     1
102
RTVSPropertyOp15
 70
     1
102
RTVSPropertyOp16
 70
     1
102
RTVSPropertyOp17
 70
     1
102
RTVSPropertyOp18
 70
     1
102
RTVSPropertyOp19
 70
     1
102
RTVSPropertyOp20
 70
     1
102
RTVSPropertyOp21
 70
     1
102
RTVSPropertyOp22
 70
     1
102
RTVSPropertyOp23
 70
     1
102
RTVSPropertyOp24
 70
     1
102
RTVSPropertyOp25
 70
     1
102
RTVSPropertyOp26
 70
     1
102
RTVSPropertyOp27
 70
     1
102
RTVSPropertyOp28
 70
     1
102
RTVSPropertyOp29
 70
     1
102
RTVSPropertyOp30
 70
     1
102
RTVSPropertyOp31
 70
     1
102
RTVSPropertyOp32
 70
     1
102
RTVSPropertyOp33
 70
     1
102
RTVSPropertyOp34
 70
     1
102
RTVSPropertyOp35
 70
     1
102
RTVSPropertyOp36
 70
     1
102
RTVSPropertyOp37
 70
     1
102
RTVSPropertyOp38
 70
     1
102
RTVSPropertyOp39
 70
     1
102
RTVSPropertyOp40
 70
     1
102
RTVSPropertyOp41
 70
     1
102
RTVSPropertyOp42
 70
     1
102
RTVSPropertyOp43
 70
     1
102
RTVSPropertyOp44
 70
     1
102
RTVSPropertyOp45
 70
     1
102
RTVSPropertyOp46
 70
     1
102
RTVSPropertyOp47
 70
     1
102
RTVSPropertyOp48
 70
     1
102
RTVSPropertyOp49
 70
     1
102
RTVSPropertyOp50
 70
     1
102
RTVSPropertyOp51
 70
     0
102
RTVSPropertyOp52
 70
     0
102
RTVSPropertyOp53
 70
     1
102
RTVSPropertyOp54
 70
     1
102
RTVSPropertyOp55
 70
     1
102
RTVSPropertyOp56
 70
     1
102
RTVSPropertyOp57
 70
     1
102
RTVSPost2010Prop28
280
     0
102
RTVSPost2010PropOp28
 70
     1
102
RTVSPost2010Prop29
280
     1
102
RTVSPost2010PropOp29
 70
     1
102
RTVSPost2010Prop30
280
     1
102
RTVSPost2010PropOp30
 70
     1
102
RTVSPost2010Prop31
280
     0
102
RTVSPost2010PropOp31
 70
     1
102
RTVSPost2010Prop32
280
     0
102
RTVSPost2010PropOp32
 70
     1
102
RTVSPost2010Prop33
280
     0
102
RTVSPost2010PropOp33
 70
     1
102
RTVSPost2010Prop34
280
     0
102
RTVSPost2010PropOp34
 70
     1
102
RTVSPost2010Prop35
280
     0
102
RTVSPost2010PropOp35
 70
     1
102
RTVSPost2010Prop36
280
     0
102
RTVSPost2010PropOp36
 70
     1
102
RTVSPost2010Prop37
 90
       50
102
RTVSPost2010PropOp37
 70
     1
102
RTVSPost2010Prop38
140
0.0
102
RTVSPost2010PropOp38
 70
     1
102
RTVSPost2010Prop39
140
1.0
102
RTVSPost2010PropOp39
 70
     1
102
RTVSPost2010Prop40
 90
        0
102
RTVSPost2010PropOp40
 70
     1
102
RTVSPost2010Prop41ColorIndex
 90
      178
102
RTVSPost2010Prop41ColorRGB
 90
        0
102
RTVSPost2010PropOp41
 70
     1
102
RTVSPost2010Prop42
 90
       50
102
RTVSPost2010PropOp42
 70
     1
102
RTVSPost2010Prop43
 90
        3
102
RTVSPost2010PropOp43
 70
     1
102
RTVSPost2010Prop44ColorIndex
 90
        5
102
RTVSPost2010Prop44ColorRGB
 90
      255
102
RTVSPost2010PropOp44
 70
     1
102
RTVSPost2010Prop45
280
     0
102
RTVSPost2010PropOp45
 70
     1
102
RTVSPost2010Prop46
 90
       50
102
RTVSPost2010PropOp46
 70
     1
102
RTVSPost2010Prop47
 90
       50
102
RTVSPost2010PropOp47
 70
     1
102
RTVSPost2010Prop48
 90
       50
102
RTVSPost2010PropOp48
 70
     1
102
RTVSPost2010Prop49
280
     0
102
RTVSPost2010PropOp49
 70
     1
102
RTVSPost2010Prop50
 90
       50
102
RTVSPost2010PropOp50
 70
     1
102
RTVSPost2010Prop51ColorIndex
 90
      256
102
RTVSPost2010Prop51ColorRGB
 90
-16777216
102
RTVSPost2010PropOp51
 70
     0
102
RTVSPost2010Prop52
140
1.0
102
RTVSPost2010PropOp52
 70
     0
102
RTVSPost2010Prop53
 90
        2
102
RTVSPost2010PropOp53
 70
     1
102
RTVSPost2010Prop54
  1
strokes_ogs.tif
102
RTVSPost2010PropOp54
 70
     1
102
RTVSPost2010Prop55
280
     0
102
RTVSPost2010PropOp55
 70
     1
102
RTVSPost2010Prop56
140
1.0
102
RTVSPost2010PropOp56
 70
     1
102
RTVSPost2010Prop57
140
1.0
102
RTVSPost2010PropOp57
 70
     1
  0
XRECORD
  5
34B
102
{ACAD_REACTORS
330
34A
102
}
330
34A
100
AcDbXrecord
280
     1
102
RTVSPropertyOp0
 70
     0
102
RTVSPropertyOp1
 70
     0
102
RTVSPropertyOp2
 70
     0
102
RTVSPropertyOp3
 70
     0
102
RTVSPropertyOp4
 70
     0
102
RTVSPropertyOp5
 70
     0
102
RTVSPropertyOp6
 70
     0
102
RTVSPropertyOp7
 70
     0
102
RTVSPropertyOp8
 70
     0
102
RTVSPropertyOp9
 70
     0
102
RTVSPropertyOp10
 70
     0
102
RTVSPropertyOp11
 70
     0
102
RTVSPropertyOp12
 70
     0
102
RTVSPropertyOp13
 70
     0
102
RTVSPropertyOp14
 70
     2
102
RTVSPropertyOp15
 70
     0
102
RTVSPropertyOp16
 70
     0
102
RTVSPropertyOp17
 70
     0
102
RTVSPropertyOp18
 70
     0
102
RTVSPropertyOp19
 70
     0
102
RTVSPropertyOp20
 70
     0
102
RTVSPropertyOp21
 70
     0
102
RTVSPropertyOp22
 70
     0
102
RTVSPropertyOp23
 70
     0
102
RTVSPropertyOp24
 70
     0
102
RTVSPropertyOp25
 70
     0
102
RTVSPropertyOp26
 70
     0
102
RTVSPropertyOp27
 70
     0
102
RTVSPropertyOp28
 70
     0
102
RTVSPropertyOp29
 70
     0
102
RTVSPropertyOp30
 70
     0
102
RTVSPropertyOp31
 70
     0
102
RTVSPropertyOp32
 70
     0
102
RTVSPropertyOp33
 70
     0
102
RTVSPropertyOp34
 70
     0
102
RTVSPropertyOp35
 70
     0
102
RTVSPropertyOp36
 70
     0
102
RTVSPropertyOp37
 70
     0
102
RTVSPropertyOp38
 70
     0
102
RTVSPropertyOp39
 70
     0
102
RTVSPropertyOp40
 70
     0
102
RTVSPropertyOp41
 70
     0
102
RTVSPropertyOp42
 70
     0
102
RTVSPropertyOp43
 70
     0
102
RTVSPropertyOp44
 70
     0
102
RTVSPropertyOp45
 70
     0
102
RTVSPropertyOp46
 70
     0
102
RTVSPropertyOp47
 70
     0
102
RTVSPropertyOp48
 70
     0
102
RTVSPropertyOp49
 70
     0
102
RTVSPropertyOp50
 70
     0
102
RTVSPropertyOp51
 70
     0
102
RTVSPropertyOp52
 70
     0
102
RTVSPropertyOp53
 70
     0
102
RTVSPropertyOp54
 70
     0
102
RTVSPropertyOp55
 70
     0
102
RTVSPropertyOp56
 70
     0
102
RTVSPropertyOp57
 70
     0
102
RTVSPost2010Prop28
280
     0
102
RTVSPost2010PropOp28
 70
     0
102
RTVSPost2010Prop29
280
     1
102
RTVSPost2010PropOp29
 70
     0
102
RTVSPost2010Prop30
280
     1
102
RTVSPost2010PropOp30
 70
     0
102
RTVSPost2010Prop31
280
     0
102
RTVSPost2010PropOp31
 70
     0
102
RTVSPost2010Prop32
280
     0
102
RTVSPost2010PropOp32
 70
     0
102
RTVSPost2010Prop33
280
     0
102
RTVSPost2010PropOp33
 70
     0
102
RTVSPost2010Prop34
280
     0
102
RTVSPost2010PropOp34
 70
     0
102
RTVSPost2010Prop35
280
     0
102
RTVSPost2010PropOp35
 70
     0
102
RTVSPost2010Prop36
280
     0
102
RTVSPost2010PropOp36
 70
     0
102
RTVSPost2010Prop37
 90
       50
102
RTVSPost2010PropOp37
 70
     0
102
RTVSPost2010Prop38
140
0.0
102
RTVSPost2010PropOp38
 70
     0
102
RTVSPost2010Prop39
140
1.0
102
RTVSPost2010PropOp39
 70
     0
102
RTVSPost2010Prop40
 90
        0
102
RTVSPost2010PropOp40
 70
     0
102
RTVSPost2010Prop41ColorIndex
 90
      178
102
RTVSPost2010Prop41ColorRGB
 90
        0
102
RTVSPost2010PropOp41
 70
     0
102
RTVSPost2010Prop42
 90
       50
102
RTVSPost2010PropOp42
 70
     0
102
RTVSPost2010Prop43
 90
        3
102
RTVSPost2010PropOp43
 70
     0
102
RTVSPost2010Prop44ColorIndex
 90
        5
102
RTVSPost2010Prop44ColorRGB
 90
      255
102
RTVSPost2010PropOp44
 70
     0
102
RTVSPost2010Prop45
280
     0
102
RTVSPost2010PropOp45
 70
     0
102
RTVSPost2010Prop46
 90
       50
102
RTVSPost2010PropOp46
 70
     0
102
RTVSPost2010Prop47
 90
       50
102
RTVSPost2010PropOp47
 70
     0
102
RTVSPost2010Prop48
 90
       50
102
RTVSPost2010PropOp48
 70
     0
102
RTVSPost2010Prop49
280
     0
102
RTVSPost2010PropOp49
 70
     0
102
RTVSPost2010Prop50
 90
       50
102
RTVSPost2010PropOp50
 70
     0
102
RTVSPost2010Prop51ColorIndex
 90
      256
102
RTVSPost2010Prop51ColorRGB
 90
-16777216
102
RTVSPost2010PropOp51
 70
     0
102
RTVSPost2010Prop52
140
1.0
102
RTVSPost2010PropOp52
 70
     0
102
RTVSPost2010Prop53
 90
        2
102
RTVSPost2010PropOp53
 70
     0
102
RTVSPost2010Prop54
  1
strokes_ogs.tif
102
RTVSPost2010PropOp54
 70
     0
102
RTVSPost2010Prop55
280
     0
102
RTVSPost2010PropOp55
 70
     0
102
RTVSPost2010Prop56
140
1.0
102
RTVSPost2010PropOp56
 70
     0
102
RTVSPost2010Prop57
140
1.0
102
RTVSPost2010PropOp57
 70
     0
  0
XRECORD
  5
343
102
{ACAD_REACTORS
330
342
102
}
330
342
100
AcDbXrecord
280
     1
102
RTVSPropertyOp0
 70
     1
102
RTVSPropertyOp1
 70
     1
102
RTVSPropertyOp2
 70
     1
102
RTVSPropertyOp3
 70
     1
102
RTVSPropertyOp4
 70
     1
102
RTVSPropertyOp5
 70
     1
102
RTVSPropertyOp6
 70
     1
102
RTVSPropertyOp7
 70
     1
102
RTVSPropertyOp8
 70
     1
102
RTVSPropertyOp9
 70
     1
102
RTVSPropertyOp10
 70
     1
102
RTVSPropertyOp11
 70
     1
102
RTVSPropertyOp12
 70
     1
102
RTVSPropertyOp13
 70
     1
102
RTVSPropertyOp14
 70
     1
102
RTVSPropertyOp15
 70
     1
102
RTVSPropertyOp16
 70
     1
102
RTVSPropertyOp17
 70
     1
102
RTVSPropertyOp18
 70
     1
102
RTVSPropertyOp19
 70
     1
102
RTVSPropertyOp20
 70
     1
102
RTVSPropertyOp21
 70
     1
102
RTVSPropertyOp22
 70
     1
102
RTVSPropertyOp23
 70
     1
102
RTVSPropertyOp24
 70
     1
102
RTVSPropertyOp25
 70
     1
102
RTVSPropertyOp26
 70
     1
102
RTVSPropertyOp27
 70
     1
102
RTVSPropertyOp28
 70
     1
102
RTVSPropertyOp29
 70
     1
102
RTVSPropertyOp30
 70
     1
102
RTVSPropertyOp31
 70
     1
102
RTVSPropertyOp32
 70
     1
102
RTVSPropertyOp33
 70
     1
102
RTVSPropertyOp34
 70
     1
102
RTVSPropertyOp35
 70
     1
102
RTVSPropertyOp36
 70
     1
102
RTVSPropertyOp37
 70
     1
102
RTVSPropertyOp38
 70
     1
102
RTVSPropertyOp39
 70
     1
102
RTVSPropertyOp40
 70
     1
102
RTVSPropertyOp41
 70
     1
102
RTVSPropertyOp42
 70
     1
102
RTVSPropertyOp43
 70
     1
102
RTVSPropertyOp44
 70
     1
102
RTVSPropertyOp45
 70
     1
102
RTVSPropertyOp46
 70
     1
102
RTVSPropertyOp47
 70
     1
102
RTVSPropertyOp48
 70
     1
102
RTVSPropertyOp49
 70
     1
102
RTVSPropertyOp50
 70
     1
102
RTVSPropertyOp51
 70
     0
102
RTVSPropertyOp52
 70
     0
102
RTVSPropertyOp53
 70
     1
102
RTVSPropertyOp54
 70
     1
102
RTVSPropertyOp55
 70
     1
102
RTVSPropertyOp56
 70
     1
102
RTVSPropertyOp57
 70
     1
102
RTVSPost2010Prop28
280
     0
102
RTVSPost2010PropOp28
 70
     1
102
RTVSPost2010Prop29
280
     1
102
RTVSPost2010PropOp29
 70
     1
102
RTVSPost2010Prop30
280
     1
102
RTVSPost2010PropOp30
 70
     1
102
RTVSPost2010Prop31
280
     0
102
RTVSPost2010PropOp31
 70
     1
102
RTVSPost2010Prop32
280
     0
102
RTVSPost2010PropOp32
 70
     1
102
RTVSPost2010Prop33
280
     0
102
RTVSPost2010PropOp33
 70
     1
102
RTVSPost2010Prop34
280
     0
102
RTVSPost2010PropOp34
 70
     1
102
RTVSPost2010Prop35
280
     0
102
RTVSPost2010PropOp35
 70
     1
102
RTVSPost2010Prop36
280
     0
102
RTVSPost2010PropOp36
 70
     1
102
RTVSPost2010Prop37
 90
       50
102
RTVSPost2010PropOp37
 70
     1
102
RTVSPost2010Prop38
140
0.0
102
RTVSPost2010PropOp38
 70
     1
102
RTVSPost2010Prop39
140
1.0
102
RTVSPost2010PropOp39
 70
     1
102
RTVSPost2010Prop40
 90
        0
102
RTVSPost2010PropOp40
 70
     1
102
RTVSPost2010Prop41ColorIndex
 90
      178
102
RTVSPost2010Prop41ColorRGB
 90
        0
102
RTVSPost2010PropOp41
 70
     1
102
RTVSPost2010Prop42
 90
       50
102
RTVSPost2010PropOp42
 70
     1
102
RTVSPost2010Prop43
 90
        3
102
RTVSPost2010PropOp43
 70
     1
102
RTVSPost2010Prop44ColorIndex
 90
        5
102
RTVSPost2010Prop44ColorRGB
 90
      255
102
RTVSPost2010PropOp44
 70
     1
102
RTVSPost2010Prop45
280
     0
102
RTVSPost2010PropOp45
 70
     1
102
RTVSPost2010Prop46
 90
       50
102
RTVSPost2010PropOp46
 70
     1
102
RTVSPost2010Prop47
 90
       50
102
RTVSPost2010PropOp47
 70
     1
102
RTVSPost2010Prop48
 90
       50
102
RTVSPost2010PropOp48
 70
     1
102
RTVSPost2010Prop49
280
     0
102
RTVSPost2010PropOp49
 70
     1
102
RTVSPost2010Prop50
 90
       50
102
RTVSPost2010PropOp50
 70
     1
102
RTVSPost2010Prop51ColorIndex
 90
      256
102
RTVSPost2010Prop51ColorRGB
 90
-16777216
102
RTVSPost2010PropOp51
 70
     0
102
RTVSPost2010Prop52
140
1.0
102
RTVSPost2010PropOp52
 70
     0
102
RTVSPost2010Prop53
 90
        2
102
RTVSPost2010PropOp53
 70
     1
102
RTVSPost2010Prop54
  1
strokes_ogs.tif
102
RTVSPost2010PropOp54
 70
     1
102
RTVSPost2010Prop55
280
     0
102
RTVSPost2010PropOp55
 70
     1
102
RTVSPost2010Prop56
140
1.0
102
RTVSPost2010PropOp56
 70
     1
102
RTVSPost2010Prop57
140
1.0
102
RTVSPost2010PropOp57
 70
     1
  0
XRECORD
  5
327
102
{ACAD_REACTORS
330
326
102
}
330
326
100
AcDbXrecord
280
     1
102
RTVSPropertyOp0
 70
     1
102
RTVSPropertyOp1
 70
     1
102
RTVSPropertyOp2
 70
     1
102
RTVSPropertyOp3
 70
     1
102
RTVSPropertyOp4
 70
     1
102
RTVSPropertyOp5
 70
     1
102
RTVSPropertyOp6
 70
     1
102
RTVSPropertyOp7
 70
     1
102
RTVSPropertyOp8
 70
     1
102
RTVSPropertyOp9
 70
     1
102
RTVSPropertyOp10
 70
     1
102
RTVSPropertyOp11
 70
     1
102
RTVSPropertyOp12
 70
     1
102
RTVSPropertyOp13
 70
     1
102
RTVSPropertyOp14
 70
     1
102
RTVSPropertyOp15
 70
     1
102
RTVSPropertyOp16
 70
     1
102
RTVSPropertyOp17
 70
     1
102
RTVSPropertyOp18
 70
     1
102
RTVSPropertyOp19
 70
     1
102
RTVSPropertyOp20
 70
     1
102
RTVSPropertyOp21
 70
     1
102
RTVSPropertyOp22
 70
     1
102
RTVSPropertyOp23
 70
     1
102
RTVSPropertyOp24
 70
     1
102
RTVSPropertyOp25
 70
     1
102
RTVSPropertyOp26
 70
     1
102
RTVSPropertyOp27
 70
     1
102
RTVSPropertyOp28
 70
     1
102
RTVSPropertyOp29
 70
     1
102
RTVSPropertyOp30
 70
     1
102
RTVSPropertyOp31
 70
     1
102
RTVSPropertyOp32
 70
     1
102
RTVSPropertyOp33
 70
     1
102
RTVSPropertyOp34
 70
     1
102
RTVSPropertyOp35
 70
     1
102
RTVSPropertyOp36
 70
     1
102
RTVSPropertyOp37
 70
     1
102
RTVSPropertyOp38
 70
     1
102
RTVSPropertyOp39
 70
     1
102
RTVSPropertyOp40
 70
     1
102
RTVSPropertyOp41
 70
     1
102
RTVSPropertyOp42
 70
     1
102
RTVSPropertyOp43
 70
     1
102
RTVSPropertyOp44
 70
     1
102
RTVSPropertyOp45
 70
     1
102
RTVSPropertyOp46
 70
     1
102
RTVSPropertyOp47
 70
     1
102
RTVSPropertyOp48
 70
     1
102
RTVSPropertyOp49
 70
     1
102
RTVSPropertyOp50
 70
     1
102
RTVSPropertyOp51
 70
     0
102
RTVSPropertyOp52
 70
     0
102
RTVSPropertyOp53
 70
     1
102
RTVSPropertyOp54
 70
     1
102
RTVSPropertyOp55
 70
     1
102
RTVSPropertyOp56
 70
     1
102
RTVSPropertyOp57
 70
     1
102
RTVSPost2010Prop28
280
     0
102
RTVSPost2010PropOp28
 70
     1
102
RTVSPost2010Prop29
280
     1
102
RTVSPost2010PropOp29
 70
     1
102
RTVSPost2010Prop30
280
     1
102
RTVSPost2010PropOp30
 70
     1
102
RTVSPost2010Prop31
280
     0
102
RTVSPost2010PropOp31
 70
     1
102
RTVSPost2010Prop32
280
     0
102
RTVSPost2010PropOp32
 70
     1
102
RTVSPost2010Prop33
280
     0
102
RTVSPost2010PropOp33
 70
     1
102
RTVSPost2010Prop34
280
     0
102
RTVSPost2010PropOp34
 70
     1
102
RTVSPost2010Prop35
280
     0
102
RTVSPost2010PropOp35
 70
     1
102
RTVSPost2010Prop36
280
     0
102
RTVSPost2010PropOp36
 70
     1
102
RTVSPost2010Prop37
 90
       50
102
RTVSPost2010PropOp37
 70
     1
102
RTVSPost2010Prop38
140
0.0
102
RTVSPost2010PropOp38
 70
     1
102
RTVSPost2010Prop39
140
1.0
102
RTVSPost2010PropOp39
 70
     1
102
RTVSPost2010Prop40
 90
        0
102
RTVSPost2010PropOp40
 70
     1
102
RTVSPost2010Prop41ColorIndex
 90
      178
102
RTVSPost2010Prop41ColorRGB
 90
        0
102
RTVSPost2010PropOp41
 70
     1
102
RTVSPost2010Prop42
 90
       50
102
RTVSPost2010PropOp42
 70
     1
102
RTVSPost2010Prop43
 90
        3
102
RTVSPost2010PropOp43
 70
     1
102
RTVSPost2010Prop44ColorIndex
 90
        5
102
RTVSPost2010Prop44ColorRGB
 90
      255
102
RTVSPost2010PropOp44
 70
     1
102
RTVSPost2010Prop45
280
     0
102
RTVSPost2010PropOp45
 70
     1
102
RTVSPost2010Prop46
 90
       50
102
RTVSPost2010PropOp46
 70
     1
102
RTVSPost2010Prop47
 90
       50
102
RTVSPost2010PropOp47
 70
     1
102
RTVSPost2010Prop48
 90
       50
102
RTVSPost2010PropOp48
 70
     1
102
RTVSPost2010Prop49
280
     0
102
RTVSPost2010PropOp49
 70
     1
102
RTVSPost2010Prop50
 90
       50
102
RTVSPost2010PropOp50
 70
     1
102
RTVSPost2010Prop51ColorIndex
 90
      256
102
RTVSPost2010Prop51ColorRGB
 90
-16777216
102
RTVSPost2010PropOp51
 70
     0
102
RTVSPost2010Prop52
140
1.0
102
RTVSPost2010PropOp52
 70
     0
102
RTVSPost2010Prop53
 90
        2
102
RTVSPost2010PropOp53
 70
     1
102
RTVSPost2010Prop54
  1
strokes_ogs.tif
102
RTVSPost2010PropOp54
 70
     1
102
RTVSPost2010Prop55
280
     0
102
RTVSPost2010PropOp55
 70
     1
102
RTVSPost2010Prop56
140
1.0
102
RTVSPost2010PropOp56
 70
     1
102
RTVSPost2010Prop57
140
1.0
102
RTVSPost2010PropOp57
 70
     1
  0
XRECORD
  5
329
102
{ACAD_REACTORS
330
328
102
}
330
328
100
AcDbXrecord
280
     1
102
RTVSPropertyOp0
 70
     1
102
RTVSPropertyOp1
 70
     1
102
RTVSPropertyOp2
 70
     1
102
RTVSPropertyOp3
 70
     1
102
RTVSPropertyOp4
 70
     1
102
RTVSPropertyOp5
 70
     1
102
RTVSPropertyOp6
 70
     1
102
RTVSPropertyOp7
 70
     1
102
RTVSPropertyOp8
 70
     1
102
RTVSPropertyOp9
 70
     1
102
RTVSPropertyOp10
 70
     1
102
RTVSPropertyOp11
 70
     1
102
RTVSPropertyOp12
 70
     1
102
RTVSPropertyOp13
 70
     1
102
RTVSPropertyOp14
 70
     1
102
RTVSPropertyOp15
 70
     1
102
RTVSPropertyOp16
 70
     1
102
RTVSPropertyOp17
 70
     1
102
RTVSPropertyOp18
 70
     1
102
RTVSPropertyOp19
 70
     1
102
RTVSPropertyOp20
 70
     1
102
RTVSPropertyOp21
 70
     1
102
RTVSPropertyOp22
 70
     1
102
RTVSPropertyOp23
 70
     1
102
RTVSPropertyOp24
 70
     1
102
RTVSPropertyOp25
 70
     1
102
RTVSPropertyOp26
 70
     1
102
RTVSPropertyOp27
 70
     1
102
RTVSPropertyOp28
 70
     1
102
RTVSPropertyOp29
 70
     1
102
RTVSPropertyOp30
 70
     1
102
RTVSPropertyOp31
 70
     1
102
RTVSPropertyOp32
 70
     1
102
RTVSPropertyOp33
 70
     1
102
RTVSPropertyOp34
 70
     1
102
RTVSPropertyOp35
 70
     1
102
RTVSPropertyOp36
 70
     1
102
RTVSPropertyOp37
 70
     1
102
RTVSPropertyOp38
 70
     1
102
RTVSPropertyOp39
 70
     1
102
RTVSPropertyOp40
 70
     1
102
RTVSPropertyOp41
 70
     1
102
RTVSPropertyOp42
 70
     1
102
RTVSPropertyOp43
 70
     1
102
RTVSPropertyOp44
 70
     1
102
RTVSPropertyOp45
 70
     1
102
RTVSPropertyOp46
 70
     1
102
RTVSPropertyOp47
 70
     1
102
RTVSPropertyOp48
 70
     1
102
RTVSPropertyOp49
 70
     1
102
RTVSPropertyOp50
 70
     1
102
RTVSPropertyOp51
 70
     0
102
RTVSPropertyOp52
 70
     0
102
RTVSPropertyOp53
 70
     1
102
RTVSPropertyOp54
 70
     1
102
RTVSPropertyOp55
 70
     1
102
RTVSPropertyOp56
 70
     1
102
RTVSPropertyOp57
 70
     1
102
RTVSPost2010Prop28
280
     0
102
RTVSPost2010PropOp28
 70
     1
102
RTVSPost2010Prop29
280
     1
102
RTVSPost2010PropOp29
 70
     1
102
RTVSPost2010Prop30
280
     1
102
RTVSPost2010PropOp30
 70
     1
102
RTVSPost2010Prop31
280
     0
102
RTVSPost2010PropOp31
 70
     1
102
RTVSPost2010Prop32
280
     0
102
RTVSPost2010PropOp32
 70
     1
102
RTVSPost2010Prop33
280
     0
102
RTVSPost2010PropOp33
 70
     1
102
RTVSPost2010Prop34
280
     0
102
RTVSPost2010PropOp34
 70
     1
102
RTVSPost2010Prop35
280
     0
102
RTVSPost2010PropOp35
 70
     1
102
RTVSPost2010Prop36
280
     0
102
RTVSPost2010PropOp36
 70
     1
102
RTVSPost2010Prop37
 90
       50
102
RTVSPost2010PropOp37
 70
     1
102
RTVSPost2010Prop38
140
0.0
102
RTVSPost2010PropOp38
 70
     1
102
RTVSPost2010Prop39
140
1.0
102
RTVSPost2010PropOp39
 70
     1
102
RTVSPost2010Prop40
 90
        0
102
RTVSPost2010PropOp40
 70
     1
102
RTVSPost2010Prop41ColorIndex
 90
      178
102
RTVSPost2010Prop41ColorRGB
 90
        0
102
RTVSPost2010PropOp41
 70
     1
102
RTVSPost2010Prop42
 90
       50
102
RTVSPost2010PropOp42
 70
     1
102
RTVSPost2010Prop43
 90
        3
102
RTVSPost2010PropOp43
 70
     1
102
RTVSPost2010Prop44ColorIndex
 90
        5
102
RTVSPost2010Prop44ColorRGB
 90
      255
102
RTVSPost2010PropOp44
 70
     1
102
RTVSPost2010Prop45
280
     0
102
RTVSPost2010PropOp45
 70
     1
102
RTVSPost2010Prop46
 90
       50
102
RTVSPost2010PropOp46
 70
     1
102
RTVSPost2010Prop47
 90
       50
102
RTVSPost2010PropOp47
 70
     1
102
RTVSPost2010Prop48
 90
       50
102
RTVSPost2010PropOp48
 70
     1
102
RTVSPost2010Prop49
280
     0
102
RTVSPost2010PropOp49
 70
     1
102
RTVSPost2010Prop50
 90
       50
102
RTVSPost2010PropOp50
 70
     1
102
RTVSPost2010Prop51ColorIndex
 90
      256
102
RTVSPost2010Prop51ColorRGB
 90
-16777216
102
RTVSPost2010PropOp51
 70
     0
102
RTVSPost2010Prop52
140
1.0
102
RTVSPost2010PropOp52
 70
     0
102
RTVSPost2010Prop53
 90
        2
102
RTVSPost2010PropOp53
 70
     1
102
RTVSPost2010Prop54
  1
strokes_ogs.tif
102
RTVSPost2010PropOp54
 70
     1
102
RTVSPost2010Prop55
280
     0
102
RTVSPost2010PropOp55
 70
     1
102
RTVSPost2010Prop56
140
1.0
102
RTVSPost2010PropOp56
 70
     1
102
RTVSPost2010Prop57
140
1.0
102
RTVSPost2010PropOp57
 70
     1
  0
XRECORD
  5
32B
102
{ACAD_REACTORS
330
32A
102
}
330
32A
100
AcDbXrecord
280
     1
102
RTVSPropertyOp0
 70
     1
102
RTVSPropertyOp1
 70
     1
102
RTVSPropertyOp2
 70
     1
102
RTVSPropertyOp3
 70
     1
102
RTVSPropertyOp4
 70
     1
102
RTVSPropertyOp5
 70
     1
102
RTVSPropertyOp6
 70
     1
102
RTVSPropertyOp7
 70
     1
102
RTVSPropertyOp8
 70
     1
102
RTVSPropertyOp9
 70
     1
102
RTVSPropertyOp10
 70
     1
102
RTVSPropertyOp11
 70
     1
102
RTVSPropertyOp12
 70
     1
102
RTVSPropertyOp13
 70
     1
102
RTVSPropertyOp14
 70
     1
102
RTVSPropertyOp15
 70
     1
102
RTVSPropertyOp16
 70
     1
102
RTVSPropertyOp17
 70
     1
102
RTVSPropertyOp18
 70
     1
102
RTVSPropertyOp19
 70
     1
102
RTVSPropertyOp20
 70
     1
102
RTVSPropertyOp21
 70
     1
102
RTVSPropertyOp22
 70
     1
102
RTVSPropertyOp23
 70
     1
102
RTVSPropertyOp24
 70
     1
102
RTVSPropertyOp25
 70
     1
102
RTVSPropertyOp26
 70
     1
102
RTVSPropertyOp27
 70
     1
102
RTVSPropertyOp28
 70
     1
102
RTVSPropertyOp29
 70
     1
102
RTVSPropertyOp30
 70
     1
102
RTVSPropertyOp31
 70
     1
102
RTVSPropertyOp32
 70
     1
102
RTVSPropertyOp33
 70
     1
102
RTVSPropertyOp34
 70
     1
102
RTVSPropertyOp35
 70
     1
102
RTVSPropertyOp36
 70
     1
102
RTVSPropertyOp37
 70
     1
102
RTVSPropertyOp38
 70
     1
102
RTVSPropertyOp39
 70
     1
102
RTVSPropertyOp40
 70
     1
102
RTVSPropertyOp41
 70
     1
102
RTVSPropertyOp42
 70
     1
102
RTVSPropertyOp43
 70
     1
102
RTVSPropertyOp44
 70
     1
102
RTVSPropertyOp45
 70
     1
102
RTVSPropertyOp46
 70
     1
102
RTVSPropertyOp47
 70
     1
102
RTVSPropertyOp48
 70
     1
102
RTVSPropertyOp49
 70
     1
102
RTVSPropertyOp50
 70
     1
102
RTVSPropertyOp51
 70
     0
102
RTVSPropertyOp52
 70
     0
102
RTVSPropertyOp53
 70
     1
102
RTVSPropertyOp54
 70
     1
102
RTVSPropertyOp55
 70
     1
102
RTVSPropertyOp56
 70
     1
102
RTVSPropertyOp57
 70
     1
102
RTVSPost2010Prop28
280
     0
102
RTVSPost2010PropOp28
 70
     1
102
RTVSPost2010Prop29
280
     1
102
RTVSPost2010PropOp29
 70
     1
102
RTVSPost2010Prop30
280
     1
102
RTVSPost2010PropOp30
 70
     1
102
RTVSPost2010Prop31
280
     0
102
RTVSPost2010PropOp31
 70
     1
102
RTVSPost2010Prop32
280
     0
102
RTVSPost2010PropOp32
 70
     1
102
RTVSPost2010Prop33
280
     0
102
RTVSPost2010PropOp33
 70
     1
102
RTVSPost2010Prop34
280
     0
102
RTVSPost2010PropOp34
 70
     1
102
RTVSPost2010Prop35
280
     0
102
RTVSPost2010PropOp35
 70
     1
102
RTVSPost2010Prop36
280
     0
102
RTVSPost2010PropOp36
 70
     1
102
RTVSPost2010Prop37
 90
       50
102
RTVSPost2010PropOp37
 70
     1
102
RTVSPost2010Prop38
140
0.0
102
RTVSPost2010PropOp38
 70
     1
102
RTVSPost2010Prop39
140
1.0
102
RTVSPost2010PropOp39
 70
     1
102
RTVSPost2010Prop40
 90
        0
102
RTVSPost2010PropOp40
 70
     1
102
RTVSPost2010Prop41ColorIndex
 90
      178
102
RTVSPost2010Prop41ColorRGB
 90
        0
102
RTVSPost2010PropOp41
 70
     1
102
RTVSPost2010Prop42
 90
       50
102
RTVSPost2010PropOp42
 70
     1
102
RTVSPost2010Prop43
 90
        3
102
RTVSPost2010PropOp43
 70
     1
102
RTVSPost2010Prop44ColorIndex
 90
        5
102
RTVSPost2010Prop44ColorRGB
 90
      255
102
RTVSPost2010PropOp44
 70
     1
102
RTVSPost2010Prop45
280
     0
102
RTVSPost2010PropOp45
 70
     1
102
RTVSPost2010Prop46
 90
       50
102
RTVSPost2010PropOp46
 70
     1
102
RTVSPost2010Prop47
 90
       50
102
RTVSPost2010PropOp47
 70
     1
102
RTVSPost2010Prop48
 90
       50
102
RTVSPost2010PropOp48
 70
     1
102
RTVSPost2010Prop49
280
     0
102
RTVSPost2010PropOp49
 70
     1
102
RTVSPost2010Prop50
 90
       50
102
RTVSPost2010PropOp50
 70
     1
102
RTVSPost2010Prop51ColorIndex
 90
      256
102
RTVSPost2010Prop51ColorRGB
 90
-16777216
102
RTVSPost2010PropOp51
 70
     0
102
RTVSPost2010Prop52
140
1.0
102
RTVSPost2010PropOp52
 70
     0
102
RTVSPost2010Prop53
 90
        2
102
RTVSPost2010PropOp53
 70
     1
102
RTVSPost2010Prop54
  1
strokes_ogs.tif
102
RTVSPost2010PropOp54
 70
     1
102
RTVSPost2010Prop55
280
     0
102
RTVSPost2010PropOp55
 70
     1
102
RTVSPost2010Prop56
140
1.0
102
RTVSPost2010PropOp56
 70
     1
102
RTVSPost2010Prop57
140
1.0
102
RTVSPost2010PropOp57
 70
     1
  0
XRECORD
  5
32D
102
{ACAD_REACTORS
330
32C
102
}
330
32C
100
AcDbXrecord
280
     1
102
RTVSPropertyOp0
 70
     1
102
RTVSPropertyOp1
 70
     1
102
RTVSPropertyOp2
 70
     1
102
RTVSPropertyOp3
 70
     1
102
RTVSPropertyOp4
 70
     1
102
RTVSPropertyOp5
 70
     1
102
RTVSPropertyOp6
 70
     1
102
RTVSPropertyOp7
 70
     1
102
RTVSPropertyOp8
 70
     1
102
RTVSPropertyOp9
 70
     1
102
RTVSPropertyOp10
 70
     1
102
RTVSPropertyOp11
 70
     1
102
RTVSPropertyOp12
 70
     1
102
RTVSPropertyOp13
 70
     1
102
RTVSPropertyOp14
 70
     1
102
RTVSPropertyOp15
 70
     1
102
RTVSPropertyOp16
 70
     1
102
RTVSPropertyOp17
 70
     1
102
RTVSPropertyOp18
 70
     1
102
RTVSPropertyOp19
 70
     1
102
RTVSPropertyOp20
 70
     1
102
RTVSPropertyOp21
 70
     1
102
RTVSPropertyOp22
 70
     1
102
RTVSPropertyOp23
 70
     1
102
RTVSPropertyOp24
 70
     1
102
RTVSPropertyOp25
 70
     1
102
RTVSPropertyOp26
 70
     1
102
RTVSPropertyOp27
 70
     1
102
RTVSPropertyOp28
 70
     1
102
RTVSPropertyOp29
 70
     1
102
RTVSPropertyOp30
 70
     1
102
RTVSPropertyOp31
 70
     1
102
RTVSPropertyOp32
 70
     1
102
RTVSPropertyOp33
 70
     1
102
RTVSPropertyOp34
 70
     1
102
RTVSPropertyOp35
 70
     1
102
RTVSPropertyOp36
 70
     1
102
RTVSPropertyOp37
 70
     1
102
RTVSPropertyOp38
 70
     1
102
RTVSPropertyOp39
 70
     1
102
RTVSPropertyOp40
 70
     1
102
RTVSPropertyOp41
 70
     1
102
RTVSPropertyOp42
 70
     1
102
RTVSPropertyOp43
 70
     1
102
RTVSPropertyOp44
 70
     1
102
RTVSPropertyOp45
 70
     1
102
RTVSPropertyOp46
 70
     1
102
RTVSPropertyOp47
 70
     1
102
RTVSPropertyOp48
 70
     1
102
RTVSPropertyOp49
 70
     1
102
RTVSPropertyOp50
 70
     1
102
RTVSPropertyOp51
 70
     0
102
RTVSPropertyOp52
 70
     0
102
RTVSPropertyOp53
 70
     1
102
RTVSPropertyOp54
 70
     1
102
RTVSPropertyOp55
 70
     1
102
RTVSPropertyOp56
 70
     1
102
RTVSPropertyOp57
 70
     1
102
RTVSPost2010Prop28
280
     0
102
RTVSPost2010PropOp28
 70
     1
102
RTVSPost2010Prop29
280
     1
102
RTVSPost2010PropOp29
 70
     1
102
RTVSPost2010Prop30
280
     1
102
RTVSPost2010PropOp30
 70
     1
102
RTVSPost2010Prop31
280
     0
102
RTVSPost2010PropOp31
 70
     1
102
RTVSPost2010Prop32
280
     0
102
RTVSPost2010PropOp32
 70
     1
102
RTVSPost2010Prop33
280
     0
102
RTVSPost2010PropOp33
 70
     1
102
RTVSPost2010Prop34
280
     0
102
RTVSPost2010PropOp34
 70
     1
102
RTVSPost2010Prop35
280
     0
102
RTVSPost2010PropOp35
 70
     1
102
RTVSPost2010Prop36
280
     0
102
RTVSPost2010PropOp36
 70
     1
102
RTVSPost2010Prop37
 90
       50
102
RTVSPost2010PropOp37
 70
     1
102
RTVSPost2010Prop38
140
0.0
102
RTVSPost2010PropOp38
 70
     1
102
RTVSPost2010Prop39
140
1.0
102
RTVSPost2010PropOp39
 70
     1
102
RTVSPost2010Prop40
 90
        0
102
RTVSPost2010PropOp40
 70
     1
102
RTVSPost2010Prop41ColorIndex
 90
      178
102
RTVSPost2010Prop41ColorRGB
 90
        0
102
RTVSPost2010PropOp41
 70
     1
102
RTVSPost2010Prop42
 90
       50
102
RTVSPost2010PropOp42
 70
     1
102
RTVSPost2010Prop43
 90
        3
102
RTVSPost2010PropOp43
 70
     1
102
RTVSPost2010Prop44ColorIndex
 90
        5
102
RTVSPost2010Prop44ColorRGB
 90
      255
102
RTVSPost2010PropOp44
 70
     1
102
RTVSPost2010Prop45
280
     0
102
RTVSPost2010PropOp45
 70
     1
102
RTVSPost2010Prop46
 90
       50
102
RTVSPost2010PropOp46
 70
     1
102
RTVSPost2010Prop47
 90
       50
102
RTVSPost2010PropOp47
 70
     1
102
RTVSPost2010Prop48
 90
       50
102
RTVSPost2010PropOp48
 70
     1
102
RTVSPost2010Prop49
280
     0
102
RTVSPost2010PropOp49
 70
     1
102
RTVSPost2010Prop50
 90
       50
102
RTVSPost2010PropOp50
 70
     1
102
RTVSPost2010Prop51ColorIndex
 90
      256
102
RTVSPost2010Prop51ColorRGB
 90
-16777216
102
RTVSPost2010PropOp51
 70
     0
102
RTVSPost2010Prop52
140
1.0
102
RTVSPost2010PropOp52
 70
     0
102
RTVSPost2010Prop53
 90
        2
102
RTVSPost2010PropOp53
 70
     1
102
RTVSPost2010Prop54
  1
strokes_ogs.tif
102
RTVSPost2010PropOp54
 70
     1
102
RTVSPost2010Prop55
280
     0
102
RTVSPost2010PropOp55
 70
     1
102
RTVSPost2010Prop56
140
1.0
102
RTVSPost2010PropOp56
 70
     1
102
RTVSPost2010Prop57
140
1.0
102
RTVSPost2010PropOp57
 70
     1
  0
XRECORD
  5
333
102
{ACAD_REACTORS
330
332
102
}
330
332
100
AcDbXrecord
280
     1
102
RTVSPropertyOp0
 70
     1
102
RTVSPropertyOp1
 70
     1
102
RTVSPropertyOp2
 70
     1
102
RTVSPropertyOp3
 70
     1
102
RTVSPropertyOp4
 70
     1
102
RTVSPropertyOp5
 70
     1
102
RTVSPropertyOp6
 70
     1
102
RTVSPropertyOp7
 70
     1
102
RTVSPropertyOp8
 70
     1
102
RTVSPropertyOp9
 70
     1
102
RTVSPropertyOp10
 70
     1
102
RTVSPropertyOp11
 70
     1
102
RTVSPropertyOp12
 70
     1
102
RTVSPropertyOp13
 70
     1
102
RTVSPropertyOp14
 70
     1
102
RTVSPropertyOp15
 70
     1
102
RTVSPropertyOp16
 70
     1
102
RTVSPropertyOp17
 70
     1
102
RTVSPropertyOp18
 70
     1
102
RTVSPropertyOp19
 70
     1
102
RTVSPropertyOp20
 70
     1
102
RTVSPropertyOp21
 70
     1
102
RTVSPropertyOp22
 70
     1
102
RTVSPropertyOp23
 70
     1
102
RTVSPropertyOp24
 70
     1
102
RTVSPropertyOp25
 70
     1
102
RTVSPropertyOp26
 70
     1
102
RTVSPropertyOp27
 70
     1
102
RTVSPropertyOp28
 70
     1
102
RTVSPropertyOp29
 70
     1
102
RTVSPropertyOp30
 70
     1
102
RTVSPropertyOp31
 70
     1
102
RTVSPropertyOp32
 70
     1
102
RTVSPropertyOp33
 70
     1
102
RTVSPropertyOp34
 70
     1
102
RTVSPropertyOp35
 70
     1
102
RTVSPropertyOp36
 70
     1
102
RTVSPropertyOp37
 70
     1
102
RTVSPropertyOp38
 70
     1
102
RTVSPropertyOp39
 70
     1
102
RTVSPropertyOp40
 70
     1
102
RTVSPropertyOp41
 70
     1
102
RTVSPropertyOp42
 70
     1
102
RTVSPropertyOp43
 70
     1
102
RTVSPropertyOp44
 70
     1
102
RTVSPropertyOp45
 70
     1
102
RTVSPropertyOp46
 70
     1
102
RTVSPropertyOp47
 70
     1
102
RTVSPropertyOp48
 70
     1
102
RTVSPropertyOp49
 70
     1
102
RTVSPropertyOp50
 70
     1
102
RTVSPropertyOp51
 70
     0
102
RTVSPropertyOp52
 70
     0
102
RTVSPropertyOp53
 70
     1
102
RTVSPropertyOp54
 70
     1
102
RTVSPropertyOp55
 70
     1
102
RTVSPropertyOp56
 70
     1
102
RTVSPropertyOp57
 70
     1
102
RTVSPost2010Prop28
280
     0
102
RTVSPost2010PropOp28
 70
     1
102
RTVSPost2010Prop29
280
     1
102
RTVSPost2010PropOp29
 70
     1
102
RTVSPost2010Prop30
280
     1
102
RTVSPost2010PropOp30
 70
     1
102
RTVSPost2010Prop31
280
     0
102
RTVSPost2010PropOp31
 70
     1
102
RTVSPost2010Prop32
280
     0
102
RTVSPost2010PropOp32
 70
     1
102
RTVSPost2010Prop33
280
     0
102
RTVSPost2010PropOp33
 70
     1
102
RTVSPost2010Prop34
280
     0
102
RTVSPost2010PropOp34
 70
     1
102
RTVSPost2010Prop35
280
     0
102
RTVSPost2010PropOp35
 70
     1
102
RTVSPost2010Prop36
280
     0
102
RTVSPost2010PropOp36
 70
     1
102
RTVSPost2010Prop37
 90
       50
102
RTVSPost2010PropOp37
 70
     1
102
RTVSPost2010Prop38
140
0.0
102
RTVSPost2010PropOp38
 70
     1
102
RTVSPost2010Prop39
140
1.0
102
RTVSPost2010PropOp39
 70
     1
102
RTVSPost2010Prop40
 90
        0
102
RTVSPost2010PropOp40
 70
     1
102
RTVSPost2010Prop41ColorIndex
 90
      178
102
RTVSPost2010Prop41ColorRGB
 90
        0
102
RTVSPost2010PropOp41
 70
     1
102
RTVSPost2010Prop42
 90
       50
102
RTVSPost2010PropOp42
 70
     1
102
RTVSPost2010Prop43
 90
        3
102
RTVSPost2010PropOp43
 70
     1
102
RTVSPost2010Prop44ColorIndex
 90
        5
102
RTVSPost2010Prop44ColorRGB
 90
      255
102
RTVSPost2010PropOp44
 70
     1
102
RTVSPost2010Prop45
280
     0
102
RTVSPost2010PropOp45
 70
     1
102
RTVSPost2010Prop46
 90
       50
102
RTVSPost2010PropOp46
 70
     1
102
RTVSPost2010Prop47
 90
       50
102
RTVSPost2010PropOp47
 70
     1
102
RTVSPost2010Prop48
 90
       50
102
RTVSPost2010PropOp48
 70
     1
102
RTVSPost2010Prop49
280
     0
102
RTVSPost2010PropOp49
 70
     1
102
RTVSPost2010Prop50
 90
       50
102
RTVSPost2010PropOp50
 70
     1
102
RTVSPost2010Prop51ColorIndex
 90
      256
102
RTVSPost2010Prop51ColorRGB
 90
-16777216
102
RTVSPost2010PropOp51
 70
     0
102
RTVSPost2010Prop52
140
1.0
102
RTVSPost2010PropOp52
 70
     0
102
RTVSPost2010Prop53
 90
        2
102
RTVSPost2010PropOp53
 70
     1
102
RTVSPost2010Prop54
  1
strokes_ogs.tif
102
RTVSPost2010PropOp54
 70
     1
102
RTVSPost2010Prop55
280
     0
102
RTVSPost2010PropOp55
 70
     1
102
RTVSPost2010Prop56
140
1.0
102
RTVSPost2010PropOp56
 70
     1
102
RTVSPost2010Prop57
140
1.0
102
RTVSPost2010PropOp57
 70
     1
  0
XRECORD
  5
347
102
{ACAD_REACTORS
330
346
102
}
330
346
100
AcDbXrecord
280
     1
102
RTVSPropertyOp0
 70
     0
102
RTVSPropertyOp1
 70
     0
102
RTVSPropertyOp2
 70
     0
102
RTVSPropertyOp3
 70
     0
102
RTVSPropertyOp4
 70
     0
102
RTVSPropertyOp5
 70
     0
102
RTVSPropertyOp6
 70
     0
102
RTVSPropertyOp7
 70
     0
102
RTVSPropertyOp8
 70
     0
102
RTVSPropertyOp9
 70
     0
102
RTVSPropertyOp10
 70
     0
102
RTVSPropertyOp11
 70
     0
102
RTVSPropertyOp12
 70
     0
102
RTVSPropertyOp13
 70
     0
102
RTVSPropertyOp14
 70
     2
102
RTVSPropertyOp15
 70
     0
102
RTVSPropertyOp16
 70
     0
102
RTVSPropertyOp17
 70
     0
102
RTVSPropertyOp18
 70
     0
102
RTVSPropertyOp19
 70
     0
102
RTVSPropertyOp20
 70
     0
102
RTVSPropertyOp21
 70
     0
102
RTVSPropertyOp22
 70
     0
102
RTVSPropertyOp23
 70
     0
102
RTVSPropertyOp24
 70
     0
102
RTVSPropertyOp25
 70
     0
102
RTVSPropertyOp26
 70
     0
102
RTVSPropertyOp27
 70
     0
102
RTVSPropertyOp28
 70
     0
102
RTVSPropertyOp29
 70
     0
102
RTVSPropertyOp30
 70
     0
102
RTVSPropertyOp31
 70
     0
102
RTVSPropertyOp32
 70
     0
102
RTVSPropertyOp33
 70
     0
102
RTVSPropertyOp34
 70
     0
102
RTVSPropertyOp35
 70
     0
102
RTVSPropertyOp36
 70
     0
102
RTVSPropertyOp37
 70
     0
102
RTVSPropertyOp38
 70
     0
102
RTVSPropertyOp39
 70
     0
102
RTVSPropertyOp40
 70
     0
102
RTVSPropertyOp41
 70
     0
102
RTVSPropertyOp42
 70
     0
102
RTVSPropertyOp43
 70
     0
102
RTVSPropertyOp44
 70
     0
102
RTVSPropertyOp45
 70
     0
102
RTVSPropertyOp46
 70
     0
102
RTVSPropertyOp47
 70
     0
102
RTVSPropertyOp48
 70
     0
102
RTVSPropertyOp49
 70
     0
102
RTVSPropertyOp50
 70
     0
102
RTVSPropertyOp51
 70
     0
102
RTVSPropertyOp52
 70
     0
102
RTVSPropertyOp53
 70
     0
102
RTVSPropertyOp54
 70
     0
102
RTVSPropertyOp55
 70
     0
102
RTVSPropertyOp56
 70
     0
102
RTVSPropertyOp57
 70
     0
102
RTVSPost2010Prop28
280
     0
102
RTVSPost2010PropOp28
 70
     0
102
RTVSPost2010Prop29
280
     1
102
RTVSPost2010PropOp29
 70
     0
102
RTVSPost2010Prop30
280
     1
102
RTVSPost2010PropOp30
 70
     0
102
RTVSPost2010Prop31
280
     0
102
RTVSPost2010PropOp31
 70
     0
102
RTVSPost2010Prop32
280
     0
102
RTVSPost2010PropOp32
 70
     0
102
RTVSPost2010Prop33
280
     0
102
RTVSPost2010PropOp33
 70
     0
102
RTVSPost2010Prop34
280
     0
102
RTVSPost2010PropOp34
 70
     0
102
RTVSPost2010Prop35
280
     0
102
RTVSPost2010PropOp35
 70
     0
102
RTVSPost2010Prop36
280
     0
102
RTVSPost2010PropOp36
 70
     0
102
RTVSPost2010Prop37
 90
       50
102
RTVSPost2010PropOp37
 70
     0
102
RTVSPost2010Prop38
140
0.0
102
RTVSPost2010PropOp38
 70
     0
102
RTVSPost2010Prop39
140
1.0
102
RTVSPost2010PropOp39
 70
     0
102
RTVSPost2010Prop40
 90
        0
102
RTVSPost2010PropOp40
 70
     0
102
RTVSPost2010Prop41ColorIndex
 90
      178
102
RTVSPost2010Prop41ColorRGB
 90
        0
102
RTVSPost2010PropOp41
 70
     0
102
RTVSPost2010Prop42
 90
       50
102
RTVSPost2010PropOp42
 70
     0
102
RTVSPost2010Prop43
 90
        3
102
RTVSPost2010PropOp43
 70
     0
102
RTVSPost2010Prop44ColorIndex
 90
        5
102
RTVSPost2010Prop44ColorRGB
 90
      255
102
RTVSPost2010PropOp44
 70
     0
102
RTVSPost2010Prop45
280
     0
102
RTVSPost2010PropOp45
 70
     0
102
RTVSPost2010Prop46
 90
       50
102
RTVSPost2010PropOp46
 70
     0
102
RTVSPost2010Prop47
 90
       50
102
RTVSPost2010PropOp47
 70
     0
102
RTVSPost2010Prop48
 90
       50
102
RTVSPost2010PropOp48
 70
     0
102
RTVSPost2010Prop49
280
     0
102
RTVSPost2010PropOp49
 70
     0
102
RTVSPost2010Prop50
 90
       50
102
RTVSPost2010PropOp50
 70
     0
102
RTVSPost2010Prop51ColorIndex
 90
      256
102
RTVSPost2010Prop51ColorRGB
 90
-16777216
102
RTVSPost2010PropOp51
 70
     0
102
RTVSPost2010Prop52
140
1.0
102
RTVSPost2010PropOp52
 70
     0
102
RTVSPost2010Prop53
 90
        2
102
RTVSPost2010PropOp53
 70
     0
102
RTVSPost2010Prop54
  1
strokes_ogs.tif
102
RTVSPost2010PropOp54
 70
     0
102
RTVSPost2010Prop55
280
     0
102
RTVSPost2010PropOp55
 70
     0
102
RTVSPost2010Prop56
140
1.0
102
RTVSPost2010PropOp56
 70
     0
102
RTVSPost2010Prop57
140
1.0
102
RTVSPost2010PropOp57
 70
     0
  0
XRECORD
  5
341
102
{ACAD_REACTORS
330
340
102
}
330
340
100
AcDbXrecord
280
     1
102
RTVSPropertyOp0
 70
     1
102
RTVSPropertyOp1
 70
     1
102
RTVSPropertyOp2
 70
     1
102
RTVSPropertyOp3
 70
     1
102
RTVSPropertyOp4
 70
     1
102
RTVSPropertyOp5
 70
     1
102
RTVSPropertyOp6
 70
     1
102
RTVSPropertyOp7
 70
     1
102
RTVSPropertyOp8
 70
     1
102
RTVSPropertyOp9
 70
     1
102
RTVSPropertyOp10
 70
     1
102
RTVSPropertyOp11
 70
     1
102
RTVSPropertyOp12
 70
     1
102
RTVSPropertyOp13
 70
     1
102
RTVSPropertyOp14
 70
     1
102
RTVSPropertyOp15
 70
     1
102
RTVSPropertyOp16
 70
     1
102
RTVSPropertyOp17
 70
     1
102
RTVSPropertyOp18
 70
     1
102
RTVSPropertyOp19
 70
     1
102
RTVSPropertyOp20
 70
     1
102
RTVSPropertyOp21
 70
     1
102
RTVSPropertyOp22
 70
     1
102
RTVSPropertyOp23
 70
     1
102
RTVSPropertyOp24
 70
     1
102
RTVSPropertyOp25
 70
     1
102
RTVSPropertyOp26
 70
     1
102
RTVSPropertyOp27
 70
     1
102
RTVSPropertyOp28
 70
     1
102
RTVSPropertyOp29
 70
     1
102
RTVSPropertyOp30
 70
     1
102
RTVSPropertyOp31
 70
     1
102
RTVSPropertyOp32
 70
     1
102
RTVSPropertyOp33
 70
     1
102
RTVSPropertyOp34
 70
     1
102
RTVSPropertyOp35
 70
     1
102
RTVSPropertyOp36
 70
     1
102
RTVSPropertyOp37
 70
     1
102
RTVSPropertyOp38
 70
     1
102
RTVSPropertyOp39
 70
     1
102
RTVSPropertyOp40
 70
     1
102
RTVSPropertyOp41
 70
     1
102
RTVSPropertyOp42
 70
     1
102
RTVSPropertyOp43
 70
     1
102
RTVSPropertyOp44
 70
     1
102
RTVSPropertyOp45
 70
     1
102
RTVSPropertyOp46
 70
     1
102
RTVSPropertyOp47
 70
     1
102
RTVSPropertyOp48
 70
     1
102
RTVSPropertyOp49
 70
     1
102
RTVSPropertyOp50
 70
     1
102
RTVSPropertyOp51
 70
     0
102
RTVSPropertyOp52
 70
     0
102
RTVSPropertyOp53
 70
     1
102
RTVSPropertyOp54
 70
     1
102
RTVSPropertyOp55
 70
     1
102
RTVSPropertyOp56
 70
     1
102
RTVSPropertyOp57
 70
     1
102
RTVSPost2010Prop28
280
     0
102
RTVSPost2010PropOp28
 70
     1
102
RTVSPost2010Prop29
280
     1
102
RTVSPost2010PropOp29
 70
     1
102
RTVSPost2010Prop30
280
     1
102
RTVSPost2010PropOp30
 70
     1
102
RTVSPost2010Prop31
280
     0
102
RTVSPost2010PropOp31
 70
     1
102
RTVSPost2010Prop32
280
     0
102
RTVSPost2010PropOp32
 70
     1
102
RTVSPost2010Prop33
280
     0
102
RTVSPost2010PropOp33
 70
     1
102
RTVSPost2010Prop34
280
     0
102
RTVSPost2010PropOp34
 70
     1
102
RTVSPost2010Prop35
280
     0
102
RTVSPost2010PropOp35
 70
     1
102
RTVSPost2010Prop36
280
     0
102
RTVSPost2010PropOp36
 70
     1
102
RTVSPost2010Prop37
 90
       50
102
RTVSPost2010PropOp37
 70
     1
102
RTVSPost2010Prop38
140
0.0
102
RTVSPost2010PropOp38
 70
     1
102
RTVSPost2010Prop39
140
1.0
102
RTVSPost2010PropOp39
 70
     1
102
RTVSPost2010Prop40
 90
        0
102
RTVSPost2010PropOp40
 70
     1
102
RTVSPost2010Prop41ColorIndex
 90
      178
102
RTVSPost2010Prop41ColorRGB
 90
        0
102
RTVSPost2010PropOp41
 70
     1
102
RTVSPost2010Prop42
 90
       50
102
RTVSPost2010PropOp42
 70
     1
102
RTVSPost2010Prop43
 90
        3
102
RTVSPost2010PropOp43
 70
     1
102
RTVSPost2010Prop44ColorIndex
 90
        5
102
RTVSPost2010Prop44ColorRGB
 90
      255
102
RTVSPost2010PropOp44
 70
     1
102
RTVSPost2010Prop45
280
     0
102
RTVSPost2010PropOp45
 70
     1
102
RTVSPost2010Prop46
 90
       50
102
RTVSPost2010PropOp46
 70
     1
102
RTVSPost2010Prop47
 90
       50
102
RTVSPost2010PropOp47
 70
     1
102
RTVSPost2010Prop48
 90
       50
102
RTVSPost2010PropOp48
 70
     1
102
RTVSPost2010Prop49
280
     0
102
RTVSPost2010PropOp49
 70
     1
102
RTVSPost2010Prop50
 90
       50
102
RTVSPost2010PropOp50
 70
     1
102
RTVSPost2010Prop51ColorIndex
 90
      256
102
RTVSPost2010Prop51ColorRGB
 90
-16777216
102
RTVSPost2010PropOp51
 70
     0
102
RTVSPost2010Prop52
140
1.0
102
RTVSPost2010PropOp52
 70
     0
102
RTVSPost2010Prop53
 90
        2
102
RTVSPost2010PropOp53
 70
     1
102
RTVSPost2010Prop54
  1
strokes_ogs.tif
102
RTVSPost2010PropOp54
 70
     1
102
RTVSPost2010Prop55
280
     0
102
RTVSPost2010PropOp55
 70
     1
102
RTVSPost2010Prop56
140
1.0
102
RTVSPost2010PropOp56
 70
     1
102
RTVSPost2010Prop57
140
1.0
102
RTVSPost2010PropOp57
 70
     1
  0
XRECORD
  5
349
102
{ACAD_REACTORS
330
348
102
}
330
348
100
AcDbXrecord
280
     1
102
RTVSPropertyOp0
 70
     0
102
RTVSPropertyOp1
 70
     0
102
RTVSPropertyOp2
 70
     0
102
RTVSPropertyOp3
 70
     0
102
RTVSPropertyOp4
 70
     0
102
RTVSPropertyOp5
 70
     0
102
RTVSPropertyOp6
 70
     0
102
RTVSPropertyOp7
 70
     0
102
RTVSPropertyOp8
 70
     0
102
RTVSPropertyOp9
 70
     0
102
RTVSPropertyOp10
 70
     0
102
RTVSPropertyOp11
 70
     0
102
RTVSPropertyOp12
 70
     0
102
RTVSPropertyOp13
 70
     0
102
RTVSPropertyOp14
 70
     2
102
RTVSPropertyOp15
 70
     0
102
RTVSPropertyOp16
 70
     0
102
RTVSPropertyOp17
 70
     0
102
RTVSPropertyOp18
 70
     0
102
RTVSPropertyOp19
 70
     0
102
RTVSPropertyOp20
 70
     0
102
RTVSPropertyOp21
 70
     0
102
RTVSPropertyOp22
 70
     0
102
RTVSPropertyOp23
 70
     0
102
RTVSPropertyOp24
 70
     0
102
RTVSPropertyOp25
 70
     0
102
RTVSPropertyOp26
 70
     0
102
RTVSPropertyOp27
 70
     0
102
RTVSPropertyOp28
 70
     0
102
RTVSPropertyOp29
 70
     0
102
RTVSPropertyOp30
 70
     0
102
RTVSPropertyOp31
 70
     0
102
RTVSPropertyOp32
 70
     0
102
RTVSPropertyOp33
 70
     0
102
RTVSPropertyOp34
 70
     0
102
RTVSPropertyOp35
 70
     0
102
RTVSPropertyOp36
 70
     0
102
RTVSPropertyOp37
 70
     0
102
RTVSPropertyOp38
 70
     0
102
RTVSPropertyOp39
 70
     0
102
RTVSPropertyOp40
 70
     0
102
RTVSPropertyOp41
 70
     0
102
RTVSPropertyOp42
 70
     0
102
RTVSPropertyOp43
 70
     0
102
RTVSPropertyOp44
 70
     0
102
RTVSPropertyOp45
 70
     0
102
RTVSPropertyOp46
 70
     0
102
RTVSPropertyOp47
 70
     0
102
RTVSPropertyOp48
 70
     0
102
RTVSPropertyOp49
 70
     0
102
RTVSPropertyOp50
 70
     0
102
RTVSPropertyOp51
 70
     0
102
RTVSPropertyOp52
 70
     0
102
RTVSPropertyOp53
 70
     0
102
RTVSPropertyOp54
 70
     0
102
RTVSPropertyOp55
 70
     0
102
RTVSPropertyOp56
 70
     0
102
RTVSPropertyOp57
 70
     0
102
RTVSPost2010Prop28
280
     0
102
RTVSPost2010PropOp28
 70
     0
102
RTVSPost2010Prop29
280
     1
102
RTVSPost2010PropOp29
 70
     0
102
RTVSPost2010Prop30
280
     1
102
RTVSPost2010PropOp30
 70
     0
102
RTVSPost2010Prop31
280
     0
102
RTVSPost2010PropOp31
 70
     0
102
RTVSPost2010Prop32
280
     0
102
RTVSPost2010PropOp32
 70
     0
102
RTVSPost2010Prop33
280
     0
102
RTVSPost2010PropOp33
 70
     0
102
RTVSPost2010Prop34
280
     0
102
RTVSPost2010PropOp34
 70
     0
102
RTVSPost2010Prop35
280
     0
102
RTVSPost2010PropOp35
 70
     0
102
RTVSPost2010Prop36
280
     0
102
RTVSPost2010PropOp36
 70
     0
102
RTVSPost2010Prop37
 90
       50
102
RTVSPost2010PropOp37
 70
     0
102
RTVSPost2010Prop38
140
0.0
102
RTVSPost2010PropOp38
 70
     0
102
RTVSPost2010Prop39
140
1.0
102
RTVSPost2010PropOp39
 70
     0
102
RTVSPost2010Prop40
 90
        0
102
RTVSPost2010PropOp40
 70
     0
102
RTVSPost2010Prop41ColorIndex
 90
      178
102
RTVSPost2010Prop41ColorRGB
 90
        0
102
RTVSPost2010PropOp41
 70
     0
102
RTVSPost2010Prop42
 90
       50
102
RTVSPost2010PropOp42
 70
     0
102
RTVSPost2010Prop43
 90
        3
102
RTVSPost2010PropOp43
 70
     0
102
RTVSPost2010Prop44ColorIndex
 90
        5
102
RTVSPost2010Prop44ColorRGB
 90
      255
102
RTVSPost2010PropOp44
 70
     0
102
RTVSPost2010Prop45
280
     0
102
RTVSPost2010PropOp45
 70
     0
102
RTVSPost2010Prop46
 90
       50
102
RTVSPost2010PropOp46
 70
     0
102
RTVSPost2010Prop47
 90
       50
102
RTVSPost2010PropOp47
 70
     0
102
RTVSPost2010Prop48
 90
       50
102
RTVSPost2010PropOp48
 70
     0
102
RTVSPost2010Prop49
280
     0
102
RTVSPost2010PropOp49
 70
     0
102
RTVSPost2010Prop50
 90
       50
102
RTVSPost2010PropOp50
 70
     0
102
RTVSPost2010Prop51ColorIndex
 90
      256
102
RTVSPost2010Prop51ColorRGB
 90
-16777216
102
RTVSPost2010PropOp51
 70
     0
102
RTVSPost2010Prop52
140
1.0
102
RTVSPost2010PropOp52
 70
     0
102
RTVSPost2010Prop53
 90
        2
102
RTVSPost2010PropOp53
 70
     0
102
RTVSPost2010Prop54
  1
strokes_ogs.tif
102
RTVSPost2010PropOp54
 70
     0
102
RTVSPost2010Prop55
280
     0
102
RTVSPost2010PropOp55
 70
     0
102
RTVSPost2010Prop56
140
1.0
102
RTVSPost2010PropOp56
 70
     0
102
RTVSPost2010Prop57
140
1.0
102
RTVSPost2010PropOp57
 70
     0
  0
XRECORD
  5
337
102
{ACAD_REACTORS
330
336
102
}
330
336
100
AcDbXrecord
280
     1
102
RTVSPropertyOp0
 70
     1
102
RTVSPropertyOp1
 70
     1
102
RTVSPropertyOp2
 70
     1
102
RTVSPropertyOp3
 70
     1
102
RTVSPropertyOp4
 70
     1
102
RTVSPropertyOp5
 70
     1
102
RTVSPropertyOp6
 70
     1
102
RTVSPropertyOp7
 70
     1
102
RTVSPropertyOp8
 70
     1
102
RTVSPropertyOp9
 70
     1
102
RTVSPropertyOp10
 70
     1
102
RTVSPropertyOp11
 70
     1
102
RTVSPropertyOp12
 70
     1
102
RTVSPropertyOp13
 70
     1
102
RTVSPropertyOp14
 70
     1
102
RTVSPropertyOp15
 70
     1
102
RTVSPropertyOp16
 70
     1
102
RTVSPropertyOp17
 70
     1
102
RTVSPropertyOp18
 70
     1
102
RTVSPropertyOp19
 70
     1
102
RTVSPropertyOp20
 70
     1
102
RTVSPropertyOp21
 70
     1
102
RTVSPropertyOp22
 70
     1
102
RTVSPropertyOp23
 70
     1
102
RTVSPropertyOp24
 70
     1
102
RTVSPropertyOp25
 70
     1
102
RTVSPropertyOp26
 70
     1
102
RTVSPropertyOp27
 70
     1
102
RTVSPropertyOp28
 70
     1
102
RTVSPropertyOp29
 70
     1
102
RTVSPropertyOp30
 70
     1
102
RTVSPropertyOp31
 70
     1
102
RTVSPropertyOp32
 70
     1
102
RTVSPropertyOp33
 70
     1
102
RTVSPropertyOp34
 70
     1
102
RTVSPropertyOp35
 70
     1
102
RTVSPropertyOp36
 70
     1
102
RTVSPropertyOp37
 70
     1
102
RTVSPropertyOp38
 70
     1
102
RTVSPropertyOp39
 70
     1
102
RTVSPropertyOp40
 70
     1
102
RTVSPropertyOp41
 70
     1
102
RTVSPropertyOp42
 70
     1
102
RTVSPropertyOp43
 70
     1
102
RTVSPropertyOp44
 70
     1
102
RTVSPropertyOp45
 70
     1
102
RTVSPropertyOp46
 70
     1
102
RTVSPropertyOp47
 70
     1
102
RTVSPropertyOp48
 70
     1
102
RTVSPropertyOp49
 70
     1
102
RTVSPropertyOp50
 70
     1
102
RTVSPropertyOp51
 70
     0
102
RTVSPropertyOp52
 70
     0
102
RTVSPropertyOp53
 70
     1
102
RTVSPropertyOp54
 70
     1
102
RTVSPropertyOp55
 70
     1
102
RTVSPropertyOp56
 70
     1
102
RTVSPropertyOp57
 70
     1
102
RTVSPost2010Prop28
280
     0
102
RTVSPost2010PropOp28
 70
     1
102
RTVSPost2010Prop29
280
     1
102
RTVSPost2010PropOp29
 70
     1
102
RTVSPost2010Prop30
280
     1
102
RTVSPost2010PropOp30
 70
     1
102
RTVSPost2010Prop31
280
     0
102
RTVSPost2010PropOp31
 70
     1
102
RTVSPost2010Prop32
280
     0
102
RTVSPost2010PropOp32
 70
     1
102
RTVSPost2010Prop33
280
     0
102
RTVSPost2010PropOp33
 70
     1
102
RTVSPost2010Prop34
280
     0
102
RTVSPost2010PropOp34
 70
     1
102
RTVSPost2010Prop35
280
     0
102
RTVSPost2010PropOp35
 70
     1
102
RTVSPost2010Prop36
280
     0
102
RTVSPost2010PropOp36
 70
     1
102
RTVSPost2010Prop37
 90
       50
102
RTVSPost2010PropOp37
 70
     1
102
RTVSPost2010Prop38
140
0.0
102
RTVSPost2010PropOp38
 70
     1
102
RTVSPost2010Prop39
140
1.0
102
RTVSPost2010PropOp39
 70
     1
102
RTVSPost2010Prop40
 90
        0
102
RTVSPost2010PropOp40
 70
     1
102
RTVSPost2010Prop41ColorIndex
 90
      178
102
RTVSPost2010Prop41ColorRGB
 90
        0
102
RTVSPost2010PropOp41
 70
     1
102
RTVSPost2010Prop42
 90
       50
102
RTVSPost2010PropOp42
 70
     1
102
RTVSPost2010Prop43
 90
        3
102
RTVSPost2010PropOp43
 70
     1
102
RTVSPost2010Prop44ColorIndex
 90
        5
102
RTVSPost2010Prop44ColorRGB
 90
      255
102
RTVSPost2010PropOp44
 70
     1
102
RTVSPost2010Prop45
280
     0
102
RTVSPost2010PropOp45
 70
     1
102
RTVSPost2010Prop46
 90
       50
102
RTVSPost2010PropOp46
 70
     1
102
RTVSPost2010Prop47
 90
       50
102
RTVSPost2010PropOp47
 70
     1
102
RTVSPost2010Prop48
 90
       50
102
RTVSPost2010PropOp48
 70
     1
102
RTVSPost2010Prop49
280
     0
102
RTVSPost2010PropOp49
 70
     1
102
RTVSPost2010Prop50
 90
       50
102
RTVSPost2010PropOp50
 70
     1
102
RTVSPost2010Prop51ColorIndex
 90
      256
102
RTVSPost2010Prop51ColorRGB
 90
-16777216
102
RTVSPost2010PropOp51
 70
     0
102
RTVSPost2010Prop52
140
1.0
102
RTVSPost2010PropOp52
 70
     0
102
RTVSPost2010Prop53
 90
        2
102
RTVSPost2010PropOp53
 70
     1
102
RTVSPost2010Prop54
  1
strokes_ogs.tif
102
RTVSPost2010PropOp54
 70
     1
102
RTVSPost2010Prop55
280
     0
102
RTVSPost2010PropOp55
 70
     1
102
RTVSPost2010Prop56
140
1.0
102
RTVSPost2010PropOp56
 70
     1
102
RTVSPost2010Prop57
140
1.0
102
RTVSPost2010PropOp57
 70
     1
  0
XRECORD
  5
355
102
{ACAD_REACTORS
330
354
102
}
330
354
100
AcDbXrecord
280
     1
102
RTVSPropertyOp0
 70
     1
102
RTVSPropertyOp1
 70
     1
102
RTVSPropertyOp2
 70
     1
102
RTVSPropertyOp3
 70
     1
102
RTVSPropertyOp4
 70
     1
102
RTVSPropertyOp5
 70
     1
102
RTVSPropertyOp6
 70
     1
102
RTVSPropertyOp7
 70
     1
102
RTVSPropertyOp8
 70
     1
102
RTVSPropertyOp9
 70
     1
102
RTVSPropertyOp10
 70
     1
102
RTVSPropertyOp11
 70
     1
102
RTVSPropertyOp12
 70
     1
102
RTVSPropertyOp13
 70
     1
102
RTVSPropertyOp14
 70
     1
102
RTVSPropertyOp15
 70
     1
102
RTVSPropertyOp16
 70
     1
102
RTVSPropertyOp17
 70
     1
102
RTVSPropertyOp18
 70
     1
102
RTVSPropertyOp19
 70
     1
102
RTVSPropertyOp20
 70
     1
102
RTVSPropertyOp21
 70
     1
102
RTVSPropertyOp22
 70
     1
102
RTVSPropertyOp23
 70
     1
102
RTVSPropertyOp24
 70
     1
102
RTVSPropertyOp25
 70
     1
102
RTVSPropertyOp26
 70
     1
102
RTVSPropertyOp27
 70
     1
102
RTVSPropertyOp28
 70
     1
102
RTVSPropertyOp29
 70
     1
102
RTVSPropertyOp30
 70
     1
102
RTVSPropertyOp31
 70
     1
102
RTVSPropertyOp32
 70
     1
102
RTVSPropertyOp33
 70
     1
102
RTVSPropertyOp34
 70
     1
102
RTVSPropertyOp35
 70
     1
102
RTVSPropertyOp36
 70
     1
102
RTVSPropertyOp37
 70
     1
102
RTVSPropertyOp38
 70
     1
102
RTVSPropertyOp39
 70
     1
102
RTVSPropertyOp40
 70
     1
102
RTVSPropertyOp41
 70
     1
102
RTVSPropertyOp42
 70
     1
102
RTVSPropertyOp43
 70
     1
102
RTVSPropertyOp44
 70
     1
102
RTVSPropertyOp45
 70
     1
102
RTVSPropertyOp46
 70
     1
102
RTVSPropertyOp47
 70
     1
102
RTVSPropertyOp48
 70
     1
102
RTVSPropertyOp49
 70
     1
102
RTVSPropertyOp50
 70
     1
102
RTVSPropertyOp51
 70
     0
102
RTVSPropertyOp52
 70
     0
102
RTVSPropertyOp53
 70
     1
102
RTVSPropertyOp54
 70
     1
102
RTVSPropertyOp55
 70
     1
102
RTVSPropertyOp56
 70
     1
102
RTVSPropertyOp57
 70
     1
102
RTVSPost2010Prop28
280
     0
102
RTVSPost2010PropOp28
 70
     1
102
RTVSPost2010Prop29
280
     1
102
RTVSPost2010PropOp29
 70
     1
102
RTVSPost2010Prop30
280
     1
102
RTVSPost2010PropOp30
 70
     1
102
RTVSPost2010Prop31
280
     0
102
RTVSPost2010PropOp31
 70
     1
102
RTVSPost2010Prop32
280
     0
102
RTVSPost2010PropOp32
 70
     1
102
RTVSPost2010Prop33
280
     0
102
RTVSPost2010PropOp33
 70
     1
102
RTVSPost2010Prop34
280
     0
102
RTVSPost2010PropOp34
 70
     1
102
RTVSPost2010Prop35
280
     0
102
RTVSPost2010PropOp35
 70
     1
102
RTVSPost2010Prop36
280
     0
102
RTVSPost2010PropOp36
 70
     1
102
RTVSPost2010Prop37
 90
       50
102
RTVSPost2010PropOp37
 70
     1
102
RTVSPost2010Prop38
140
0.0
102
RTVSPost2010PropOp38
 70
     1
102
RTVSPost2010Prop39
140
1.0
102
RTVSPost2010PropOp39
 70
     1
102
RTVSPost2010Prop40
 90
        0
102
RTVSPost2010PropOp40
 70
     1
102
RTVSPost2010Prop41ColorIndex
 90
      178
102
RTVSPost2010Prop41ColorRGB
 90
        0
102
RTVSPost2010PropOp41
 70
     1
102
RTVSPost2010Prop42
 90
       50
102
RTVSPost2010PropOp42
 70
     1
102
RTVSPost2010Prop43
 90
        3
102
RTVSPost2010PropOp43
 70
     1
102
RTVSPost2010Prop44ColorIndex
 90
        5
102
RTVSPost2010Prop44ColorRGB
 90
      255
102
RTVSPost2010PropOp44
 70
     1
102
RTVSPost2010Prop45
280
     0
102
RTVSPost2010PropOp45
 70
     1
102
RTVSPost2010Prop46
 90
       50
102
RTVSPost2010PropOp46
 70
     1
102
RTVSPost2010Prop47
 90
       50
102
RTVSPost2010PropOp47
 70
     1
102
RTVSPost2010Prop48
 90
       50
102
RTVSPost2010PropOp48
 70
     1
102
RTVSPost2010Prop49
280
     0
102
RTVSPost2010PropOp49
 70
     1
102
RTVSPost2010Prop50
 90
       50
102
RTVSPost2010PropOp50
 70
     1
102
RTVSPost2010Prop51ColorIndex
 90
      256
102
RTVSPost2010Prop51ColorRGB
 90
-16777216
102
RTVSPost2010PropOp51
 70
     0
102
RTVSPost2010Prop52
140
1.0
102
RTVSPost2010PropOp52
 70
     0
102
RTVSPost2010Prop53
 90
        2
102
RTVSPost2010PropOp53
 70
     1
102
RTVSPost2010Prop54
  1
strokes_ogs.tif
102
RTVSPost2010PropOp54
 70
     1
102
RTVSPost2010Prop55
280
     0
102
RTVSPost2010PropOp55
 70
     1
102
RTVSPost2010Prop56
140
1.0
102
RTVSPost2010PropOp56
 70
     1
102
RTVSPost2010Prop57
140
1.0
102
RTVSPost2010PropOp57
 70
     1
  0
XRECORD
  5
353
102
{ACAD_REACTORS
330
352
102
}
330
352
100
AcDbXrecord
280
     1
102
RTVSPropertyOp0
 70
     1
102
RTVSPropertyOp1
 70
     1
102
RTVSPropertyOp2
 70
     1
102
RTVSPropertyOp3
 70
     1
102
RTVSPropertyOp4
 70
     1
102
RTVSPropertyOp5
 70
     1
102
RTVSPropertyOp6
 70
     1
102
RTVSPropertyOp7
 70
     1
102
RTVSPropertyOp8
 70
     1
102
RTVSPropertyOp9
 70
     1
102
RTVSPropertyOp10
 70
     1
102
RTVSPropertyOp11
 70
     1
102
RTVSPropertyOp12
 70
     1
102
RTVSPropertyOp13
 70
     1
102
RTVSPropertyOp14
 70
     1
102
RTVSPropertyOp15
 70
     1
102
RTVSPropertyOp16
 70
     1
102
RTVSPropertyOp17
 70
     1
102
RTVSPropertyOp18
 70
     1
102
RTVSPropertyOp19
 70
     1
102
RTVSPropertyOp20
 70
     1
102
RTVSPropertyOp21
 70
     1
102
RTVSPropertyOp22
 70
     1
102
RTVSPropertyOp23
 70
     1
102
RTVSPropertyOp24
 70
     1
102
RTVSPropertyOp25
 70
     1
102
RTVSPropertyOp26
 70
     1
102
RTVSPropertyOp27
 70
     1
102
RTVSPropertyOp28
 70
     1
102
RTVSPropertyOp29
 70
     1
102
RTVSPropertyOp30
 70
     1
102
RTVSPropertyOp31
 70
     1
102
RTVSPropertyOp32
 70
     1
102
RTVSPropertyOp33
 70
     1
102
RTVSPropertyOp34
 70
     1
102
RTVSPropertyOp35
 70
     1
102
RTVSPropertyOp36
 70
     1
102
RTVSPropertyOp37
 70
     1
102
RTVSPropertyOp38
 70
     1
102
RTVSPropertyOp39
 70
     1
102
RTVSPropertyOp40
 70
     1
102
RTVSPropertyOp41
 70
     1
102
RTVSPropertyOp42
 70
     1
102
RTVSPropertyOp43
 70
     1
102
RTVSPropertyOp44
 70
     1
102
RTVSPropertyOp45
 70
     1
102
RTVSPropertyOp46
 70
     1
102
RTVSPropertyOp47
 70
     1
102
RTVSPropertyOp48
 70
     1
102
RTVSPropertyOp49
 70
     1
102
RTVSPropertyOp50
 70
     1
102
RTVSPropertyOp51
 70
     0
102
RTVSPropertyOp52
 70
     0
102
RTVSPropertyOp53
 70
     1
102
RTVSPropertyOp54
 70
     1
102
RTVSPropertyOp55
 70
     1
102
RTVSPropertyOp56
 70
     1
102
RTVSPropertyOp57
 70
     1
102
RTVSPost2010Prop28
280
     0
102
RTVSPost2010PropOp28
 70
     1
102
RTVSPost2010Prop29
280
     1
102
RTVSPost2010PropOp29
 70
     1
102
RTVSPost2010Prop30
280
     1
102
RTVSPost2010PropOp30
 70
     1
102
RTVSPost2010Prop31
280
     0
102
RTVSPost2010PropOp31
 70
     1
102
RTVSPost2010Prop32
280
     0
102
RTVSPost2010PropOp32
 70
     1
102
RTVSPost2010Prop33
280
     0
102
RTVSPost2010PropOp33
 70
     1
102
RTVSPost2010Prop34
280
     0
102
RTVSPost2010PropOp34
 70
     1
102
RTVSPost2010Prop35
280
     0
102
RTVSPost2010PropOp35
 70
     1
102
RTVSPost2010Prop36
280
     0
102
RTVSPost2010PropOp36
 70
     1
102
RTVSPost2010Prop37
 90
       50
102
RTVSPost2010PropOp37
 70
     1
102
RTVSPost2010Prop38
140
0.0
102
RTVSPost2010PropOp38
 70
     1
102
RTVSPost2010Prop39
140
1.0
102
RTVSPost2010PropOp39
 70
     1
102
RTVSPost2010Prop40
 90
        0
102
RTVSPost2010PropOp40
 70
     1
102
RTVSPost2010Prop41ColorIndex
 90
      178
102
RTVSPost2010Prop41ColorRGB
 90
        0
102
RTVSPost2010PropOp41
 70
     1
102
RTVSPost2010Prop42
 90
       50
102
RTVSPost2010PropOp42
 70
     1
102
RTVSPost2010Prop43
 90
        3
102
RTVSPost2010PropOp43
 70
     1
102
RTVSPost2010Prop44ColorIndex
 90
        5
102
RTVSPost2010Prop44ColorRGB
 90
      255
102
RTVSPost2010PropOp44
 70
     1
102
RTVSPost2010Prop45
280
     0
102
RTVSPost2010PropOp45
 70
     1
102
RTVSPost2010Prop46
 90
       50
102
RTVSPost2010PropOp46
 70
     1
102
RTVSPost2010Prop47
 90
       50
102
RTVSPost2010PropOp47
 70
     1
102
RTVSPost2010Prop48
 90
       50
102
RTVSPost2010PropOp48
 70
     1
102
RTVSPost2010Prop49
280
     0
102
RTVSPost2010PropOp49
 70
     1
102
RTVSPost2010Prop50
 90
       50
102
RTVSPost2010PropOp50
 70
     1
102
RTVSPost2010Prop51ColorIndex
 90
      256
102
RTVSPost2010Prop51ColorRGB
 90
-16777216
102
RTVSPost2010PropOp51
 70
     0
102
RTVSPost2010Prop52
140
1.0
102
RTVSPost2010PropOp52
 70
     0
102
RTVSPost2010Prop53
 90
        2
102
RTVSPost2010PropOp53
 70
     1
102
RTVSPost2010Prop54
  1
strokes_ogs.tif
102
RTVSPost2010PropOp54
 70
     1
102
RTVSPost2010Prop55
280
     0
102
RTVSPost2010PropOp55
 70
     1
102
RTVSPost2010Prop56
140
1.0
102
RTVSPost2010PropOp56
 70
     1
102
RTVSPost2010Prop57
140
1.0
102
RTVSPost2010PropOp57
 70
     1
  0
XRECORD
  5
34D
102
{ACAD_REACTORS
330
34C
102
}
330
34C
100
AcDbXrecord
280
     1
102
RTVSPropertyOp0
 70
     1
102
RTVSPropertyOp1
 70
     1
102
RTVSPropertyOp2
 70
     1
102
RTVSPropertyOp3
 70
     1
102
RTVSPropertyOp4
 70
     1
102
RTVSPropertyOp5
 70
     1
102
RTVSPropertyOp6
 70
     1
102
RTVSPropertyOp7
 70
     1
102
RTVSPropertyOp8
 70
     1
102
RTVSPropertyOp9
 70
     1
102
RTVSPropertyOp10
 70
     1
102
RTVSPropertyOp11
 70
     1
102
RTVSPropertyOp12
 70
     1
102
RTVSPropertyOp13
 70
     1
102
RTVSPropertyOp14
 70
     1
102
RTVSPropertyOp15
 70
     1
102
RTVSPropertyOp16
 70
     1
102
RTVSPropertyOp17
 70
     1
102
RTVSPropertyOp18
 70
     1
102
RTVSPropertyOp19
 70
     1
102
RTVSPropertyOp20
 70
     1
102
RTVSPropertyOp21
 70
     1
102
RTVSPropertyOp22
 70
     1
102
RTVSPropertyOp23
 70
     1
102
RTVSPropertyOp24
 70
     1
102
RTVSPropertyOp25
 70
     1
102
RTVSPropertyOp26
 70
     1
102
RTVSPropertyOp27
 70
     1
102
RTVSPropertyOp28
 70
     1
102
RTVSPropertyOp29
 70
     1
102
RTVSPropertyOp30
 70
     1
102
RTVSPropertyOp31
 70
     1
102
RTVSPropertyOp32
 70
     1
102
RTVSPropertyOp33
 70
     1
102
RTVSPropertyOp34
 70
     1
102
RTVSPropertyOp35
 70
     1
102
RTVSPropertyOp36
 70
     1
102
RTVSPropertyOp37
 70
     1
102
RTVSPropertyOp38
 70
     1
102
RTVSPropertyOp39
 70
     1
102
RTVSPropertyOp40
 70
     1
102
RTVSPropertyOp41
 70
     1
102
RTVSPropertyOp42
 70
     1
102
RTVSPropertyOp43
 70
     1
102
RTVSPropertyOp44
 70
     1
102
RTVSPropertyOp45
 70
     1
102
RTVSPropertyOp46
 70
     1
102
RTVSPropertyOp47
 70
     1
102
RTVSPropertyOp48
 70
     1
102
RTVSPropertyOp49
 70
     1
102
RTVSPropertyOp50
 70
     1
102
RTVSPropertyOp51
 70
     0
102
RTVSPropertyOp52
 70
     0
102
RTVSPropertyOp53
 70
     1
102
RTVSPropertyOp54
 70
     1
102
RTVSPropertyOp55
 70
     1
102
RTVSPropertyOp56
 70
     1
102
RTVSPropertyOp57
 70
     1
102
RTVSPost2010Prop28
280
     0
102
RTVSPost2010PropOp28
 70
     1
102
RTVSPost2010Prop29
280
     1
102
RTVSPost2010PropOp29
 70
     1
102
RTVSPost2010Prop30
280
     1
102
RTVSPost2010PropOp30
 70
     1
102
RTVSPost2010Prop31
280
     0
102
RTVSPost2010PropOp31
 70
     1
102
RTVSPost2010Prop32
280
     0
102
RTVSPost2010PropOp32
 70
     1
102
RTVSPost2010Prop33
280
     0
102
RTVSPost2010PropOp33
 70
     1
102
RTVSPost2010Prop34
280
     0
102
RTVSPost2010PropOp34
 70
     1
102
RTVSPost2010Prop35
280
     0
102
RTVSPost2010PropOp35
 70
     1
102
RTVSPost2010Prop36
280
     0
102
RTVSPost2010PropOp36
 70
     1
102
RTVSPost2010Prop37
 90
       50
102
RTVSPost2010PropOp37
 70
     1
102
RTVSPost2010Prop38
140
0.0
102
RTVSPost2010PropOp38
 70
     1
102
RTVSPost2010Prop39
140
1.0
102
RTVSPost2010PropOp39
 70
     1
102
RTVSPost2010Prop40
 90
        0
102
RTVSPost2010PropOp40
 70
     1
102
RTVSPost2010Prop41ColorIndex
 90
      178
102
RTVSPost2010Prop41ColorRGB
 90
        0
102
RTVSPost2010PropOp41
 70
     1
102
RTVSPost2010Prop42
 90
       50
102
RTVSPost2010PropOp42
 70
     1
102
RTVSPost2010Prop43
 90
        3
102
RTVSPost2010PropOp43
 70
     1
102
RTVSPost2010Prop44ColorIndex
 90
        5
102
RTVSPost2010Prop44ColorRGB
 90
      255
102
RTVSPost2010PropOp44
 70
     1
102
RTVSPost2010Prop45
280
     0
102
RTVSPost2010PropOp45
 70
     1
102
RTVSPost2010Prop46
 90
       50
102
RTVSPost2010PropOp46
 70
     1
102
RTVSPost2010Prop47
 90
       50
102
RTVSPost2010PropOp47
 70
     1
102
RTVSPost2010Prop48
 90
       50
102
RTVSPost2010PropOp48
 70
     1
102
RTVSPost2010Prop49
280
     0
102
RTVSPost2010PropOp49
 70
     1
102
RTVSPost2010Prop50
 90
       50
102
RTVSPost2010PropOp50
 70
     1
102
RTVSPost2010Prop51ColorIndex
 90
      256
102
RTVSPost2010Prop51ColorRGB
 90
-16777216
102
RTVSPost2010PropOp51
 70
     0
102
RTVSPost2010Prop52
140
1.0
102
RTVSPost2010PropOp52
 70
     0
102
RTVSPost2010Prop53
 90
        2
102
RTVSPost2010PropOp53
 70
     1
102
RTVSPost2010Prop54
  1
strokes_ogs.tif
102
RTVSPost2010PropOp54
 70
     1
102
RTVSPost2010Prop55
280
     0
102
RTVSPost2010PropOp55
 70
     1
102
RTVSPost2010Prop56
140
1.0
102
RTVSPost2010PropOp56
 70
     1
102
RTVSPost2010Prop57
140
1.0
102
RTVSPost2010PropOp57
 70
     1
  0
XRECORD
  5
34F
102
{ACAD_REACTORS
330
34E
102
}
330
34E
100
AcDbXrecord
280
     1
102
RTVSPropertyOp0
 70
     1
102
RTVSPropertyOp1
 70
     1
102
RTVSPropertyOp2
 70
     1
102
RTVSPropertyOp3
 70
     1
102
RTVSPropertyOp4
 70
     1
102
RTVSPropertyOp5
 70
     1
102
RTVSPropertyOp6
 70
     1
102
RTVSPropertyOp7
 70
     1
102
RTVSPropertyOp8
 70
     1
102
RTVSPropertyOp9
 70
     1
102
RTVSPropertyOp10
 70
     1
102
RTVSPropertyOp11
 70
     1
102
RTVSPropertyOp12
 70
     1
102
RTVSPropertyOp13
 70
     1
102
RTVSPropertyOp14
 70
     1
102
RTVSPropertyOp15
 70
     1
102
RTVSPropertyOp16
 70
     1
102
RTVSPropertyOp17
 70
     1
102
RTVSPropertyOp18
 70
     1
102
RTVSPropertyOp19
 70
     1
102
RTVSPropertyOp20
 70
     1
102
RTVSPropertyOp21
 70
     1
102
RTVSPropertyOp22
 70
     1
102
RTVSPropertyOp23
 70
     1
102
RTVSPropertyOp24
 70
     1
102
RTVSPropertyOp25
 70
     1
102
RTVSPropertyOp26
 70
     1
102
RTVSPropertyOp27
 70
     1
102
RTVSPropertyOp28
 70
     1
102
RTVSPropertyOp29
 70
     1
102
RTVSPropertyOp30
 70
     1
102
RTVSPropertyOp31
 70
     1
102
RTVSPropertyOp32
 70
     1
102
RTVSPropertyOp33
 70
     1
102
RTVSPropertyOp34
 70
     1
102
RTVSPropertyOp35
 70
     1
102
RTVSPropertyOp36
 70
     1
102
RTVSPropertyOp37
 70
     1
102
RTVSPropertyOp38
 70
     1
102
RTVSPropertyOp39
 70
     1
102
RTVSPropertyOp40
 70
     1
102
RTVSPropertyOp41
 70
     1
102
RTVSPropertyOp42
 70
     1
102
RTVSPropertyOp43
 70
     1
102
RTVSPropertyOp44
 70
     1
102
RTVSPropertyOp45
 70
     1
102
RTVSPropertyOp46
 70
     1
102
RTVSPropertyOp47
 70
     1
102
RTVSPropertyOp48
 70
     1
102
RTVSPropertyOp49
 70
     1
102
RTVSPropertyOp50
 70
     1
102
RTVSPropertyOp51
 70
     0
102
RTVSPropertyOp52
 70
     0
102
RTVSPropertyOp53
 70
     1
102
RTVSPropertyOp54
 70
     1
102
RTVSPropertyOp55
 70
     1
102
RTVSPropertyOp56
 70
     1
102
RTVSPropertyOp57
 70
     1
102
RTVSPost2010Prop28
280
     0
102
RTVSPost2010PropOp28
 70
     1
102
RTVSPost2010Prop29
280
     1
102
RTVSPost2010PropOp29
 70
     1
102
RTVSPost2010Prop30
280
     1
102
RTVSPost2010PropOp30
 70
     1
102
RTVSPost2010Prop31
280
     0
102
RTVSPost2010PropOp31
 70
     1
102
RTVSPost2010Prop32
280
     0
102
RTVSPost2010PropOp32
 70
     1
102
RTVSPost2010Prop33
280
     0
102
RTVSPost2010PropOp33
 70
     1
102
RTVSPost2010Prop34
280
     0
102
RTVSPost2010PropOp34
 70
     1
102
RTVSPost2010Prop35
280
     0
102
RTVSPost2010PropOp35
 70
     1
102
RTVSPost2010Prop36
280
     0
102
RTVSPost2010PropOp36
 70
     1
102
RTVSPost2010Prop37
 90
       50
102
RTVSPost2010PropOp37
 70
     1
102
RTVSPost2010Prop38
140
0.0
102
RTVSPost2010PropOp38
 70
     1
102
RTVSPost2010Prop39
140
1.0
102
RTVSPost2010PropOp39
 70
     1
102
RTVSPost2010Prop40
 90
        0
102
RTVSPost2010PropOp40
 70
     1
102
RTVSPost2010Prop41ColorIndex
 90
      178
102
RTVSPost2010Prop41ColorRGB
 90
        0
102
RTVSPost2010PropOp41
 70
     1
102
RTVSPost2010Prop42
 90
       50
102
RTVSPost2010PropOp42
 70
     1
102
RTVSPost2010Prop43
 90
        3
102
RTVSPost2010PropOp43
 70
     1
102
RTVSPost2010Prop44ColorIndex
 90
        5
102
RTVSPost2010Prop44ColorRGB
 90
      255
102
RTVSPost2010PropOp44
 70
     1
102
RTVSPost2010Prop45
280
     0
102
RTVSPost2010PropOp45
 70
     1
102
RTVSPost2010Prop46
 90
       50
102
RTVSPost2010PropOp46
 70
     1
102
RTVSPost2010Prop47
 90
       50
102
RTVSPost2010PropOp47
 70
     1
102
RTVSPost2010Prop48
 90
       50
102
RTVSPost2010PropOp48
 70
     1
102
RTVSPost2010Prop49
280
     0
102
RTVSPost2010PropOp49
 70
     1
102
RTVSPost2010Prop50
 90
       50
102
RTVSPost2010PropOp50
 70
     1
102
RTVSPost2010Prop51ColorIndex
 90
      256
102
RTVSPost2010Prop51ColorRGB
 90
-16777216
102
RTVSPost2010PropOp51
 70
     0
102
RTVSPost2010Prop52
140
1.0
102
RTVSPost2010PropOp52
 70
     0
102
RTVSPost2010Prop53
 90
        2
102
RTVSPost2010PropOp53
 70
     1
102
RTVSPost2010Prop54
  1
strokes_ogs.tif
102
RTVSPost2010PropOp54
 70
     1
102
RTVSPost2010Prop55
280
     0
102
RTVSPost2010PropOp55
 70
     1
102
RTVSPost2010Prop56
140
1.0
102
RTVSPost2010PropOp56
 70
     1
102
RTVSPost2010Prop57
140
1.0
102
RTVSPost2010PropOp57
 70
     1
  0
XRECORD
  5
33F
102
{ACAD_REACTORS
330
33E
102
}
330
33E
100
AcDbXrecord
280
     1
102
RTVSPropertyOp0
 70
     1
102
RTVSPropertyOp1
 70
     1
102
RTVSPropertyOp2
 70
     1
102
RTVSPropertyOp3
 70
     1
102
RTVSPropertyOp4
 70
     1
102
RTVSPropertyOp5
 70
     1
102
RTVSPropertyOp6
 70
     1
102
RTVSPropertyOp7
 70
     1
102
RTVSPropertyOp8
 70
     1
102
RTVSPropertyOp9
 70
     1
102
RTVSPropertyOp10
 70
     1
102
RTVSPropertyOp11
 70
     1
102
RTVSPropertyOp12
 70
     1
102
RTVSPropertyOp13
 70
     1
102
RTVSPropertyOp14
 70
     1
102
RTVSPropertyOp15
 70
     1
102
RTVSPropertyOp16
 70
     1
102
RTVSPropertyOp17
 70
     1
102
RTVSPropertyOp18
 70
     1
102
RTVSPropertyOp19
 70
     1
102
RTVSPropertyOp20
 70
     1
102
RTVSPropertyOp21
 70
     1
102
RTVSPropertyOp22
 70
     1
102
RTVSPropertyOp23
 70
     1
102
RTVSPropertyOp24
 70
     1
102
RTVSPropertyOp25
 70
     1
102
RTVSPropertyOp26
 70
     1
102
RTVSPropertyOp27
 70
     1
102
RTVSPropertyOp28
 70
     1
102
RTVSPropertyOp29
 70
     1
102
RTVSPropertyOp30
 70
     1
102
RTVSPropertyOp31
 70
     1
102
RTVSPropertyOp32
 70
     1
102
RTVSPropertyOp33
 70
     1
102
RTVSPropertyOp34
 70
     1
102
RTVSPropertyOp35
 70
     1
102
RTVSPropertyOp36
 70
     1
102
RTVSPropertyOp37
 70
     1
102
RTVSPropertyOp38
 70
     1
102
RTVSPropertyOp39
 70
     1
102
RTVSPropertyOp40
 70
     1
102
RTVSPropertyOp41
 70
     1
102
RTVSPropertyOp42
 70
     1
102
RTVSPropertyOp43
 70
     1
102
RTVSPropertyOp44
 70
     1
102
RTVSPropertyOp45
 70
     1
102
RTVSPropertyOp46
 70
     1
102
RTVSPropertyOp47
 70
     1
102
RTVSPropertyOp48
 70
     1
102
RTVSPropertyOp49
 70
     1
102
RTVSPropertyOp50
 70
     1
102
RTVSPropertyOp51
 70
     0
102
RTVSPropertyOp52
 70
     0
102
RTVSPropertyOp53
 70
     1
102
RTVSPropertyOp54
 70
     1
102
RTVSPropertyOp55
 70
     1
102
RTVSPropertyOp56
 70
     1
102
RTVSPropertyOp57
 70
     1
102
RTVSPost2010Prop28
280
     0
102
RTVSPost2010PropOp28
 70
     1
102
RTVSPost2010Prop29
280
     1
102
RTVSPost2010PropOp29
 70
     1
102
RTVSPost2010Prop30
280
     1
102
RTVSPost2010PropOp30
 70
     1
102
RTVSPost2010Prop31
280
     0
102
RTVSPost2010PropOp31
 70
     1
102
RTVSPost2010Prop32
280
     0
102
RTVSPost2010PropOp32
 70
     1
102
RTVSPost2010Prop33
280
     0
102
RTVSPost2010PropOp33
 70
     1
102
RTVSPost2010Prop34
280
     0
102
RTVSPost2010PropOp34
 70
     1
102
RTVSPost2010Prop35
280
     0
102
RTVSPost2010PropOp35
 70
     1
102
RTVSPost2010Prop36
280
     0
102
RTVSPost2010PropOp36
 70
     1
102
RTVSPost2010Prop37
 90
       50
102
RTVSPost2010PropOp37
 70
     1
102
RTVSPost2010Prop38
140
0.0
102
RTVSPost2010PropOp38
 70
     1
102
RTVSPost2010Prop39
140
1.0
102
RTVSPost2010PropOp39
 70
     1
102
RTVSPost2010Prop40
 90
        0
102
RTVSPost2010PropOp40
 70
     1
102
RTVSPost2010Prop41ColorIndex
 90
      178
102
RTVSPost2010Prop41ColorRGB
 90
        0
102
RTVSPost2010PropOp41
 70
     1
102
RTVSPost2010Prop42
 90
       50
102
RTVSPost2010PropOp42
 70
     1
102
RTVSPost2010Prop43
 90
        3
102
RTVSPost2010PropOp43
 70
     1
102
RTVSPost2010Prop44ColorIndex
 90
        5
102
RTVSPost2010Prop44ColorRGB
 90
      255
102
RTVSPost2010PropOp44
 70
     1
102
RTVSPost2010Prop45
280
     0
102
RTVSPost2010PropOp45
 70
     1
102
RTVSPost2010Prop46
 90
       50
102
RTVSPost2010PropOp46
 70
     1
102
RTVSPost2010Prop47
 90
       50
102
RTVSPost2010PropOp47
 70
     1
102
RTVSPost2010Prop48
 90
       50
102
RTVSPost2010PropOp48
 70
     1
102
RTVSPost2010Prop49
280
     0
102
RTVSPost2010PropOp49
 70
     1
102
RTVSPost2010Prop50
 90
       50
102
RTVSPost2010PropOp50
 70
     1
102
RTVSPost2010Prop51ColorIndex
 90
      256
102
RTVSPost2010Prop51ColorRGB
 90
-16777216
102
RTVSPost2010PropOp51
 70
     0
102
RTVSPost2010Prop52
140
1.0
102
RTVSPost2010PropOp52
 70
     0
102
RTVSPost2010Prop53
 90
        2
102
RTVSPost2010PropOp53
 70
     1
102
RTVSPost2010Prop54
  1
strokes_ogs.tif
102
RTVSPost2010PropOp54
 70
     1
102
RTVSPost2010Prop55
280
     0
102
RTVSPost2010PropOp55
 70
     1
102
RTVSPost2010Prop56
140
1.0
102
RTVSPost2010PropOp56
 70
     1
102
RTVSPost2010Prop57
140
1.0
102
RTVSPost2010PropOp57
 70
     1
  0
XRECORD
  5
331
102
{ACAD_REACTORS
330
330
102
}
330
330
100
AcDbXrecord
280
     1
102
RTVSPropertyOp0
 70
     1
102
RTVSPropertyOp1
 70
     1
102
RTVSPropertyOp2
 70
     1
102
RTVSPropertyOp3
 70
     1
102
RTVSPropertyOp4
 70
     1
102
RTVSPropertyOp5
 70
     1
102
RTVSPropertyOp6
 70
     1
102
RTVSPropertyOp7
 70
     1
102
RTVSPropertyOp8
 70
     1
102
RTVSPropertyOp9
 70
     1
102
RTVSPropertyOp10
 70
     1
102
RTVSPropertyOp11
 70
     1
102
RTVSPropertyOp12
 70
     1
102
RTVSPropertyOp13
 70
     1
102
RTVSPropertyOp14
 70
     1
102
RTVSPropertyOp15
 70
     1
102
RTVSPropertyOp16
 70
     1
102
RTVSPropertyOp17
 70
     1
102
RTVSPropertyOp18
 70
     1
102
RTVSPropertyOp19
 70
     1
102
RTVSPropertyOp20
 70
     1
102
RTVSPropertyOp21
 70
     1
102
RTVSPropertyOp22
 70
     1
102
RTVSPropertyOp23
 70
     1
102
RTVSPropertyOp24
 70
     1
102
RTVSPropertyOp25
 70
     1
102
RTVSPropertyOp26
 70
     1
102
RTVSPropertyOp27
 70
     1
102
RTVSPropertyOp28
 70
     1
102
RTVSPropertyOp29
 70
     1
102
RTVSPropertyOp30
 70
     1
102
RTVSPropertyOp31
 70
     1
102
RTVSPropertyOp32
 70
     1
102
RTVSPropertyOp33
 70
     1
102
RTVSPropertyOp34
 70
     1
102
RTVSPropertyOp35
 70
     1
102
RTVSPropertyOp36
 70
     1
102
RTVSPropertyOp37
 70
     1
102
RTVSPropertyOp38
 70
     1
102
RTVSPropertyOp39
 70
     1
102
RTVSPropertyOp40
 70
     1
102
RTVSPropertyOp41
 70
     1
102
RTVSPropertyOp42
 70
     1
102
RTVSPropertyOp43
 70
     1
102
RTVSPropertyOp44
 70
     1
102
RTVSPropertyOp45
 70
     1
102
RTVSPropertyOp46
 70
     1
102
RTVSPropertyOp47
 70
     1
102
RTVSPropertyOp48
 70
     1
102
RTVSPropertyOp49
 70
     1
102
RTVSPropertyOp50
 70
     1
102
RTVSPropertyOp51
 70
     0
102
RTVSPropertyOp52
 70
     0
102
RTVSPropertyOp53
 70
     1
102
RTVSPropertyOp54
 70
     1
102
RTVSPropertyOp55
 70
     1
102
RTVSPropertyOp56
 70
     1
102
RTVSPropertyOp57
 70
     1
102
RTVSPost2010Prop28
280
     0
102
RTVSPost2010PropOp28
 70
     1
102
RTVSPost2010Prop29
280
     1
102
RTVSPost2010PropOp29
 70
     1
102
RTVSPost2010Prop30
280
     1
102
RTVSPost2010PropOp30
 70
     1
102
RTVSPost2010Prop31
280
     0
102
RTVSPost2010PropOp31
 70
     1
102
RTVSPost2010Prop32
280
     0
102
RTVSPost2010PropOp32
 70
     1
102
RTVSPost2010Prop33
280
     0
102
RTVSPost2010PropOp33
 70
     1
102
RTVSPost2010Prop34
280
     0
102
RTVSPost2010PropOp34
 70
     1
102
RTVSPost2010Prop35
280
     0
102
RTVSPost2010PropOp35
 70
     1
102
RTVSPost2010Prop36
280
     0
102
RTVSPost2010PropOp36
 70
     1
102
RTVSPost2010Prop37
 90
       50
102
RTVSPost2010PropOp37
 70
     1
102
RTVSPost2010Prop38
140
0.0
102
RTVSPost2010PropOp38
 70
     1
102
RTVSPost2010Prop39
140
1.0
102
RTVSPost2010PropOp39
 70
     1
102
RTVSPost2010Prop40
 90
        0
102
RTVSPost2010PropOp40
 70
     1
102
RTVSPost2010Prop41ColorIndex
 90
      178
102
RTVSPost2010Prop41ColorRGB
 90
        0
102
RTVSPost2010PropOp41
 70
     1
102
RTVSPost2010Prop42
 90
       50
102
RTVSPost2010PropOp42
 70
     1
102
RTVSPost2010Prop43
 90
        3
102
RTVSPost2010PropOp43
 70
     1
102
RTVSPost2010Prop44ColorIndex
 90
        5
102
RTVSPost2010Prop44ColorRGB
 90
      255
102
RTVSPost2010PropOp44
 70
     1
102
RTVSPost2010Prop45
280
     0
102
RTVSPost2010PropOp45
 70
     1
102
RTVSPost2010Prop46
 90
       50
102
RTVSPost2010PropOp46
 70
     1
102
RTVSPost2010Prop47
 90
       50
102
RTVSPost2010PropOp47
 70
     1
102
RTVSPost2010Prop48
 90
       50
102
RTVSPost2010PropOp48
 70
     1
102
RTVSPost2010Prop49
280
     0
102
RTVSPost2010PropOp49
 70
     1
102
RTVSPost2010Prop50
 90
       50
102
RTVSPost2010PropOp50
 70
     1
102
RTVSPost2010Prop51ColorIndex
 90
      256
102
RTVSPost2010Prop51ColorRGB
 90
-16777216
102
RTVSPost2010PropOp51
 70
     0
102
RTVSPost2010Prop52
140
1.0
102
RTVSPost2010PropOp52
 70
     0
102
RTVSPost2010Prop53
 90
        2
102
RTVSPost2010PropOp53
 70
     1
102
RTVSPost2010Prop54
  1
strokes_ogs.tif
102
RTVSPost2010PropOp54
 70
     1
102
RTVSPost2010Prop55
280
     0
102
RTVSPost2010PropOp55
 70
     1
102
RTVSPost2010Prop56
140
1.0
102
RTVSPost2010PropOp56
 70
     1
102
RTVSPost2010Prop57
140
1.0
102
RTVSPost2010PropOp57
 70
     1
  0
XRECORD
  5
351
102
{ACAD_REACTORS
330
350
102
}
330
350
100
AcDbXrecord
280
     1
102
RTVSPropertyOp0
 70
     1
102
RTVSPropertyOp1
 70
     1
102
RTVSPropertyOp2
 70
     1
102
RTVSPropertyOp3
 70
     1
102
RTVSPropertyOp4
 70
     1
102
RTVSPropertyOp5
 70
     1
102
RTVSPropertyOp6
 70
     1
102
RTVSPropertyOp7
 70
     1
102
RTVSPropertyOp8
 70
     1
102
RTVSPropertyOp9
 70
     1
102
RTVSPropertyOp10
 70
     1
102
RTVSPropertyOp11
 70
     1
102
RTVSPropertyOp12
 70
     1
102
RTVSPropertyOp13
 70
     1
102
RTVSPropertyOp14
 70
     1
102
RTVSPropertyOp15
 70
     1
102
RTVSPropertyOp16
 70
     1
102
RTVSPropertyOp17
 70
     1
102
RTVSPropertyOp18
 70
     1
102
RTVSPropertyOp19
 70
     1
102
RTVSPropertyOp20
 70
     1
102
RTVSPropertyOp21
 70
     1
102
RTVSPropertyOp22
 70
     1
102
RTVSPropertyOp23
 70
     1
102
RTVSPropertyOp24
 70
     1
102
RTVSPropertyOp25
 70
     1
102
RTVSPropertyOp26
 70
     1
102
RTVSPropertyOp27
 70
     1
102
RTVSPropertyOp28
 70
     1
102
RTVSPropertyOp29
 70
     1
102
RTVSPropertyOp30
 70
     1
102
RTVSPropertyOp31
 70
     1
102
RTVSPropertyOp32
 70
     1
102
RTVSPropertyOp33
 70
     1
102
RTVSPropertyOp34
 70
     1
102
RTVSPropertyOp35
 70
     1
102
RTVSPropertyOp36
 70
     1
102
RTVSPropertyOp37
 70
     1
102
RTVSPropertyOp38
 70
     1
102
RTVSPropertyOp39
 70
     1
102
RTVSPropertyOp40
 70
     1
102
RTVSPropertyOp41
 70
     1
102
RTVSPropertyOp42
 70
     1
102
RTVSPropertyOp43
 70
     1
102
RTVSPropertyOp44
 70
     1
102
RTVSPropertyOp45
 70
     1
102
RTVSPropertyOp46
 70
     1
102
RTVSPropertyOp47
 70
     1
102
RTVSPropertyOp48
 70
     1
102
RTVSPropertyOp49
 70
     1
102
RTVSPropertyOp50
 70
     1
102
RTVSPropertyOp51
 70
     0
102
RTVSPropertyOp52
 70
     0
102
RTVSPropertyOp53
 70
     1
102
RTVSPropertyOp54
 70
     1
102
RTVSPropertyOp55
 70
     1
102
RTVSPropertyOp56
 70
     1
102
RTVSPropertyOp57
 70
     1
102
RTVSPost2010Prop28
280
     0
102
RTVSPost2010PropOp28
 70
     1
102
RTVSPost2010Prop29
280
     1
102
RTVSPost2010PropOp29
 70
     1
102
RTVSPost2010Prop30
280
     1
102
RTVSPost2010PropOp30
 70
     1
102
RTVSPost2010Prop31
280
     0
102
RTVSPost2010PropOp31
 70
     1
102
RTVSPost2010Prop32
280
     0
102
RTVSPost2010PropOp32
 70
     1
102
RTVSPost2010Prop33
280
     0
102
RTVSPost2010PropOp33
 70
     1
102
RTVSPost2010Prop34
280
     0
102
RTVSPost2010PropOp34
 70
     1
102
RTVSPost2010Prop35
280
     0
102
RTVSPost2010PropOp35
 70
     1
102
RTVSPost2010Prop36
280
     0
102
RTVSPost2010PropOp36
 70
     1
102
RTVSPost2010Prop37
 90
       50
102
RTVSPost2010PropOp37
 70
     1
102
RTVSPost2010Prop38
140
0.0
102
RTVSPost2010PropOp38
 70
     1
102
RTVSPost2010Prop39
140
1.0
102
RTVSPost2010PropOp39
 70
     1
102
RTVSPost2010Prop40
 90
        0
102
RTVSPost2010PropOp40
 70
     1
102
RTVSPost2010Prop41ColorIndex
 90
      178
102
RTVSPost2010Prop41ColorRGB
 90
        0
102
RTVSPost2010PropOp41
 70
     1
102
RTVSPost2010Prop42
 90
       50
102
RTVSPost2010PropOp42
 70
     1
102
RTVSPost2010Prop43
 90
        3
102
RTVSPost2010PropOp43
 70
     1
102
RTVSPost2010Prop44ColorIndex
 90
        5
102
RTVSPost2010Prop44ColorRGB
 90
      255
102
RTVSPost2010PropOp44
 70
     1
102
RTVSPost2010Prop45
280
     0
102
RTVSPost2010PropOp45
 70
     1
102
RTVSPost2010Prop46
 90
       50
102
RTVSPost2010PropOp46
 70
     1
102
RTVSPost2010Prop47
 90
       50
102
RTVSPost2010PropOp47
 70
     1
102
RTVSPost2010Prop48
 90
       50
102
RTVSPost2010PropOp48
 70
     1
102
RTVSPost2010Prop49
280
     0
102
RTVSPost2010PropOp49
 70
     1
102
RTVSPost2010Prop50
 90
       50
102
RTVSPost2010PropOp50
 70
     1
102
RTVSPost2010Prop51ColorIndex
 90
      256
102
RTVSPost2010Prop51ColorRGB
 90
-16777216
102
RTVSPost2010PropOp51
 70
     0
102
RTVSPost2010Prop52
140
1.0
102
RTVSPost2010PropOp52
 70
     0
102
RTVSPost2010Prop53
 90
        2
102
RTVSPost2010PropOp53
 70
     1
102
RTVSPost2010Prop54
  1
strokes_ogs.tif
102
RTVSPost2010PropOp54
 70
     1
102
RTVSPost2010Prop55
280
     0
102
RTVSPost2010PropOp55
 70
     1
102
RTVSPost2010Prop56
140
1.0
102
RTVSPost2010PropOp56
 70
     1
102
RTVSPost2010Prop57
140
1.0
102
RTVSPost2010PropOp57
 70
     1
  0
ENDSEC
  0
EOF
