  0
SECTION
  2
HEADER
  9
$ACADVER
  1
AC1021
  9
$ACADMAINTVER
 70
    25
  9
$DWGCODEPAGE
  3
ANSI_1252
  9
$INSBASE
 10
3804.693056528511
 20
1444.863951419895
 30
0.0
  9
$EXTMIN
 10
1.000000000000000E+20
 20
1.000000000000000E+20
 30
1.000000000000000E+20
  9
$EXTMAX
 10
-1.000000000000000E+20
 20
-1.000000000000000E+20
 30
-1.000000000000000E+20
  9
$LIMMIN
 10
0.0
 20
0.0
  9
$LIMMAX
 10
12.0
 20
9.0
  9
$ORTHOMODE
 70
     0
  9
$REGENMODE
 70
     1
  9
$FILLMODE
 70
     1
  9
$QTEXTMODE
 70
     0
  9
$MIRRTEXT
 70
     1
  9
$LTSCALE
 40
1.0
  9
$ATTMODE
 70
     1
  9
$TEXTSIZE
 40
0.2
  9
$TRACEWID
 40
0.05
  9
$TEXTSTYLE
  7
Standard
  9
$CLAYER
  8
Graypants_Drum24
  9
$CELTYPE
  6
ByLayer
  9
$CECOLOR
 62
   256
  9
$CELTSCALE
 40
1.0
  9
$DISPSILH
 70
     0
  9
$DIMSCALE
 40
1.0
  9
$DIMASZ
 40
0.18
  9
$DIMEXO
 40
0.0625
  9
$DIMDLI
 40
0.38
  9
$DIMRND
 40
0.0
  9
$DIMDLE
 40
0.0
  9
$DIMEXE
 40
0.18
  9
$DIMTP
 40
0.0
  9
$DIMTM
 40
0.0
  9
$DIMTXT
 40
0.18
  9
$DIMCEN
 40
0.09
  9
$DIMTSZ
 40
0.0
  9
$DIMTOL
 70
     0
  9
$DIMLIM
 70
     0
  9
$DIMTIH
 70
     1
  9
$DIMTOH
 70
     1
  9
$DIMSE1
 70
     0
  9
$DIMSE2
 70
     0
  9
$DIMTAD
 70
     0
  9
$DIMZIN
 70
     0
  9
$DIMBLK
  1

  9
$DIMASO
 70
     1
  9
$DIMSHO
 70
     1
  9
$DIMPOST
  1

  9
$DIMAPOST
  1

  9
$DIMALT
 70
     0
  9
$DIMALTD
 70
     2
  9
$DIMALTF
 40
25.4
  9
$DIMLFAC
 40
1.0
  9
$DIMTOFL
 70
     0
  9
$DIMTVP
 40
0.0
  9
$DIMTIX
 70
     0
  9
$DIMSOXD
 70
     0
  9
$DIMSAH
 70
     0
  9
$DIMBLK1
  1

  9
$DIMBLK2
  1

  9
$DIMSTYLE
  2
STANDARD_ACAD
  9
$DIMCLRD
 70
     0
  9
$DIMCLRE
 70
     0
  9
$DIMCLRT
 70
     0
  9
$DIMTFAC
 40
1.0
  9
$DIMGAP
 40
0.09
  9
$DIMJUST
 70
     0
  9
$DIMSD1
 70
     0
  9
$DIMSD2
 70
     0
  9
$DIMTOLJ
 70
     1
  9
$DIMTZIN
 70
     0
  9
$DIMALTZ
 70
     0
  9
$DIMALTTZ
 70
     0
  9
$DIMUPT
 70
     0
  9
$DIMDEC
 70
     4
  9
$DIMTDEC
 70
     4
  9
$DIMALTU
 70
     2
  9
$DIMALTTD
 70
     2
  9
$DIMTXSTY
  7
Standard
  9
$DIMAUNIT
 70
     0
  9
$DIMADEC
 70
     0
  9
$DIMALTRND
 40
0.0
  9
$DIMAZIN
 70
     0
  9
$DIMDSEP
 70
    46
  9
$DIMATFIT
 70
     3
  9
$DIMFRAC
 70
     0
  9
$DIMLDRBLK
  1

  9
$DIMLUNIT
 70
     2
  9
$DIMLWD
 70
    -2
  9
$DIMLWE
 70
    -2
  9
$DIMTMOVE
 70
     2
  9
$DIMFXL
 40
1.0
  9
$DIMFXLON
 70
     0
  9
$DIMJOGANG
 40
0.7853981633974483
  9
$DIMTFILL
 70
     0
  9
$DIMTFILLCLR
 70
     0
  9
$DIMARCSYM
 70
     0
  9
$DIMLTYPE
  6

  9
$DIMLTEX1
  6

  9
$DIMLTEX2
  6

  9
$LUNITS
 70
     2
  9
$LUPREC
 70
     3
  9
$SKETCHINC
 40
0.1
  9
$FILLETRAD
 40
0.5
  9
$AUNITS
 70
     0
  9
$AUPREC
 70
     0
  9
$MENU
  1
.
  9
$ELEVATION
 40
0.0
  9
$PELEVATION
 40
0.0
  9
$THICKNESS
 40
0.0
  9
$LIMCHECK
 70
     0
  9
$CHAMFERA
 40
0.0
  9
$CHAMFERB
 40
0.0
  9
$CHAMFERC
 40
0.0
  9
$CHAMFERD
 40
0.0
  9
$SKPOLY
 70
     0
  9
$TDCREATE
 40
2460864.531050104
  9
$TDUCREATE
 40
2460864.864383438
  9
$TDUPDATE
 40
2460864.531065394
  9
$TDUUPDATE
 40
2460864.864398727
  9
$TDINDWG
 40
0.0000000116
  9
$TDUSRTIMER
 40
0.0000000116
  9
$USRTIMER
 70
     1
  9
$ANGBASE
 50
0.0
  9
$ANGDIR
 70
     0
  9
$PDMODE
 70
     0
  9
$PDSIZE
 40
0.0
  9
$PLINEWID
 40
0.0
  9
$SPLFRAME
 70
     0
  9
$SPLINETYPE
 70
     6
  9
$SPLINESEGS
 70
     8
  9
$HANDSEED
  5
38E
  9
$SURFTAB1
 70
     6
  9
$SURFTAB2
 70
     6
  9
$SURFTYPE
 70
     6
  9
$SURFU
 70
     6
  9
$SURFV
 70
     6
  9
$UCSBASE
  2

  9
$UCSNAME
  2

  9
$UCSORG
 10
0.0
 20
0.0
 30
0.0
  9
$UCSXDIR
 10
1.0
 20
0.0
 30
0.0
  9
$UCSYDIR
 10
0.0
 20
1.0
 30
0.0
  9
$UCSORTHOREF
  2

  9
$UCSORTHOVIEW
 70
     0
  9
$UCSORGTOP
 10
0.0
 20
0.0
 30
0.0
  9
$UCSORGBOTTOM
 10
0.0
 20
0.0
 30
0.0
  9
$UCSORGLEFT
 10
0.0
 20
0.0
 30
0.0
  9
$UCSORGRIGHT
 10
0.0
 20
0.0
 30
0.0
  9
$UCSORGFRONT
 10
0.0
 20
0.0
 30
0.0
  9
$UCSORGBACK
 10
0.0
 20
0.0
 30
0.0
  9
$PUCSBASE
  2

  9
$PUCSNAME
  2

  9
$PUCSORG
 10
0.0
 20
0.0
 30
0.0
  9
$PUCSXDIR
 10
1.0
 20
0.0
 30
0.0
  9
$PUCSYDIR
 10
0.0
 20
1.0
 30
0.0
  9
$PUCSORTHOREF
  2

  9
$PUCSORTHOVIEW
 70
     0
  9
$PUCSORGTOP
 10
0.0
 20
0.0
 30
0.0
  9
$PUCSORGBOTTOM
 10
0.0
 20
0.0
 30
0.0
  9
$PUCSORGLEFT
 10
0.0
 20
0.0
 30
0.0
  9
$PUCSORGRIGHT
 10
0.0
 20
0.0
 30
0.0
  9
$PUCSORGFRONT
 10
0.0
 20
0.0
 30
0.0
  9
$PUCSORGBACK
 10
0.0
 20
0.0
 30
0.0
  9
$USERI1
 70
     0
  9
$USERI2
 70
     0
  9
$USERI3
 70
     0
  9
$USERI4
 70
     0
  9
$USERI5
 70
     0
  9
$USERR1
 40
0.0
  9
$USERR2
 40
0.0
  9
$USERR3
 40
0.0
  9
$USERR4
 40
0.0
  9
$USERR5
 40
0.0
  9
$WORLDVIEW
 70
     1
  9
$SHADEDGE
 70
     3
  9
$SHADEDIF
 70
    70
  9
$TILEMODE
 70
     1
  9
$MAXACTVP
 70
    64
  9
$PINSBASE
 10
0.0
 20
0.0
 30
0.0
  9
$PLIMCHECK
 70
     0
  9
$PEXTMIN
 10
1.000000000000000E+20
 20
1.000000000000000E+20
 30
1.000000000000000E+20
  9
$PEXTMAX
 10
-1.000000000000000E+20
 20
-1.000000000000000E+20
 30
-1.000000000000000E+20
  9
$PLIMMIN
 10
0.0
 20
0.0
  9
$PLIMMAX
 10
12.0
 20
9.0
  9
$UNITMODE
 70
     0
  9
$VISRETAIN
 70
     1
  9
$PLINEGEN
 70
     0
  9
$PSLTSCALE
 70
     1
  9
$TREEDEPTH
 70
  3020
  9
$CMLSTYLE
  2
Standard
  9
$CMLJUST
 70
     0
  9
$CMLSCALE
 40
1.0
  9
$PROXYGRAPHICS
 70
     1
  9
$MEASUREMENT
 70
     1
  9
$CELWEIGHT
370
    -1
  9
$ENDCAPS
280
     0
  9
$JOINSTYLE
280
     0
  9
$LWDISPLAY
290
     0
  9
$INSUNITS
 70
     4
  9
$HYPERLINKBASE
  1

  9
$STYLESHEET
  1

  9
$XEDIT
290
     1
  9
$CEPSNTYPE
380
     0
  9
$PSTYLEMODE
290
     1
  9
$FINGERPRINTGUID
  2
{721ed387-0c6d-c548-8253-7f0d9a053eb1}
  9
$VERSIONGUID
  2
{FAEB1C32-E019-11D5-929B-00C0DF256EC4}
  9
$EXTNAMES
290
     1
  9
$PSVPSCALE
 40
0.0
  9
$OLESTARTUP
290
     0
  9
$SORTENTS
280
   127
  9
$INDEXCTL
280
     0
  9
$HIDETEXT
280
     1
  9
$XCLIPFRAME
290
     0
  9
$HALOGAP
280
     0
  9
$OBSCOLOR
 70
   257
  9
$OBSLTYPE
280
     0
  9
$INTERSECTIONDISPLAY
280
     0
  9
$INTERSECTIONCOLOR
 70
   257
  9
$DIMASSOC
280
     2
  9
$PROJECTNAME
  1

  9
$CAMERADISPLAY
290
     0
  9
$LENSLENGTH
 40
50.0
  9
$CAMERAHEIGHT
 40
0.0
  9
$STEPSPERSEC
 40
2.0
  9
$STEPSIZE
 40
6.0
  9
$3DDWFPREC
 40
2.0
  9
$PSOLWIDTH
 40
0.25
  9
$PSOLHEIGHT
 40
4.0
  9
$LOFTANG1
 40
1.570796326794897
  9
$LOFTANG2
 40
1.570796326794897
  9
$LOFTMAG1
 40
0.0
  9
$LOFTMAG2
 40
0.0
  9
$LOFTPARAM
 70
     7
  9
$LOFTNORMALS
280
     1
  9
$LATITUDE
 40
37.795
  9
$LONGITUDE
 40
-122.394
  9
$NORTHDIRECTION
 40
0.0
  9
$TIMEZONE
 70
 -8000
  9
$LIGHTGLYPHDISPLAY
280
     1
  9
$TILEMODELIGHTSYNCH
280
     1
  9
$CMATERIAL
347
44
  9
$SOLIDHIST
280
     0
  9
$SHOWHIST
280
     1
  9
$DWFFRAME
280
     2
  9
$DGNFRAME
280
     2
  9
$REALWORLDSCALE
290
     1
  9
$INTERFERECOLOR
 62
   256
  9
$CSHADOW
280
     0
  9
$SHADOWPLANELOCATION
 40
0.0
  0
ENDSEC
  0
SECTION
  2
CLASSES
  0
CLASS
  1
ACDBDICTIONARYWDFLT
  2
AcDbDictionaryWithDefault
  3
ObjectDBX Classes
 90
        0
 91
        3
280
     0
281
     0
  0
CLASS
  1
VISUALSTYLE
  2
AcDbVisualStyle
  3
ObjectDBX Classes
 90
     4095
 91
        3
280
     0
281
     0
  0
CLASS
  1
MATERIAL
  2
AcDbMaterial
  3
ObjectDBX Classes
 90
     1153
 91
        3
280
     0
281
     0
  0
CLASS
  1
SCALE
  2
AcDbScale
  3
ObjectDBX Classes
 90
     1153
 91
        3
280
     0
281
     0
  0
CLASS
  1
TABLESTYLE
  2
AcDbTableStyle
  3
ObjectDBX Classes
 90
     4095
 91
        3
280
     0
281
     0
  0
CLASS
  1
MLEADERSTYLE
  2
AcDbMLeaderStyle
  3
ACDB_MLEADERSTYLE_CLASS
 90
     4095
 91
        3
280
     0
281
     0
  0
CLASS
  1
SUN
  2
AcDbSun
  3
SCENEOE
 90
     1153
 91
        3
280
     0
281
     0
  0
CLASS
  1
DICTIONARYVAR
  2
AcDbDictionaryVar
  3
ObjectDBX Classes
 90
        0
 91
        3
280
     0
281
     0
  0
CLASS
  1
CELLSTYLEMAP
  2
AcDbCellStyleMap
  3
ObjectDBX Classes
 90
     1152
 91
        3
280
     0
281
     0
  0
ENDSEC
  0
SECTION
  2
TABLES
  0
TABLE
  2
VPORT
  5
8
330
0
100
AcDbSymbolTable
 70
     1
  0
VPORT
  5
29
330
8
100
AcDbSymbolTableRecord
100
AcDbViewportTableRecord
  2
*Active
 70
     0
 10
0.0
 20
0.0
 11
1.0
 21
1.0
 12
10.42990654205607
 22
4.5
 13
0.0
 23
0.0
 14
0.5
 24
0.5
 15
0.5
 25
0.5
 16
0.0
 26
0.0
 36
1.0
 17
0.0
 27
0.0
 37
0.0
 40
9.0
 41
1.972972972850329
 42
50.0
 43
0.0
 44
0.0
 50
0.0
 51
0.0
 71
     0
 72
   100
 73
     1
 74
     3
 75
     0
 76
     0
 77
     0
 78
     0
281
     0
 65
     1
110
0.0
120
0.0
130
0.0
111
1.0
121
0.0
131
0.0
112
0.0
122
1.0
132
0.0
 79
     0
146
0.0
348
2F
 60
     3
 61
     5
292
     1
282
     1
141
0.0
142
0.0
 63
   250
361
6D
  0
ENDTAB
  0
TABLE
  2
LTYPE
  5
5
330
0
100
AcDbSymbolTable
 70
     2
  0
LTYPE
  5
14
330
5
100
AcDbSymbolTableRecord
100
AcDbLinetypeTableRecord
  2
ByBlock
 70
     0
  3

 72
    65
 73
     0
 40
0.0
  0
LTYPE
  5
15
330
5
100
AcDbSymbolTableRecord
100
AcDbLinetypeTableRecord
  2
ByLayer
 70
     0
  3

 72
    65
 73
     0
 40
0.0
  0
LTYPE
  5
16
330
5
100
AcDbSymbolTableRecord
100
AcDbLinetypeTableRecord
  2
Continuous
 70
     0
  3
Solid line
 72
    65
 73
     0
 40
0.0
  0
LTYPE
  5
17D
330
5
100
AcDbSymbolTableRecord
100
AcDbLinetypeTableRecord
  2
Hidden
 70
     0
  3

 72
    65
 73
     2
 40
4.0
 49
2.0
 74
     0
 49
-2.0
 74
     0
  0
ENDTAB
  0
TABLE
  2
LAYER
  5
2
330
0
100
AcDbSymbolTable
 70
     2
  0
LAYER
  5
10
330
2
100
AcDbSymbolTableRecord
100
AcDbLayerTableRecord
  2
0
 70
     0
 62
     7
  6
Continuous
370
    -3
390
F
347
46
  0
LAYER
  5
6E
330
2
100
AcDbSymbolTableRecord
100
AcDbLayerTableRecord
  2
Graypants_Drum24
 70
     0
 62
    36
420
  8866048
  6
Continuous
370
    -3
390
F
347
46
  0
ENDTAB
  0
TABLE
  2
STYLE
  5
3
330
0
100
AcDbSymbolTable
 70
     1
  0
STYLE
  5
11
330
3
100
AcDbSymbolTableRecord
100
AcDbTextStyleTableRecord
  2
Standard
 70
     0
 40
0.0
 41
1.0
 50
0.0
 71
     0
 42
0.2
  3
txt
  4

  0
ENDTAB
  0
TABLE
  2
VIEW
  5
6
330
0
100
AcDbSymbolTable
 70
     0
  0
ENDTAB
  0
TABLE
  2
UCS
  5
7
330
0
100
AcDbSymbolTable
 70
     0
  0
ENDTAB
  0
TABLE
  2
APPID
  5
9
330
0
100
AcDbSymbolTable
 70
     2
  0
APPID
  5
12
330
9
100
AcDbSymbolTableRecord
100
AcDbRegAppTableRecord
  2
ACAD
 70
     0
  0
APPID
  5
386
330
9
100
AcDbSymbolTableRecord
100
AcDbRegAppTableRecord
  2
ACAD_MLEADERVER
 70
     0
  0
ENDTAB
  0
TABLE
  2
DIMSTYLE
  5
A
330
0
100
AcDbSymbolTable
 70
     1
100
AcDbDimStyleTable
  0
DIMSTYLE
105
27
330
A
100
AcDbSymbolTableRecord
100
AcDbDimStyleTableRecord
  2
STANDARD_ACAD
 70
     0
178
     0
340
11
  0
ENDTAB
  0
TABLE
  2
BLOCK_RECORD
  5
1
330
0
100
AcDbSymbolTable
 70
     1
  0
BLOCK_RECORD
  5
1F
330
1
100
AcDbSymbolTableRecord
100
AcDbBlockTableRecord
  2
*Model_Space
340
22
 70
     0
280
     1
281
     0
  0
BLOCK_RECORD
  5
1B
330
1
100
AcDbSymbolTableRecord
100
AcDbBlockTableRecord
  2
*Paper_Space
340
1E
 70
     0
280
     1
281
     0
  0
BLOCK_RECORD
  5
23
330
1
100
AcDbSymbolTableRecord
100
AcDbBlockTableRecord
  2
*Paper_Space0
340
26
 70
     0
280
     1
281
     0
  0
ENDTAB
  0
ENDSEC
  0
SECTION
  2
BLOCKS
  0
BLOCK
  5
20
330
1F
100
AcDbEntity
  8
0
100
AcDbBlockBegin
  2
*Model_Space
 70
     0
 10
0.0
 20
0.0
 30
0.0
  3
*Model_Space
  1

  0
ENDBLK
  5
21
330
1F
100
AcDbEntity
  8
0
100
AcDbBlockEnd
  0
BLOCK
  5
1C
330
1B
100
AcDbEntity
 67
     1
  8
0
100
AcDbBlockBegin
  2
*Paper_Space
 70
     0
 10
0.0
 20
0.0
 30
0.0
  3
*Paper_Space
  1

  0
ENDBLK
  5
1D
330
1B
100
AcDbEntity
 67
     1
  8
0
100
AcDbBlockEnd
  0
BLOCK
  5
24
330
23
100
AcDbEntity
  8
0
100
AcDbBlockBegin
  2
*Paper_Space0
 70
     0
 10
0.0
 20
0.0
 30
0.0
  3
*Paper_Space0
  1

  0
ENDBLK
  5
25
330
23
100
AcDbEntity
  8
0
100
AcDbBlockEnd
  0
ENDSEC
  0
SECTION
  2
ENTITIES
  0
LINE
  5
6F
330
1F
100
AcDbEntity
  8
Graypants_Drum24
100
AcDbLine
 10
-312.2879766184999
 20
-1533.911845682787
 30
0.0
 11
312.2879766184997
 21
-1533.911845682787
 31
0.0
  0
LINE
  5
70
330
1F
100
AcDbEntity
  8
Graypants_Drum24
100
AcDbLine
 10
-312.2879766184999
 20
-1526.711845682787
 30
0.0
 11
312.2879766184997
 21
-1526.711845682787
 31
0.0
  0
LINE
  5
71
330
1F
100
AcDbEntity
  8
Graypants_Drum24
100
AcDbLine
 10
-312.2879766184999
 20
-1519.511845682787
 30
0.0
 11
312.2879766184997
 21
-1519.511845682787
 31
0.0
  0
LINE
  5
72
330
1F
100
AcDbEntity
  8
Graypants_Drum24
100
AcDbLine
 10
-312.2879766184999
 20
-1512.311845682787
 30
0.0
 11
312.2879766184997
 21
-1512.311845682787
 31
0.0
  0
LINE
  5
73
330
1F
100
AcDbEntity
  8
Graypants_Drum24
100
AcDbLine
 10
-312.2879766184999
 20
-1505.111845682787
 30
0.0
 11
312.2879766184997
 21
-1505.111845682787
 31
0.0
  0
LINE
  5
74
330
1F
100
AcDbEntity
  8
Graypants_Drum24
100
AcDbLine
 10
-312.2879766184999
 20
-1497.911845682787
 30
0.0
 11
312.2879766184997
 21
-1497.911845682787
 31
0.0
  0
LINE
  5
75
330
1F
100
AcDbEntity
  8
Graypants_Drum24
100
AcDbLine
 10
-312.2879766184999
 20
-1490.711845682787
 30
0.0
 11
312.2879766184997
 21
-1490.711845682787
 31
0.0
  0
LINE
  5
76
330
1F
100
AcDbEntity
  8
Graypants_Drum24
100
AcDbLine
 10
-312.2879766184999
 20
-1483.511845682787
 30
0.0
 11
312.2879766184997
 21
-1483.511845682787
 31
0.0
  0
LINE
  5
77
330
1F
100
AcDbEntity
  8
Graypants_Drum24
100
AcDbLine
 10
-312.2879766184999
 20
-1476.311845682786
 30
0.0
 11
312.2879766184997
 21
-1476.311845682786
 31
0.0
  0
LINE
  5
78
330
1F
100
AcDbEntity
  8
Graypants_Drum24
100
AcDbLine
 10
-312.2879766184999
 20
-1469.111845682786
 30
0.0
 11
312.2879766184997
 21
-1469.111845682786
 31
0.0
  0
LINE
  5
79
330
1F
100
AcDbEntity
  8
Graypants_Drum24
100
AcDbLine
 10
-312.2879766184999
 20
-1461.911845682786
 30
0.0
 11
312.2879766184997
 21
-1461.911845682786
 31
0.0
  0
LINE
  5
7A
330
1F
100
AcDbEntity
  8
Graypants_Drum24
100
AcDbLine
 10
-312.2879766184999
 20
-1454.711845682786
 30
0.0
 11
312.2879766184997
 21
-1454.711845682786
 31
0.0
  0
LINE
  5
7B
330
1F
100
AcDbEntity
  8
Graypants_Drum24
100
AcDbLine
 10
-312.2879766184999
 20
-1447.511845682786
 30
0.0
 11
312.2879766184997
 21
-1447.511845682786
 31
0.0
  0
LINE
  5
7C
330
1F
100
AcDbEntity
  8
Graypants_Drum24
100
AcDbLine
 10
-312.2879766184999
 20
-1440.311845682786
 30
0.0
 11
312.2879766184997
 21
-1440.311845682786
 31
0.0
  0
LINE
  5
7D
330
1F
100
AcDbEntity
  8
Graypants_Drum24
100
AcDbLine
 10
-312.2879766184999
 20
-1433.111845682786
 30
0.0
 11
312.2879766184997
 21
-1433.111845682786
 31
0.0
  0
LINE
  5
7E
330
1F
100
AcDbEntity
  8
Graypants_Drum24
100
AcDbLine
 10
-312.2879766184999
 20
-1425.911845682786
 30
0.0
 11
312.2879766184997
 21
-1425.911845682786
 31
0.0
  0
LINE
  5
7F
330
1F
100
AcDbEntity
  8
Graypants_Drum24
100
AcDbLine
 10
-312.2879766184999
 20
-1418.711845682786
 30
0.0
 11
312.2879766184997
 21
-1418.711845682786
 31
0.0
  0
LINE
  5
80
330
1F
100
AcDbEntity
  8
Graypants_Drum24
100
AcDbLine
 10
-312.2879766184999
 20
-1411.511845682786
 30
0.0
 11
312.2879766184997
 21
-1411.511845682786
 31
0.0
  0
LINE
  5
81
330
1F
100
AcDbEntity
  8
Graypants_Drum24
100
AcDbLine
 10
-312.2879766184999
 20
-1404.311845682786
 30
0.0
 11
312.2879766184997
 21
-1404.311845682786
 31
0.0
  0
LINE
  5
82
330
1F
100
AcDbEntity
  8
Graypants_Drum24
100
AcDbLine
 10
-312.2879766184999
 20
-1397.111845682786
 30
0.0
 11
312.2879766184997
 21
-1397.111845682786
 31
0.0
  0
LINE
  5
83
330
1F
100
AcDbEntity
  8
Graypants_Drum24
100
AcDbLine
 10
-312.2879766184999
 20
-1389.911845682786
 30
0.0
 11
312.2879766184997
 21
-1389.911845682786
 31
0.0
  0
LINE
  5
84
330
1F
100
AcDbEntity
  8
Graypants_Drum24
100
AcDbLine
 10
-312.2879766184999
 20
-1382.711845682786
 30
0.0
 11
312.2879766184997
 21
-1382.711845682786
 31
0.0
  0
LINE
  5
85
330
1F
100
AcDbEntity
  8
Graypants_Drum24
100
AcDbLine
 10
-312.2879766184999
 20
-1375.511845682786
 30
0.0
 11
312.2879766184997
 21
-1375.511845682786
 31
0.0
  0
LINE
  5
86
330
1F
100
AcDbEntity
  8
Graypants_Drum24
100
AcDbLine
 10
-312.2879766184999
 20
-1368.311845682786
 30
0.0
 11
312.2879766184997
 21
-1368.311845682786
 31
0.0
  0
LINE
  5
87
330
1F
100
AcDbEntity
  8
Graypants_Drum24
100
AcDbLine
 10
-312.2879766184999
 20
-1361.111845682786
 30
0.0
 11
312.2879766184997
 21
-1361.111845682786
 31
0.0
  0
LINE
  5
88
330
1F
100
AcDbEntity
  8
Graypants_Drum24
100
AcDbLine
 10
-312.2879766184999
 20
-1353.911845682786
 30
0.0
 11
312.2879766184997
 21
-1353.911845682786
 31
0.0
  0
LINE
  5
89
330
1F
100
AcDbEntity
  8
Graypants_Drum24
100
AcDbLine
 10
-312.2879766184999
 20
-1346.711845682786
 30
0.0
 11
312.2879766184997
 21
-1346.711845682786
 31
0.0
  0
LINE
  5
8A
330
1F
100
AcDbEntity
  8
Graypants_Drum24
100
AcDbLine
 10
-312.2879766184999
 20
-1339.511845682786
 30
0.0
 11
312.2879766184997
 21
-1339.511845682786
 31
0.0
  0
LINE
  5
8B
330
1F
100
AcDbEntity
  8
Graypants_Drum24
100
AcDbLine
 10
-312.2879766184999
 20
-1332.311845682786
 30
0.0
 11
312.2879766184997
 21
-1332.311845682786
 31
0.0
  0
LINE
  5
8C
330
1F
100
AcDbEntity
  8
Graypants_Drum24
100
AcDbLine
 10
-312.2879766184999
 20
-1325.111845682786
 30
0.0
 11
312.2879766184997
 21
-1325.111845682786
 31
0.0
  0
LINE
  5
8D
330
1F
100
AcDbEntity
  8
Graypants_Drum24
100
AcDbLine
 10
-312.2879766184999
 20
-1317.911845682785
 30
0.0
 11
312.2879766184997
 21
-1317.911845682785
 31
0.0
  0
LINE
  5
8E
330
1F
100
AcDbEntity
  8
Graypants_Drum24
100
AcDbLine
 10
-312.2879766184999
 20
-1310.711845682785
 30
0.0
 11
312.2879766184997
 21
-1310.711845682785
 31
0.0
  0
LINE
  5
8F
330
1F
100
AcDbEntity
  8
Graypants_Drum24
100
AcDbLine
 10
-312.2879766184999
 20
-1303.511845682785
 30
0.0
 11
312.2879766184997
 21
-1303.511845682785
 31
0.0
  0
LINE
  5
90
330
1F
100
AcDbEntity
  8
Graypants_Drum24
100
AcDbLine
 10
-312.2879766184998
 20
-1298.011845682786
 30
0.0
 11
312.2879766184997
 21
-1298.011845682786
 31
0.0
  0
LINE
  5
91
330
1F
100
AcDbEntity
  8
Graypants_Drum24
 62
    36
420
  8866048
370
    -3
100
AcDbLine
 10
-2.170566624868115
 20
-0.7938687519073149
 30
0.0
 11
-2.698750000000018
 21
-0.7938687407929592
 31
0.0
  0
LINE
  5
92
330
1F
100
AcDbEntity
  8
Graypants_Drum24
 62
    36
420
  8866048
370
    -3
100
AcDbLine
 10
2.698750000000246
 20
-0.793868399134908
 30
0.0
 11
2.170566833145358
 21
-0.7938683890454689
 31
0.0
  0
LINE
  5
93
330
1F
100
AcDbEntity
  8
Graypants_Drum24
 62
    36
420
  8866048
370
    -3
100
AcDbLine
 10
2.699761023381598
 20
-0.7938684567563996
 30
0.0
 11
2.170566779220962
 21
-0.7938684829923413
 31
0.0
  0
LINE
  5
94
330
1F
100
AcDbEntity
  8
Graypants_Drum24
 62
    36
420
  8866048
370
    -3
100
AcDbLine
 10
0.7937500001430635
 20
0.7938685396667191
 30
0.0
 11
-0.7793054028338702
 21
0.79386859975898
 31
0.0
  0
LINE
  5
95
330
1F
100
AcDbEntity
  8
Graypants_Drum24
 62
    36
420
  8866048
370
    -3
100
AcDbLine
 10
2.697605690067576
 20
0.7938684569044199
 30
0.0
 11
2.166414514039388
 21
0.7938684832093721
 31
0.0
  0
LINE
  5
96
330
1F
100
AcDbEntity
  8
Graypants_Drum24
 62
    36
420
  8866048
370
    -3
100
AcDbLine
 10
-2.698750000000018
 20
0.7938687408211536
 30
0.0
 11
-2.166414357815938
 21
0.793868752114623
 31
0.0
  0
LINE
  5
97
330
1F
100
AcDbEntity
  8
Graypants_Drum24
 62
    36
420
  8866048
370
    -3
100
AcDbLine
 10
-2.381249999999454
 20
-0.7938687447450284
 30
0.0
 11
-2.381249999999454
 21
-11.11249999998586
 31
0.0
  0
LINE
  5
98
330
1F
100
AcDbEntity
  8
Graypants_Drum24
 62
    36
420
  8866048
370
    -3
100
AcDbLine
 10
-2.381249999999227
 20
11.11250206416389
 30
0.0
 11
-2.381249999999454
 21
0.7938687447731508
 31
0.0
  0
LINE
  5
99
330
1F
100
AcDbEntity
  8
Graypants_Drum24
 62
    36
420
  8866048
370
    -3
100
AcDbLine
 10
2.381250000000591
 20
-0.7938684731340877
 30
0.0
 11
2.381250000000364
 21
-11.11249999998586
 31
0.0
  0
LINE
  5
9A
330
1F
100
AcDbEntity
  8
Graypants_Drum24
 62
    36
420
  8866048
370
    -3
100
AcDbLine
 10
2.381250000000819
 20
11.11250206416389
 30
0.0
 11
2.381250000000591
 21
0.7938684731622119
 31
0.0
  0
ARC
  5
9B
330
1F
100
AcDbEntity
  8
Graypants_Drum24
 62
    36
420
  8866048
370
    -3
100
AcDbCircle
 10
-0.0000000000029655
 20
0.0000000000135473
 30
0.0
 40
2.921000000002411
210
0.0
220
0.0
230
-1.0
100
AcDbArc
 50
15.77020168067685
 51
35.39113727949692
  0
ARC
  5
9C
330
1F
100
AcDbEntity
  8
Graypants_Drum24
 62
    36
420
  8866048
370
    -3
100
AcDbCircle
 10
-0.0000000000036214
 20
0.0000000000153876
 30
0.0
 40
2.921000000003201
210
0.0
220
0.0
230
-1.0
100
AcDbArc
 50
324.6088627205079
 51
344.2297983193093
  0
ARC
  5
9D
330
1F
100
AcDbEntity
  8
Graypants_Drum24
 62
    36
420
  8866048
370
    -3
100
AcDbCircle
 10
-28.71395370726503
 20
-277.5650939022984
 30
0.0
 40
279.5280898694817
100
AcDbArc
 50
84.75770972015931
 51
84.75787614162725
  0
ARC
  5
9E
330
1F
100
AcDbEntity
  8
Graypants_Drum24
 62
    36
420
  8866048
370
    -3
100
AcDbCircle
 10
3.174946031390724
 20
-0.0008382470149489
 30
0.0
 40
0.7947066620657869
100
AcDbArc
 50
89.99999986333994
 51
90.05881494399169
  0
LINE
  5
9F
330
1F
100
AcDbEntity
  8
Graypants_Drum24
 62
    36
420
  8866048
370
    -3
100
AcDbLine
 10
2.381250000000591
 20
2.921000000014146
 30
0.0
 11
4.762500000000728
 21
2.921000000014146
 31
0.0
  0
LINE
  5
A0
330
1F
100
AcDbEntity
  8
Graypants_Drum24
 62
    36
420
  8866048
370
    -3
100
AcDbLine
 10
4.7625000000005
 20
-2.920999999985725
 30
0.0
 11
2.381250000000364
 21
-2.920999999985725
 31
0.0
  0
ARC
  5
A1
330
1F
100
AcDbEntity
  8
Graypants_Drum24
 62
    36
420
  8866048
370
    -3
100
AcDbCircle
 10
-0.0000000000008084
 20
0.0000000000138341
 30
0.0
 40
7.937499999999664
210
0.0
220
0.0
230
-1.0
100
AcDbArc
 50
201.5923248715695
 51
252.5423968762781
  0
ARC
  5
A2
330
1F
100
AcDbEntity
  8
Graypants_Drum24
 62
    36
420
  8866048
370
    -3
100
AcDbCircle
 10
-0.0000000000004441
 20
0.0000000000143409
 30
0.0
 40
7.937499999999985
210
0.0
220
0.0
230
-1.0
100
AcDbArc
 50
107.4576031237229
 51
158.4076751284313
  0
LINE
  5
A3
330
1F
100
AcDbEntity
  8
Graypants_Drum24
 62
    36
420
  8866048
370
    -3
100
AcDbLine
 10
-50.22218171376312
 20
-27.26374001811064
 30
0.0
 11
-11.49709257849167
 21
-4.905798838272551
 31
0.0
  0
LINE
  5
A4
330
1F
100
AcDbEntity
  8
Graypants_Drum24
 62
    36
420
  8866048
370
    -3
100
AcDbLine
 10
-48.72522036063083
 20
-29.86357059309375
 30
0.0
 11
-9.997092551158858
 21
-7.503875033845622
 31
0.0
  0
LINE
  5
A5
330
1F
100
AcDbEntity
  8
Graypants_Drum24
 62
    36
420
  8866048
370
    -3
100
AcDbLine
 10
50.22630129612025
 20
-27.26611740073486
 30
0.0
 11
11.49709265728325
 21
-4.90579865361907
 31
0.0
  0
LINE
  5
A6
330
1F
100
AcDbEntity
  8
Graypants_Drum24
 62
    36
420
  8866048
370
    -3
100
AcDbLine
 10
48.72630131051051
 20
-29.86419362039624
 30
0.0
 11
9.997092671677592
 21
-7.503874873282951
 31
0.0
  0
LINE
  5
A7
330
1F
100
AcDbEntity
  8
Graypants_Drum24
 62
    36
420
  8866048
370
    -3
100
AcDbLine
 10
1.499999999932697
 20
57.13031156926968
 30
0.0
 11
1.499999999924739
 21
12.96192165781849
 31
0.0
  0
LINE
  5
A8
330
1F
100
AcDbEntity
  8
Graypants_Drum24
 62
    36
420
  8866048
370
    -3
100
AcDbLine
 10
-1.500000000066848
 20
57.13031156926627
 30
0.0
 11
-1.500000000074806
 21
12.96192165769457
 31
0.0
  0
ARC
  5
A9
330
1F
100
AcDbEntity
  8
Graypants_Drum24
 62
    36
420
  8866048
370
    -3
100
AcDbCircle
 10
-0.0000000000001578
 20
0.000000000000148
 30
0.0
 40
12.49999999999999
100
AcDbArc
 50
99.41864332412604
 51
260.5813623255676
  0
ARC
  5
AA
330
1F
100
AcDbEntity
  8
Graypants_Drum24
 62
    36
420
  8866048
370
    -3
100
AcDbCircle
 10
0.0000000000000208
 20
0.0000000000001677
 30
0.0
 40
12.49999999999998
100
AcDbArc
 50
279.4186376744366
 51
80.58135528811286
  0
ARC
  5
AB
330
1F
100
AcDbEntity
  8
Graypants_Drum24
 62
    36
420
  8866048
370
    -3
100
AcDbCircle
 10
-0.0000000000007236
 20
0.0000000000141292
 30
0.0
 40
7.937500000000044
210
0.0
220
0.0
230
-1.0
100
AcDbArc
 50
287.457603123723
 51
72.54239687627783
  0
LINE
  5
AC
330
1F
100
AcDbEntity
  8
Graypants_Drum24
 62
    36
420
  8866048
370
    -3
100
AcDbLine
 10
2.375847880097214
 20
11.27445248486285
 30
0.0
 11
2.381250000000933
 21
11.11250000001419
 31
0.0
  0
LINE
  5
AD
330
1F
100
AcDbEntity
  8
Graypants_Drum24
 62
    36
420
  8866048
370
    -3
100
AcDbLine
 10
2.363938912478668
 20
11.39910840982345
 30
0.0
 11
2.373502281435017
 21
11.30594108792259
 31
0.0
  0
LINE
  5
AE
330
1F
100
AcDbEntity
  8
Graypants_Drum24
 62
    36
420
  8866048
370
    -3
100
AcDbLine
 10
2.376796190188487
 20
11.27494825865612
 30
0.0
 11
2.374455387830053
 21
11.30605865900083
 31
0.0
  0
LINE
  5
AF
330
1F
100
AcDbEntity
  8
Graypants_Drum24
 62
    36
420
  8866048
370
    -3
100
AcDbLine
 10
2.357785218165122
 20
11.45464913890516
 30
0.0
 11
2.363938912478668
 21
11.39910840982345
 31
0.0
  0
ARC
  5
B0
330
1F
100
AcDbEntity
  8
Graypants_Drum24
 62
    36
420
  8866048
370
    -3
100
AcDbCircle
 10
0.0000003960374784
 20
37.64409051226456
 30
0.0
 40
3.174999999998996
100
AcDbArc
 50
118.1928686720493
 51
149.9999993972206
  0
ARC
  5
B1
330
1F
100
AcDbEntity
  8
Graypants_Drum24
 62
    36
420
  8866048
370
    -3
100
AcDbCircle
 10
0.0000003960386081
 20
37.64409051226382
 30
0.0
 40
3.174999999999603
100
AcDbArc
 50
29.99999939721812
 51
61.80714754861714
  0
ARC
  5
B2
330
1F
100
AcDbEntity
  8
Graypants_Drum24
 62
    36
420
  8866048
370
    -3
100
AcDbCircle
 10
-32.60073888398828
 20
-18.82204491313071
 30
0.0
 40
3.17500000000034
100
AcDbArc
 50
238.1928773823133
 51
269.9999993972169
  0
ARC
  5
B3
330
1F
100
AcDbEntity
  8
Graypants_Drum24
 62
    36
420
  8866048
370
    -3
100
AcDbCircle
 10
-32.60073888398898
 20
-18.82204491313073
 30
0.0
 40
3.174999999998787
100
AcDbArc
 50
149.9999993972149
 51
181.8071562588471
  0
ARC
  5
B4
330
1F
100
AcDbEntity
  8
Graypants_Drum24
 62
    36
420
  8866048
370
    -3
100
AcDbCircle
 10
32.60073848795064
 20
-18.82204559908931
 30
0.0
 40
3.174999999998928
100
AcDbArc
 50
358.1928732572579
 51
29.99999939722149
  0
ARC
  5
B5
330
1F
100
AcDbEntity
  8
Graypants_Drum24
 62
    36
420
  8866048
370
    -3
100
AcDbCircle
 10
32.60073848794954
 20
-18.82204559909009
 30
0.0
 40
3.174999999999603
100
AcDbArc
 50
269.9999993972147
 51
301.8071521338051
  0
ARC
  5
B6
330
1F
100
AcDbEntity
  8
Graypants_Drum24
 62
    36
420
  8866048
370
    -3
100
AcDbCircle
 10
-4.754763067709064
 20
-1296.503702932189
 30
0.0
 40
7.662429414530513
210
0.0
220
0.0
230
-1.0
100
AcDbArc
 50
71.9552408205362
 51
71.98750766303982
  0
POLYLINE
  5
B7
330
1F
100
AcDbEntity
  8
Graypants_Drum24
 62
    36
420
  8866048
370
    -3
100
AcDb2dPolyline
 66
     1
 10
0.0
 20
0.0
 30
0.0
  0
VERTEX
  5
B8
330
B7
100
AcDbEntity
  8
Graypants_Drum24
 62
    36
420
  8866048
370
    -3
100
AcDbVertex
100
AcDb2dVertex
 10
266.1867871015666
 20
-1543.419179362476
 30
0.0
  0
VERTEX
  5
B9
330
B7
100
AcDbEntity
  8
Graypants_Drum24
 62
    36
420
  8866048
370
    -3
100
AcDbVertex
100
AcDb2dVertex
 10
266.2252316040065
 20
-1543.418686641863
 30
0.0
  0
VERTEX
  5
BA
330
B7
100
AcDbEntity
  8
Graypants_Drum24
 62
    36
420
  8866048
370
    -3
100
AcDbVertex
100
AcDb2dVertex
 10
266.2640023496928
 20
-1543.417190975887
 30
0.0
  0
VERTEX
  5
BB
330
B7
100
AcDbEntity
  8
Graypants_Drum24
 62
    36
420
  8866048
370
    -3
100
AcDbVertex
100
AcDb2dVertex
 10
266.3030739436916
 20
-1543.414666728321
 30
0.0
  0
VERTEX
  5
BC
330
B7
100
AcDbEntity
  8
Graypants_Drum24
 62
    36
420
  8866048
370
    -3
100
AcDbVertex
100
AcDb2dVertex
 10
266.3424195537885
 20
-1543.411089179702
 30
0.0
  0
VERTEX
  5
BD
330
B7
100
AcDbEntity
  8
Graypants_Drum24
 62
    36
420
  8866048
370
    -3
100
AcDbVertex
100
AcDb2dVertex
 10
266.3820109273084
 20
-1543.406434641533
 30
0.0
  0
VERTEX
  5
BE
330
B7
100
AcDbEntity
  8
Graypants_Drum24
 62
    36
420
  8866048
370
    -3
100
AcDbVertex
100
AcDb2dVertex
 10
266.4218184152288
 20
-1543.400680571812
 30
0.0
  0
VERTEX
  5
BF
330
B7
100
AcDbEntity
  8
Graypants_Drum24
 62
    36
420
  8866048
370
    -3
100
AcDbVertex
100
AcDb2dVertex
 10
266.4618110038772
 20
-1543.393805691225
 30
0.0
  0
VERTEX
  5
C0
330
B7
100
AcDbEntity
  8
Graypants_Drum24
 62
    36
420
  8866048
370
    -3
100
AcDbVertex
100
AcDb2dVertex
 10
266.5019563544525
 20
-1543.385790099309
 30
0.0
  0
VERTEX
  5
C1
330
B7
100
AcDbEntity
  8
Graypants_Drum24
 62
    36
420
  8866048
370
    -3
100
AcDbVertex
100
AcDb2dVertex
 10
266.5422208505623
 20
-1543.376615389828
 30
0.0
  0
VERTEX
  5
C2
330
B7
100
AcDbEntity
  8
Graypants_Drum24
 62
    36
420
  8866048
370
    -3
100
AcDbVertex
100
AcDb2dVertex
 10
266.5825696539119
 20
-1543.366264764562
 30
0.0
  0
VERTEX
  5
C3
330
B7
100
AcDbEntity
  8
Graypants_Drum24
 62
    36
420
  8866048
370
    -3
100
AcDbVertex
100
AcDb2dVertex
 10
266.6229667682138
 20
-1543.35472314468
 30
0.0
  0
VERTEX
  5
C4
330
B7
100
AcDbEntity
  8
Graypants_Drum24
 62
    36
420
  8866048
370
    -3
100
AcDbVertex
100
AcDb2dVertex
 10
266.6633751113227
 20
-1543.34197727885
 30
0.0
  0
VERTEX
  5
C5
330
B7
100
AcDbEntity
  8
Graypants_Drum24
 62
    36
420
  8866048
370
    -3
100
AcDbVertex
100
AcDb2dVertex
 10
266.7037565955263
 20
-1543.328015847188
 30
0.0
  0
VERTEX
  5
C6
330
B7
100
AcDbEntity
  8
Graypants_Drum24
 62
    36
420
  8866048
370
    -3
100
AcDbVertex
100
AcDb2dVertex
 10
266.7440722158452
 20
-1543.31282956016
 30
0.0
  0
VERTEX
  5
C7
330
B7
100
AcDbEntity
  8
Graypants_Drum24
 62
    36
420
  8866048
370
    -3
100
AcDbVertex
100
AcDb2dVertex
 10
266.7842821461181
 20
-1543.296411251551
 30
0.0
  0
VERTEX
  5
C8
330
B7
100
AcDbEntity
  8
Graypants_Drum24
 62
    36
420
  8866048
370
    -3
100
AcDbVertex
100
AcDb2dVertex
 10
266.8243458425638
 20
-1543.278755964601
 30
0.0
  0
VERTEX
  5
C9
330
B7
100
AcDbEntity
  8
Graypants_Drum24
 62
    36
420
  8866048
370
    -3
100
AcDbVertex
100
AcDb2dVertex
 10
266.8642221544321
 20
-1543.25986103044
 30
0.0
  0
VERTEX
  5
CA
330
B7
100
AcDbEntity
  8
Graypants_Drum24
 62
    36
420
  8866048
370
    -3
100
AcDbVertex
100
AcDb2dVertex
 10
266.9038694412698
 20
-1543.23972613799
 30
0.0
  0
VERTEX
  5
CB
330
B7
100
AcDbEntity
  8
Graypants_Drum24
 62
    36
420
  8866048
370
    -3
100
AcDbVertex
100
AcDb2dVertex
 10
266.9432456962487
 20
-1543.218353394523
 30
0.0
  0
VERTEX
  5
CC
330
B7
100
AcDbEntity
  8
Graypants_Drum24
 62
    36
420
  8866048
370
    -3
100
AcDbVertex
100
AcDb2dVertex
 10
266.9823086749251
 20
-1543.195747376136
 30
0.0
  0
VERTEX
  5
CD
330
B7
100
AcDbEntity
  8
Graypants_Drum24
 62
    36
420
  8866048
370
    -3
100
AcDbVertex
100
AcDb2dVertex
 10
267.0210160287207
 20
-1543.171915167459
 30
0.0
  0
VERTEX
  5
CE
330
B7
100
AcDbEntity
  8
Graypants_Drum24
 62
    36
420
  8866048
370
    -3
100
AcDbVertex
100
AcDb2dVertex
 10
267.0593254423508
 20
-1543.146866389972
 30
0.0
  0
VERTEX
  5
CF
330
B7
100
AcDbEntity
  8
Graypants_Drum24
 62
    36
420
  8866048
370
    -3
100
AcDbVertex
100
AcDb2dVertex
 10
267.0971947743581
 20
-1543.120613218425
 30
0.0
  0
VERTEX
  5
D0
330
B7
100
AcDbEntity
  8
Graypants_Drum24
 62
    36
420
  8866048
370
    -3
100
AcDbVertex
100
AcDb2dVertex
 10
267.1345821998576
 20
-1543.093170384914
 30
0.0
  0
VERTEX
  5
D1
330
B7
100
AcDbEntity
  8
Graypants_Drum24
 62
    36
420
  8866048
370
    -3
100
AcDbVertex
100
AcDb2dVertex
 10
267.1714463545506
 20
-1543.064555170294
 30
0.0
  0
VERTEX
  5
D2
330
B7
100
AcDbEntity
  8
Graypants_Drum24
 62
    36
420
  8866048
370
    -3
100
AcDbVertex
100
AcDb2dVertex
 10
267.2077464790257
 20
-1543.034787382695
 30
0.0
  0
VERTEX
  5
D3
330
B7
100
AcDbEntity
  8
Graypants_Drum24
 62
    36
420
  8866048
370
    -3
100
AcDbVertex
100
AcDb2dVertex
 10
267.2434425623458
 20
-1543.003889323046
 30
0.0
  0
VERTEX
  5
D4
330
B7
100
AcDbEntity
  8
Graypants_Drum24
 62
    36
420
  8866048
370
    -3
100
AcDbVertex
100
AcDb2dVertex
 10
267.2784954838966
 20
-1542.971885737627
 30
0.0
  0
VERTEX
  5
D5
330
B7
100
AcDbEntity
  8
Graypants_Drum24
 62
    36
420
  8866048
370
    -3
100
AcDbVertex
100
AcDb2dVertex
 10
267.3128671524764
 20
-1542.938803757759
 30
0.0
  0
VERTEX
  5
D6
330
B7
100
AcDbEntity
  8
Graypants_Drum24
 62
    36
420
  8866048
370
    -3
100
AcDbVertex
100
AcDb2dVertex
 10
267.3465206416117
 20
-1542.904672826928
 30
0.0
  0
VERTEX
  5
D7
330
B7
100
AcDbEntity
  8
Graypants_Drum24
 62
    36
420
  8866048
370
    -3
100
AcDbVertex
100
AcDb2dVertex
 10
267.3794203201077
 20
-1542.869524615685
 30
0.0
  0
VERTEX
  5
D8
330
B7
100
AcDbEntity
  8
Graypants_Drum24
 62
    36
420
  8866048
370
    -3
100
AcDbVertex
100
AcDb2dVertex
 10
267.4115319768746
 20
-1542.83339292485
 30
0.0
  0
VERTEX
  5
D9
330
B7
100
AcDbEntity
  8
Graypants_Drum24
 62
    36
420
  8866048
370
    -3
100
AcDbVertex
100
AcDb2dVertex
 10
267.4428229391201
 20
-1542.796313577612
 30
0.0
  0
VERTEX
  5
DA
330
B7
100
AcDbEntity
  8
Graypants_Drum24
 62
    36
420
  8866048
370
    -3
100
AcDbVertex
100
AcDb2dVertex
 10
267.4732621830512
 20
-1542.758324301262
 30
0.0
  0
VERTEX
  5
DB
330
B7
100
AcDbEntity
  8
Graypants_Drum24
 62
    36
420
  8866048
370
    -3
100
AcDbVertex
100
AcDb2dVertex
 10
267.5028204363
 20
-1542.719464599363
 30
0.0
  0
VERTEX
  5
DC
330
B7
100
AcDbEntity
  8
Graypants_Drum24
 62
    36
420
  8866048
370
    -3
100
AcDbVertex
100
AcDb2dVertex
 10
267.5314702713642
 20
-1542.679775615276
 30
0.0
  0
VERTEX
  5
DD
330
B7
100
AcDbEntity
  8
Graypants_Drum24
 62
    36
420
  8866048
370
    -3
100
AcDbVertex
100
AcDb2dVertex
 10
267.5591861894387
 20
-1542.639299988019
 30
0.0
  0
VERTEX
  5
DE
330
B7
100
AcDbEntity
  8
Graypants_Drum24
 62
    36
420
  8866048
370
    -3
100
AcDbVertex
100
AcDb2dVertex
 10
267.5859446941074
 20
-1542.598081701522
 30
0.0
  0
VERTEX
  5
DF
330
B7
100
AcDbEntity
  8
Graypants_Drum24
 62
    36
420
  8866048
370
    -3
100
AcDbVertex
100
AcDb2dVertex
 10
267.6117243544656
 20
-1542.556165928382
 30
0.0
  0
VERTEX
  5
E0
330
B7
100
AcDbEntity
  8
Graypants_Drum24
 62
    36
420
  8866048
370
    -3
100
AcDbVertex
100
AcDb2dVertex
 10
267.6365058573402
 20
-1542.513598869247
 30
0.0
  0
VERTEX
  5
E1
330
B7
100
AcDbEntity
  8
Graypants_Drum24
 62
    36
420
  8866048
370
    -3
100
AcDbVertex
100
AcDb2dVertex
 10
267.6602720483879
 20
-1542.470427589033
 30
0.0
  0
VERTEX
  5
E2
330
B7
100
AcDbEntity
  8
Graypants_Drum24
 62
    36
420
  8866048
370
    -3
100
AcDbVertex
100
AcDb2dVertex
 10
267.6830079619505
 20
-1542.426699851116
 30
0.0
  0
VERTEX
  5
E3
330
B7
100
AcDbEntity
  8
Graypants_Drum24
 62
    36
420
  8866048
370
    -3
100
AcDbVertex
100
AcDb2dVertex
 10
267.7047008396578
 20
-1542.382463950714
 30
0.0
  0
VERTEX
  5
E4
330
B7
100
AcDbEntity
  8
Graypants_Drum24
 62
    36
420
  8866048
370
    -3
100
AcDbVertex
100
AcDb2dVertex
 10
267.7253401378666
 20
-1542.337768548589
 30
0.0
  0
VERTEX
  5
E5
330
B7
100
AcDbEntity
  8
Graypants_Drum24
 62
    36
420
  8866048
370
    -3
100
AcDbVertex
100
AcDb2dVertex
 10
267.7449175241302
 20
-1542.292662506225
 30
0.0
  0
VERTEX
  5
E6
330
B7
100
AcDbEntity
  8
Graypants_Drum24
 62
    36
420
  8866048
370
    -3
100
AcDbVertex
100
AcDb2dVertex
 10
267.7634268629809
 20
-1542.247194723547
 30
0.0
  0
VERTEX
  5
E7
330
B7
100
AcDbEntity
  8
Graypants_Drum24
 62
    36
420
  8866048
370
    -3
100
AcDbVertex
100
AcDb2dVertex
 10
267.7808641914012
 20
-1542.201413980237
 30
0.0
  0
VERTEX
  5
E8
330
B7
100
AcDbEntity
  8
Graypants_Drum24
 62
    36
420
  8866048
370
    -3
100
AcDbVertex
100
AcDb2dVertex
 10
267.7972276844397
 20
-1542.155368781601
 30
0.0
  0
VERTEX
  5
E9
330
B7
100
AcDbEntity
  8
Graypants_Drum24
 62
    36
420
  8866048
370
    -3
100
AcDbVertex
100
AcDb2dVertex
 10
267.8125176114984
 20
-1542.109107209893
 30
0.0
  0
VERTEX
  5
EA
330
B7
100
AcDbEntity
  8
Graypants_Drum24
 62
    36
420
  8866048
370
    -3
100
AcDbVertex
100
AcDb2dVertex
 10
267.826736283886
 20
-1542.062676781908
 30
0.0
  0
VERTEX
  5
EB
330
B7
100
AcDbEntity
  8
Graypants_Drum24
 62
    36
420
  8866048
370
    -3
100
AcDbVertex
100
AcDb2dVertex
 10
267.8398879942835
 20
-1542.016124313569
 30
0.0
  0
VERTEX
  5
EC
330
B7
100
AcDbEntity
  8
Graypants_Drum24
 62
    36
420
  8866048
370
    -3
100
AcDbVertex
100
AcDb2dVertex
 10
267.8519789488152
 20
-1541.969495792168
 30
0.0
  0
VERTEX
  5
ED
330
B7
100
AcDbEntity
  8
Graypants_Drum24
 62
    36
420
  8866048
370
    -3
100
AcDbVertex
100
AcDb2dVertex
 10
267.8630171924522
 20
-1541.922836256774
 30
0.0
  0
VERTEX
  5
EE
330
B7
100
AcDbEntity
  8
Graypants_Drum24
 62
    36
420
  8866048
370
    -3
100
AcDbVertex
100
AcDb2dVertex
 10
267.8730125285026
 20
-1541.87618968729
 30
0.0
  0
VERTEX
  5
EF
330
B7
100
AcDbEntity
  8
Graypants_Drum24
 62
    36
420
  8866048
370
    -3
100
AcDbVertex
100
AcDb2dVertex
 10
267.8819764329575
 20
-1541.829598902488
 30
0.0
  0
VERTEX
  5
F0
330
B7
100
AcDbEntity
  8
Graypants_Drum24
 62
    36
420
  8866048
370
    -3
100
AcDbVertex
100
AcDb2dVertex
 10
267.8899219644655
 20
-1541.783105467301
 30
0.0
  0
VERTEX
  5
F1
330
B7
100
AcDbEntity
  8
Graypants_Drum24
 62
    36
420
  8866048
370
    -3
100
AcDbVertex
100
AcDb2dVertex
 10
267.8968636707132
 20
-1541.736749609526
 30
0.0
  0
VERTEX
  5
F2
330
B7
100
AcDbEntity
  8
Graypants_Drum24
 62
    36
420
  8866048
370
    -3
100
AcDbVertex
100
AcDb2dVertex
 10
267.902817491969
 20
-1541.690570146031
 30
0.0
  0
VERTEX
  5
F3
330
B7
100
AcDbEntity
  8
Graypants_Drum24
 62
    36
420
  8866048
370
    -3
100
AcDbVertex
100
AcDb2dVertex
 10
267.9078006625385
 20
-1541.644604418444
 30
0.0
  0
VERTEX
  5
F4
330
B7
100
AcDbEntity
  8
Graypants_Drum24
 62
    36
420
  8866048
370
    -3
100
AcDbVertex
100
AcDb2dVertex
 10
267.911831610848
 20
-1541.598888238272
 30
0.0
  0
VERTEX
  5
F5
330
B7
100
AcDbEntity
  8
Graypants_Drum24
 62
    36
420
  8866048
370
    -3
100
AcDbVertex
100
AcDb2dVertex
 10
267.9149298588455
 20
-1541.553455841256
 30
0.0
  0
VERTEX
  5
F6
330
B7
100
AcDbEntity
  8
Graypants_Drum24
 62
    36
420
  8866048
370
    -3
100
AcDbVertex
100
AcDb2dVertex
 10
267.9171159213703
 20
-1541.508339850774
 30
0.0
  0
VERTEX
  5
F7
330
B7
100
AcDbEntity
  8
Graypants_Drum24
 62
    36
420
  8866048
370
    -3
100
AcDbVertex
100
AcDb2dVertex
 10
267.9184112061051
 20
-1541.46357125
 30
0.0
  0
VERTEX
  5
F8
330
B7
100
AcDbEntity
  8
Graypants_Drum24
 62
    36
420
  8866048
370
    -3
100
AcDbVertex
100
AcDb2dVertex
 10
267.9188379146742
 20
-1541.419179362477
 30
0.0
  0
SEQEND
  5
F9
330
B7
100
AcDbEntity
  8
Graypants_Drum24
 62
    36
420
  8866048
370
    -3
  0
POLYLINE
  5
FA
330
1F
100
AcDbEntity
  8
Graypants_Drum24
 62
    36
420
  8866048
370
    -3
100
AcDb2dPolyline
 66
     1
 10
0.0
 20
0.0
 30
0.0
  0
VERTEX
  5
FB
330
FA
100
AcDbEntity
  8
Graypants_Drum24
 62
    36
420
  8866048
370
    -3
100
AcDbVertex
100
AcDb2dVertex
 10
264.6867871159566
 20
-1543.419179362476
 30
0.0
  0
VERTEX
  5
FC
330
FA
100
AcDbEntity
  8
Graypants_Drum24
 62
    36
420
  8866048
370
    -3
100
AcDbVertex
100
AcDb2dVertex
 10
264.7252316183965
 20
-1543.418686641863
 30
0.0
  0
VERTEX
  5
FD
330
FA
100
AcDbEntity
  8
Graypants_Drum24
 62
    36
420
  8866048
370
    -3
100
AcDbVertex
100
AcDb2dVertex
 10
264.7640023640828
 20
-1543.417190975887
 30
0.0
  0
VERTEX
  5
FE
330
FA
100
AcDbEntity
  8
Graypants_Drum24
 62
    36
420
  8866048
370
    -3
100
AcDbVertex
100
AcDb2dVertex
 10
264.8030739580817
 20
-1543.414666728321
 30
0.0
  0
VERTEX
  5
FF
330
FA
100
AcDbEntity
  8
Graypants_Drum24
 62
    36
420
  8866048
370
    -3
100
AcDbVertex
100
AcDb2dVertex
 10
264.8424195681786
 20
-1543.411089179702
 30
0.0
  0
VERTEX
  5
100
330
FA
100
AcDbEntity
  8
Graypants_Drum24
 62
    36
420
  8866048
370
    -3
100
AcDbVertex
100
AcDb2dVertex
 10
264.8820109416985
 20
-1543.406434641533
 30
0.0
  0
VERTEX
  5
101
330
FA
100
AcDbEntity
  8
Graypants_Drum24
 62
    36
420
  8866048
370
    -3
100
AcDbVertex
100
AcDb2dVertex
 10
264.9218184296188
 20
-1543.400680571812
 30
0.0
  0
VERTEX
  5
102
330
FA
100
AcDbEntity
  8
Graypants_Drum24
 62
    36
420
  8866048
370
    -3
100
AcDbVertex
100
AcDb2dVertex
 10
264.9618110182673
 20
-1543.393805691225
 30
0.0
  0
VERTEX
  5
103
330
FA
100
AcDbEntity
  8
Graypants_Drum24
 62
    36
420
  8866048
370
    -3
100
AcDbVertex
100
AcDb2dVertex
 10
265.0019563688426
 20
-1543.385790099309
 30
0.0
  0
VERTEX
  5
104
330
FA
100
AcDbEntity
  8
Graypants_Drum24
 62
    36
420
  8866048
370
    -3
100
AcDbVertex
100
AcDb2dVertex
 10
265.0422208649525
 20
-1543.376615389828
 30
0.0
  0
VERTEX
  5
105
330
FA
100
AcDbEntity
  8
Graypants_Drum24
 62
    36
420
  8866048
370
    -3
100
AcDbVertex
100
AcDb2dVertex
 10
265.082569668302
 20
-1543.366264764562
 30
0.0
  0
VERTEX
  5
106
330
FA
100
AcDbEntity
  8
Graypants_Drum24
 62
    36
420
  8866048
370
    -3
100
AcDbVertex
100
AcDb2dVertex
 10
265.122966782604
 20
-1543.35472314468
 30
0.0
  0
VERTEX
  5
107
330
FA
100
AcDbEntity
  8
Graypants_Drum24
 62
    36
420
  8866048
370
    -3
100
AcDbVertex
100
AcDb2dVertex
 10
265.1633751257128
 20
-1543.34197727885
 30
0.0
  0
VERTEX
  5
108
330
FA
100
AcDbEntity
  8
Graypants_Drum24
 62
    36
420
  8866048
370
    -3
100
AcDbVertex
100
AcDb2dVertex
 10
265.2037566099164
 20
-1543.328015847188
 30
0.0
  0
VERTEX
  5
109
330
FA
100
AcDbEntity
  8
Graypants_Drum24
 62
    36
420
  8866048
370
    -3
100
AcDbVertex
100
AcDb2dVertex
 10
265.2440722302353
 20
-1543.31282956016
 30
0.0
  0
VERTEX
  5
10A
330
FA
100
AcDbEntity
  8
Graypants_Drum24
 62
    36
420
  8866048
370
    -3
100
AcDbVertex
100
AcDb2dVertex
 10
265.2842821605082
 20
-1543.296411251551
 30
0.0
  0
VERTEX
  5
10B
330
FA
100
AcDbEntity
  8
Graypants_Drum24
 62
    36
420
  8866048
370
    -3
100
AcDbVertex
100
AcDb2dVertex
 10
265.3243458569539
 20
-1543.278755964601
 30
0.0
  0
VERTEX
  5
10C
330
FA
100
AcDbEntity
  8
Graypants_Drum24
 62
    36
420
  8866048
370
    -3
100
AcDbVertex
100
AcDb2dVertex
 10
265.3642221688223
 20
-1543.25986103044
 30
0.0
  0
VERTEX
  5
10D
330
FA
100
AcDbEntity
  8
Graypants_Drum24
 62
    36
420
  8866048
370
    -3
100
AcDbVertex
100
AcDb2dVertex
 10
265.4038694556598
 20
-1543.23972613799
 30
0.0
  0
VERTEX
  5
10E
330
FA
100
AcDbEntity
  8
Graypants_Drum24
 62
    36
420
  8866048
370
    -3
100
AcDbVertex
100
AcDb2dVertex
 10
265.4432457106388
 20
-1543.218353394523
 30
0.0
  0
VERTEX
  5
10F
330
FA
100
AcDbEntity
  8
Graypants_Drum24
 62
    36
420
  8866048
370
    -3
100
AcDbVertex
100
AcDb2dVertex
 10
265.4823086893152
 20
-1543.195747376136
 30
0.0
  0
VERTEX
  5
110
330
FA
100
AcDbEntity
  8
Graypants_Drum24
 62
    36
420
  8866048
370
    -3
100
AcDbVertex
100
AcDb2dVertex
 10
265.5210160431109
 20
-1543.171915167459
 30
0.0
  0
VERTEX
  5
111
330
FA
100
AcDbEntity
  8
Graypants_Drum24
 62
    36
420
  8866048
370
    -3
100
AcDbVertex
100
AcDb2dVertex
 10
265.5593254567409
 20
-1543.146866389972
 30
0.0
  0
VERTEX
  5
112
330
FA
100
AcDbEntity
  8
Graypants_Drum24
 62
    36
420
  8866048
370
    -3
100
AcDbVertex
100
AcDb2dVertex
 10
265.5971947887482
 20
-1543.120613218425
 30
0.0
  0
VERTEX
  5
113
330
FA
100
AcDbEntity
  8
Graypants_Drum24
 62
    36
420
  8866048
370
    -3
100
AcDbVertex
100
AcDb2dVertex
 10
265.6345822142478
 20
-1543.093170384914
 30
0.0
  0
VERTEX
  5
114
330
FA
100
AcDbEntity
  8
Graypants_Drum24
 62
    36
420
  8866048
370
    -3
100
AcDbVertex
100
AcDb2dVertex
 10
265.6714463689408
 20
-1543.064555170294
 30
0.0
  0
VERTEX
  5
115
330
FA
100
AcDbEntity
  8
Graypants_Drum24
 62
    36
420
  8866048
370
    -3
100
AcDbVertex
100
AcDb2dVertex
 10
265.7077464934159
 20
-1543.034787382695
 30
0.0
  0
VERTEX
  5
116
330
FA
100
AcDbEntity
  8
Graypants_Drum24
 62
    36
420
  8866048
370
    -3
100
AcDbVertex
100
AcDb2dVertex
 10
265.7434425767359
 20
-1543.003889323046
 30
0.0
  0
VERTEX
  5
117
330
FA
100
AcDbEntity
  8
Graypants_Drum24
 62
    36
420
  8866048
370
    -3
100
AcDbVertex
100
AcDb2dVertex
 10
265.7784954982868
 20
-1542.971885737627
 30
0.0
  0
VERTEX
  5
118
330
FA
100
AcDbEntity
  8
Graypants_Drum24
 62
    36
420
  8866048
370
    -3
100
AcDbVertex
100
AcDb2dVertex
 10
265.8128671668666
 20
-1542.938803757759
 30
0.0
  0
VERTEX
  5
119
330
FA
100
AcDbEntity
  8
Graypants_Drum24
 62
    36
420
  8866048
370
    -3
100
AcDbVertex
100
AcDb2dVertex
 10
265.8465206560019
 20
-1542.904672826928
 30
0.0
  0
VERTEX
  5
11A
330
FA
100
AcDbEntity
  8
Graypants_Drum24
 62
    36
420
  8866048
370
    -3
100
AcDbVertex
100
AcDb2dVertex
 10
265.8794203344979
 20
-1542.869524615685
 30
0.0
  0
VERTEX
  5
11B
330
FA
100
AcDbEntity
  8
Graypants_Drum24
 62
    36
420
  8866048
370
    -3
100
AcDbVertex
100
AcDb2dVertex
 10
265.9115319912648
 20
-1542.83339292485
 30
0.0
  0
VERTEX
  5
11C
330
FA
100
AcDbEntity
  8
Graypants_Drum24
 62
    36
420
  8866048
370
    -3
100
AcDbVertex
100
AcDb2dVertex
 10
265.9428229535103
 20
-1542.796313577612
 30
0.0
  0
VERTEX
  5
11D
330
FA
100
AcDbEntity
  8
Graypants_Drum24
 62
    36
420
  8866048
370
    -3
100
AcDbVertex
100
AcDb2dVertex
 10
265.9732621974414
 20
-1542.758324301262
 30
0.0
  0
VERTEX
  5
11E
330
FA
100
AcDbEntity
  8
Graypants_Drum24
 62
    36
420
  8866048
370
    -3
100
AcDbVertex
100
AcDb2dVertex
 10
266.0028204506903
 20
-1542.719464599363
 30
0.0
  0
VERTEX
  5
11F
330
FA
100
AcDbEntity
  8
Graypants_Drum24
 62
    36
420
  8866048
370
    -3
100
AcDbVertex
100
AcDb2dVertex
 10
266.0314702857545
 20
-1542.679775615276
 30
0.0
  0
VERTEX
  5
120
330
FA
100
AcDbEntity
  8
Graypants_Drum24
 62
    36
420
  8866048
370
    -3
100
AcDbVertex
100
AcDb2dVertex
 10
266.0591862038289
 20
-1542.639299988019
 30
0.0
  0
VERTEX
  5
121
330
FA
100
AcDbEntity
  8
Graypants_Drum24
 62
    36
420
  8866048
370
    -3
100
AcDbVertex
100
AcDb2dVertex
 10
266.0859447084976
 20
-1542.598081701522
 30
0.0
  0
VERTEX
  5
122
330
FA
100
AcDbEntity
  8
Graypants_Drum24
 62
    36
420
  8866048
370
    -3
100
AcDbVertex
100
AcDb2dVertex
 10
266.1117243688558
 20
-1542.556165928382
 30
0.0
  0
VERTEX
  5
123
330
FA
100
AcDbEntity
  8
Graypants_Drum24
 62
    36
420
  8866048
370
    -3
100
AcDbVertex
100
AcDb2dVertex
 10
266.1365058717304
 20
-1542.513598869247
 30
0.0
  0
VERTEX
  5
124
330
FA
100
AcDbEntity
  8
Graypants_Drum24
 62
    36
420
  8866048
370
    -3
100
AcDbVertex
100
AcDb2dVertex
 10
266.1602720627782
 20
-1542.470427589033
 30
0.0
  0
VERTEX
  5
125
330
FA
100
AcDbEntity
  8
Graypants_Drum24
 62
    36
420
  8866048
370
    -3
100
AcDbVertex
100
AcDb2dVertex
 10
266.1830079763408
 20
-1542.426699851116
 30
0.0
  0
VERTEX
  5
126
330
FA
100
AcDbEntity
  8
Graypants_Drum24
 62
    36
420
  8866048
370
    -3
100
AcDbVertex
100
AcDb2dVertex
 10
266.2047008540479
 20
-1542.382463950714
 30
0.0
  0
VERTEX
  5
127
330
FA
100
AcDbEntity
  8
Graypants_Drum24
 62
    36
420
  8866048
370
    -3
100
AcDbVertex
100
AcDb2dVertex
 10
266.2253401522567
 20
-1542.337768548589
 30
0.0
  0
VERTEX
  5
128
330
FA
100
AcDbEntity
  8
Graypants_Drum24
 62
    36
420
  8866048
370
    -3
100
AcDbVertex
100
AcDb2dVertex
 10
266.2449175385204
 20
-1542.292662506225
 30
0.0
  0
VERTEX
  5
129
330
FA
100
AcDbEntity
  8
Graypants_Drum24
 62
    36
420
  8866048
370
    -3
100
AcDbVertex
100
AcDb2dVertex
 10
266.2634268773711
 20
-1542.247194723547
 30
0.0
  0
VERTEX
  5
12A
330
FA
100
AcDbEntity
  8
Graypants_Drum24
 62
    36
420
  8866048
370
    -3
100
AcDbVertex
100
AcDb2dVertex
 10
266.2808642057914
 20
-1542.201413980237
 30
0.0
  0
VERTEX
  5
12B
330
FA
100
AcDbEntity
  8
Graypants_Drum24
 62
    36
420
  8866048
370
    -3
100
AcDbVertex
100
AcDb2dVertex
 10
266.2972276988299
 20
-1542.155368781601
 30
0.0
  0
VERTEX
  5
12C
330
FA
100
AcDbEntity
  8
Graypants_Drum24
 62
    36
420
  8866048
370
    -3
100
AcDbVertex
100
AcDb2dVertex
 10
266.3125176258886
 20
-1542.109107209893
 30
0.0
  0
VERTEX
  5
12D
330
FA
100
AcDbEntity
  8
Graypants_Drum24
 62
    36
420
  8866048
370
    -3
100
AcDbVertex
100
AcDb2dVertex
 10
266.3267362982762
 20
-1542.062676781908
 30
0.0
  0
VERTEX
  5
12E
330
FA
100
AcDbEntity
  8
Graypants_Drum24
 62
    36
420
  8866048
370
    -3
100
AcDbVertex
100
AcDb2dVertex
 10
266.3398880086738
 20
-1542.016124313569
 30
0.0
  0
VERTEX
  5
12F
330
FA
100
AcDbEntity
  8
Graypants_Drum24
 62
    36
420
  8866048
370
    -3
100
AcDbVertex
100
AcDb2dVertex
 10
266.3519789632055
 20
-1541.969495792168
 30
0.0
  0
VERTEX
  5
130
330
FA
100
AcDbEntity
  8
Graypants_Drum24
 62
    36
420
  8866048
370
    -3
100
AcDbVertex
100
AcDb2dVertex
 10
266.3630172068424
 20
-1541.922836256774
 30
0.0
  0
VERTEX
  5
131
330
FA
100
AcDbEntity
  8
Graypants_Drum24
 62
    36
420
  8866048
370
    -3
100
AcDbVertex
100
AcDb2dVertex
 10
266.3730125428929
 20
-1541.87618968729
 30
0.0
  0
VERTEX
  5
132
330
FA
100
AcDbEntity
  8
Graypants_Drum24
 62
    36
420
  8866048
370
    -3
100
AcDbVertex
100
AcDb2dVertex
 10
266.3819764473477
 20
-1541.829598902488
 30
0.0
  0
VERTEX
  5
133
330
FA
100
AcDbEntity
  8
Graypants_Drum24
 62
    36
420
  8866048
370
    -3
100
AcDbVertex
100
AcDb2dVertex
 10
266.3899219788559
 20
-1541.783105467301
 30
0.0
  0
VERTEX
  5
134
330
FA
100
AcDbEntity
  8
Graypants_Drum24
 62
    36
420
  8866048
370
    -3
100
AcDbVertex
100
AcDb2dVertex
 10
266.3968636851035
 20
-1541.736749609526
 30
0.0
  0
VERTEX
  5
135
330
FA
100
AcDbEntity
  8
Graypants_Drum24
 62
    36
420
  8866048
370
    -3
100
AcDbVertex
100
AcDb2dVertex
 10
266.4028175063593
 20
-1541.690570146031
 30
0.0
  0
VERTEX
  5
136
330
FA
100
AcDbEntity
  8
Graypants_Drum24
 62
    36
420
  8866048
370
    -3
100
AcDbVertex
100
AcDb2dVertex
 10
266.4078006769288
 20
-1541.644604418444
 30
0.0
  0
VERTEX
  5
137
330
FA
100
AcDbEntity
  8
Graypants_Drum24
 62
    36
420
  8866048
370
    -3
100
AcDbVertex
100
AcDb2dVertex
 10
266.4118316252383
 20
-1541.598888238272
 30
0.0
  0
VERTEX
  5
138
330
FA
100
AcDbEntity
  8
Graypants_Drum24
 62
    36
420
  8866048
370
    -3
100
AcDbVertex
100
AcDb2dVertex
 10
266.4149298732357
 20
-1541.553455841256
 30
0.0
  0
VERTEX
  5
139
330
FA
100
AcDbEntity
  8
Graypants_Drum24
 62
    36
420
  8866048
370
    -3
100
AcDbVertex
100
AcDb2dVertex
 10
266.4171159357606
 20
-1541.508339850774
 30
0.0
  0
VERTEX
  5
13A
330
FA
100
AcDbEntity
  8
Graypants_Drum24
 62
    36
420
  8866048
370
    -3
100
AcDbVertex
100
AcDb2dVertex
 10
266.4184112204954
 20
-1541.46357125
 30
0.0
  0
VERTEX
  5
13B
330
FA
100
AcDbEntity
  8
Graypants_Drum24
 62
    36
420
  8866048
370
    -3
100
AcDbVertex
100
AcDb2dVertex
 10
266.4188379290645
 20
-1541.419179362477
 30
0.0
  0
SEQEND
  5
13C
330
FA
100
AcDbEntity
  8
Graypants_Drum24
 62
    36
420
  8866048
370
    -3
  0
LINE
  5
13D
330
1F
100
AcDbEntity
  8
Graypants_Drum24
 62
    36
420
  8866048
370
    -3
100
AcDbLine
 10
267.9188379146742
 20
-1541.419179362477
 30
0.0
 11
267.9188379146742
 21
-1539.411845682786
 31
0.0
  0
LINE
  5
13E
330
1F
100
AcDbEntity
  8
Graypants_Drum24
 62
    36
420
  8866048
370
    -3
100
AcDbLine
 10
266.4188379290645
 20
-1541.419179362477
 30
0.0
 11
266.4188379290645
 21
-1539.411845682786
 31
0.0
  0
POLYLINE
  5
13F
330
1F
100
AcDbEntity
  8
Graypants_Drum24
 62
    36
420
  8866048
370
    -3
100
AcDb2dPolyline
 66
     1
 10
0.0
 20
0.0
 30
0.0
  0
VERTEX
  5
140
330
13F
100
AcDbEntity
  8
Graypants_Drum24
 62
    36
420
  8866048
370
    -3
100
AcDbVertex
100
AcDb2dVertex
 10
244.5851827598331
 20
-1541.738297009536
 30
0.0
  0
VERTEX
  5
141
330
13F
100
AcDbEntity
  8
Graypants_Drum24
 62
    36
420
  8866048
370
    -3
100
AcDbVertex
100
AcDb2dVertex
 10
244.6244316062931
 20
-1541.827101131359
 30
0.0
  0
VERTEX
  5
142
330
13F
100
AcDbEntity
  8
Graypants_Drum24
 62
    36
420
  8866048
370
    -3
100
AcDbVertex
100
AcDb2dVertex
 10
244.666601761271
 20
-1541.915128259794
 30
0.0
  0
VERTEX
  5
143
330
13F
100
AcDbEntity
  8
Graypants_Drum24
 62
    36
420
  8866048
370
    -3
100
AcDbVertex
100
AcDb2dVertex
 10
244.7116935689877
 20
-1542.00219738025
 30
0.0
  0
VERTEX
  5
144
330
13F
100
AcDbEntity
  8
Graypants_Drum24
 62
    36
420
  8866048
370
    -3
100
AcDbVertex
100
AcDb2dVertex
 10
244.7596966514407
 20
-1542.088124790776
 30
0.0
  0
VERTEX
  5
145
330
13F
100
AcDbEntity
  8
Graypants_Drum24
 62
    36
420
  8866048
370
    -3
100
AcDbVertex
100
AcDb2dVertex
 10
244.8105895260877
 20
-1542.172725123034
 30
0.0
  0
VERTEX
  5
146
330
13F
100
AcDbEntity
  8
Graypants_Drum24
 62
    36
420
  8866048
370
    -3
100
AcDbVertex
100
AcDb2dVertex
 10
244.8643393084084
 20
-1542.255812428215
 30
0.0
  0
VERTEX
  5
147
330
13F
100
AcDbEntity
  8
Graypants_Drum24
 62
    36
420
  8866048
370
    -3
100
AcDbVertex
100
AcDb2dVertex
 10
244.9209015078799
 20
-1542.337201317201
 30
0.0
  0
VERTEX
  5
148
330
13F
100
AcDbEntity
  8
Graypants_Drum24
 62
    36
420
  8866048
370
    -3
100
AcDbVertex
100
AcDb2dVertex
 10
244.9802199247769
 20
-1542.416708142699
 30
0.0
  0
VERTEX
  5
149
330
13F
100
AcDbEntity
  8
Graypants_Drum24
 62
    36
420
  8866048
370
    -3
100
AcDbVertex
100
AcDb2dVertex
 10
245.0422266538355
 20
-1542.494152209635
 30
0.0
  0
VERTEX
  5
14A
330
13F
100
AcDbEntity
  8
Graypants_Drum24
 62
    36
420
  8866048
370
    -3
100
AcDbVertex
100
AcDb2dVertex
 10
245.0742137402617
 20
-1542.532045349808
 30
0.0
  0
VERTEX
  5
14B
330
13F
100
AcDbEntity
  8
Graypants_Drum24
 62
    36
420
  8866048
370
    -3
100
AcDbVertex
100
AcDb2dVertex
 10
245.1068421992341
 20
-1542.569356998877
 30
0.0
  0
VERTEX
  5
14C
330
13F
100
AcDbEntity
  8
Graypants_Drum24
 62
    36
420
  8866048
370
    -3
100
AcDbVertex
100
AcDb2dVertex
 10
245.1401003203158
 20
-1542.606065944855
 30
0.0
  0
VERTEX
  5
14D
330
13F
100
AcDbEntity
  8
Graypants_Drum24
 62
    36
420
  8866048
370
    -3
100
AcDbVertex
100
AcDb2dVertex
 10
245.1739757035636
 20
-1542.642151388503
 30
0.0
  0
VERTEX
  5
14E
330
13F
100
AcDbEntity
  8
Graypants_Drum24
 62
    36
420
  8866048
370
    -3
100
AcDbVertex
100
AcDb2dVertex
 10
245.2084552729494
 20
-1542.677592980203
 30
0.0
  0
VERTEX
  5
14F
330
13F
100
AcDbEntity
  8
Graypants_Drum24
 62
    36
420
  8866048
370
    -3
100
AcDbVertex
100
AcDb2dVertex
 10
245.2435252915386
 20
-1542.712370856142
 30
0.0
  0
VERTEX
  5
150
330
13F
100
AcDbEntity
  8
Graypants_Drum24
 62
    36
420
  8866048
370
    -3
100
AcDbVertex
100
AcDb2dVertex
 10
245.2791713783949
 20
-1542.746465673675
 30
0.0
  0
VERTEX
  5
151
330
13F
100
AcDbEntity
  8
Graypants_Drum24
 62
    36
420
  8866048
370
    -3
100
AcDbVertex
100
AcDb2dVertex
 10
245.3153785271732
 20
-1542.779858645752
 30
0.0
  0
VERTEX
  5
152
330
13F
100
AcDbEntity
  8
Graypants_Drum24
 62
    36
420
  8866048
370
    -3
100
AcDbVertex
100
AcDb2dVertex
 10
245.3521311263553
 20
-1542.812531574269
 30
0.0
  0
VERTEX
  5
153
330
13F
100
AcDbEntity
  8
Graypants_Drum24
 62
    36
420
  8866048
370
    -3
100
AcDbVertex
100
AcDb2dVertex
 10
245.3894129810724
 20
-1542.844466882243
 30
0.0
  0
VERTEX
  5
154
330
13F
100
AcDbEntity
  8
Graypants_Drum24
 62
    36
420
  8866048
370
    -3
100
AcDbVertex
100
AcDb2dVertex
 10
245.4272073364544
 20
-1542.875647644664
 30
0.0
  0
VERTEX
  5
155
330
13F
100
AcDbEntity
  8
Graypants_Drum24
 62
    36
420
  8866048
370
    -3
100
AcDbVertex
100
AcDb2dVertex
 10
245.4654969024351
 20
-1542.906057617946
 30
0.0
  0
VERTEX
  5
156
330
13F
100
AcDbEntity
  8
Graypants_Drum24
 62
    36
420
  8866048
370
    -3
100
AcDbVertex
100
AcDb2dVertex
 10
245.5042638799394
 20
-1542.935681267842
 30
0.0
  0
VERTEX
  5
157
330
13F
100
AcDbEntity
  8
Graypants_Drum24
 62
    36
420
  8866048
370
    -3
100
AcDbVertex
100
AcDb2dVertex
 10
245.5434899883681
 20
-1542.964503795744
 30
0.0
  0
VERTEX
  5
158
330
13F
100
AcDbEntity
  8
Graypants_Drum24
 62
    36
420
  8866048
370
    -3
100
AcDbVertex
100
AcDb2dVertex
 10
245.5831564942919
 20
-1542.992511163263
 30
0.0
  0
VERTEX
  5
159
330
13F
100
AcDbEntity
  8
Graypants_Drum24
 62
    36
420
  8866048
370
    -3
100
AcDbVertex
100
AcDb2dVertex
 10
245.6232442412605
 20
-1543.019690115005
 30
0.0
  0
VERTEX
  5
15A
330
13F
100
AcDbEntity
  8
Graypants_Drum24
 62
    36
420
  8866048
370
    -3
100
AcDbVertex
100
AcDb2dVertex
 10
245.6637336806278
 20
-1543.046028199473
 30
0.0
  0
VERTEX
  5
15B
330
13F
100
AcDbEntity
  8
Graypants_Drum24
 62
    36
420
  8866048
370
    -3
100
AcDbVertex
100
AcDb2dVertex
 10
245.7046049032872
 20
-1543.071513788014
 30
0.0
  0
VERTEX
  5
15C
330
13F
100
AcDbEntity
  8
Graypants_Drum24
 62
    36
420
  8866048
370
    -3
100
AcDbVertex
100
AcDb2dVertex
 10
245.7458376722113
 20
-1543.096136091766
 30
0.0
  0
VERTEX
  5
15D
330
13F
100
AcDbEntity
  8
Graypants_Drum24
 62
    36
420
  8866048
370
    -3
100
AcDbVertex
100
AcDb2dVertex
 10
245.7874114556826
 20
-1543.119885176531
 30
0.0
  0
VERTEX
  5
15E
330
13F
100
AcDbEntity
  8
Graypants_Drum24
 62
    36
420
  8866048
370
    -3
100
AcDbVertex
100
AcDb2dVertex
 10
245.8293054611032
 20
-1543.14275197556
 30
0.0
  0
VERTEX
  5
15F
330
13F
100
AcDbEntity
  8
Graypants_Drum24
 62
    36
420
  8866048
370
    -3
100
AcDbVertex
100
AcDb2dVertex
 10
245.8714986692649
 20
-1543.164728300196
 30
0.0
  0
VERTEX
  5
160
330
13F
100
AcDbEntity
  8
Graypants_Drum24
 62
    36
420
  8866048
370
    -3
100
AcDbVertex
100
AcDb2dVertex
 10
245.9139698689653
 20
-1543.185806848365
 30
0.0
  0
VERTEX
  5
161
330
13F
100
AcDbEntity
  8
Graypants_Drum24
 62
    36
420
  8866048
370
    -3
100
AcDbVertex
100
AcDb2dVertex
 10
245.9566976918493
 20
-1543.205981210888
 30
0.0
  0
VERTEX
  5
162
330
13F
100
AcDbEntity
  8
Graypants_Drum24
 62
    36
420
  8866048
370
    -3
100
AcDbVertex
100
AcDb2dVertex
 10
245.9996606473603
 20
-1543.225245875635
 30
0.0
  0
VERTEX
  5
163
330
13F
100
AcDbEntity
  8
Graypants_Drum24
 62
    36
420
  8866048
370
    -3
100
AcDbVertex
100
AcDb2dVertex
 10
246.0428371576816
 20
-1543.243596229502
 30
0.0
  0
VERTEX
  5
164
330
13F
100
AcDbEntity
  8
Graypants_Drum24
 62
    36
420
  8866048
370
    -3
100
AcDbVertex
100
AcDb2dVertex
 10
246.0862055925546
 20
-1543.261028558243
 30
0.0
  0
VERTEX
  5
165
330
13F
100
AcDbEntity
  8
Graypants_Drum24
 62
    36
420
  8866048
370
    -3
100
AcDbVertex
100
AcDb2dVertex
 10
246.1297443038574
 20
-1543.277540044178
 30
0.0
  0
VERTEX
  5
166
330
13F
100
AcDbEntity
  8
Graypants_Drum24
 62
    36
420
  8866048
370
    -3
100
AcDbVertex
100
AcDb2dVertex
 10
246.1734316598355
 20
-1543.293128761808
 30
0.0
  0
VERTEX
  5
167
330
13F
100
AcDbEntity
  8
Graypants_Drum24
 62
    36
420
  8866048
370
    -3
100
AcDbVertex
100
AcDb2dVertex
 10
246.217246078873
 20
-1543.307793671391
 30
0.0
  0
VERTEX
  5
168
330
13F
100
AcDbEntity
  8
Graypants_Drum24
 62
    36
420
  8866048
370
    -3
100
AcDbVertex
100
AcDb2dVertex
 10
246.2611660627043
 20
-1543.321534610511
 30
0.0
  0
VERTEX
  5
169
330
13F
100
AcDbEntity
  8
Graypants_Drum24
 62
    36
420
  8866048
370
    -3
100
AcDbVertex
100
AcDb2dVertex
 10
246.3051702289619
 20
-1543.334352283727
 30
0.0
  0
VERTEX
  5
16A
330
13F
100
AcDbEntity
  8
Graypants_Drum24
 62
    36
420
  8866048
370
    -3
100
AcDbVertex
100
AcDb2dVertex
 10
246.3492373429691
 20
-1543.346248250337
 30
0.0
  0
VERTEX
  5
16B
330
13F
100
AcDbEntity
  8
Graypants_Drum24
 62
    36
420
  8866048
370
    -3
100
AcDbVertex
100
AcDb2dVertex
 10
246.3933463486844
 20
-1543.357224910356
 30
0.0
  0
VERTEX
  5
16C
330
13F
100
AcDbEntity
  8
Graypants_Drum24
 62
    36
420
  8866048
370
    -3
100
AcDbVertex
100
AcDb2dVertex
 10
246.4374763987157
 20
-1543.367285488775
 30
0.0
  0
VERTEX
  5
16D
330
13F
100
AcDbEntity
  8
Graypants_Drum24
 62
    36
420
  8866048
370
    -3
100
AcDbVertex
100
AcDb2dVertex
 10
246.4816068833233
 20
-1543.376434018189
 30
0.0
  0
VERTEX
  5
16E
330
13F
100
AcDbEntity
  8
Graypants_Drum24
 62
    36
420
  8866048
370
    -3
100
AcDbVertex
100
AcDb2dVertex
 10
246.5257174583411
 20
-1543.38467531988
 30
0.0
  0
VERTEX
  5
16F
330
13F
100
AcDbEntity
  8
Graypants_Drum24
 62
    36
420
  8866048
370
    -3
100
AcDbVertex
100
AcDb2dVertex
 10
246.5697880719498
 20
-1543.392014983463
 30
0.0
  0
VERTEX
  5
170
330
13F
100
AcDbEntity
  8
Graypants_Drum24
 62
    36
420
  8866048
370
    -3
100
AcDbVertex
100
AcDb2dVertex
 10
246.6137989902418
 20
-1543.398459345176
 30
0.0
  0
VERTEX
  5
171
330
13F
100
AcDbEntity
  8
Graypants_Drum24
 62
    36
420
  8866048
370
    -3
100
AcDbVertex
100
AcDb2dVertex
 10
246.6577308215256
 20
-1543.404015464926
 30
0.0
  0
VERTEX
  5
172
330
13F
100
AcDbEntity
  8
Graypants_Drum24
 62
    36
420
  8866048
370
    -3
100
AcDbVertex
100
AcDb2dVertex
 10
246.7015645393245
 20
-1543.408691102196
 30
0.0
  0
VERTEX
  5
173
330
13F
100
AcDbEntity
  8
Graypants_Drum24
 62
    36
420
  8866048
370
    -3
100
AcDbVertex
100
AcDb2dVertex
 10
246.7452815040294
 20
-1543.412494690909
 30
0.0
  0
VERTEX
  5
174
330
13F
100
AcDbEntity
  8
Graypants_Drum24
 62
    36
420
  8866048
370
    -3
100
AcDbVertex
100
AcDb2dVertex
 10
246.7888634831746
 20
-1543.415435313368
 30
0.0
  0
VERTEX
  5
175
330
13F
100
AcDbEntity
  8
Graypants_Drum24
 62
    36
420
  8866048
370
    -3
100
AcDbVertex
100
AcDb2dVertex
 10
246.8322926703103
 20
-1543.41752267337
 30
0.0
  0
VERTEX
  5
176
330
13F
100
AcDbEntity
  8
Graypants_Drum24
 62
    36
420
  8866048
370
    -3
100
AcDbVertex
100
AcDb2dVertex
 10
246.8755517024539
 20
-1543.418767068612
 30
0.0
  0
VERTEX
  5
177
330
13F
100
AcDbEntity
  8
Graypants_Drum24
 62
    36
420
  8866048
370
    -3
100
AcDbVertex
100
AcDb2dVertex
 10
246.9186236761063
 20
-1543.419179362477
 30
0.0
  0
SEQEND
  5
178
330
13F
100
AcDbEntity
  8
Graypants_Drum24
 62
    36
420
  8866048
370
    -3
  0
LINE
  5
179
330
1F
100
AcDbEntity
  8
Graypants_Drum24
 62
    36
420
  8866048
370
    -3
100
AcDbLine
 10
266.1867871015666
 20
-1543.419179362476
 30
0.0
 11
264.6867871159566
 21
-1543.419179362476
 31
0.0
  0
ARC
  5
17A
330
1F
100
AcDbEntity
  8
Graypants_Drum24
 62
    36
420
  8866048
370
    -3
100
AcDbCircle
 10
-180.8403138535145
 20
-1568.762056260512
 30
0.0
 40
69.23649237171401
210
0.0
220
0.0
230
-1.0
100
AcDbArc
 50
154.9181560453657
 51
157.026152673676
  0
LINE
  5
17B
330
1F
100
AcDbEntity
  8
Graypants_Drum24
 62
    36
420
  8866048
370
    -3
100
AcDbLine
 10
246.9186236761063
 20
-1543.419179362477
 30
0.0
 11
264.6867871159566
 21
-1543.419179362476
 31
0.0
  0
CIRCLE
  5
17C
330
1F
100
AcDbEntity
  8
Graypants_Drum24
 62
    36
420
  8866048
370
    -3
100
AcDbCircle
 10
0.0000000000000369
 20
0.0000000000000213
 30
0.0
 40
296.9999999999997
210
0.0
220
0.0
230
-1.0
  0
CIRCLE
  5
17E
330
1F
100
AcDbEntity
  8
Graypants_Drum24
  6
Hidden
 62
    36
420
  8866048
370
    -3
100
AcDbCircle
 10
0.0000000000003417
 20
0.0000000000139826
 30
0.0
 40
57.14999999999998
  0
LINE
  5
17F
330
1F
100
AcDbEntity
  8
Graypants_Drum24
 62
    36
420
  8866048
370
    -3
100
AcDbLine
 10
1.499999999975444
 20
282.0000000000016
 30
0.0
 11
1.499999999932697
 21
57.13031156926968
 31
0.0
  0
LINE
  5
180
330
1F
100
AcDbEntity
  8
Graypants_Drum24
 62
    36
420
  8866048
370
    -3
100
AcDbLine
 10
-1.500000000024102
 20
282.0000000000023
 30
0.0
 11
-1.500000000066848
 21
57.13031156926627
 31
0.0
  0
LINE
  5
181
330
1F
100
AcDbEntity
  8
Graypants_Drum24
 62
    36
420
  8866048
370
    -3
100
AcDbLine
 10
243.4691646553902
 20
-142.2990367571308
 30
0.0
 11
48.72630131051051
 21
-29.86419362039624
 31
0.0
  0
LINE
  5
182
330
1F
100
AcDbEntity
  8
Graypants_Drum24
 62
    36
420
  8866048
370
    -3
100
AcDbLine
 10
244.9691646409999
 20
-139.7009605374694
 30
0.0
 11
50.22630129612025
 21
-27.26611740073486
 31
0.0
  0
LINE
  5
183
330
1F
100
AcDbEntity
  8
Graypants_Drum24
 62
    36
420
  8866048
370
    -3
100
AcDbLine
 10
-244.9691623975241
 20
-139.7009644714619
 30
0.0
 11
-50.22218171376312
 21
-27.26374001811064
 31
0.0
  0
LINE
  5
184
330
1F
100
AcDbEntity
  8
Graypants_Drum24
 62
    36
420
  8866048
370
    -3
100
AcDbLine
 10
-243.4691623701915
 20
-142.2990406670349
 30
0.0
 11
-48.72522036063083
 21
-29.86357059309375
 31
0.0
  0
LINE
  5
185
330
1F
100
AcDbEntity
  8
Graypants_Drum24
 62
    36
420
  8866048
370
    -3
100
AcDbLine
 10
-0.8875499846010368
 20
-0.7882061982422781
 30
0.0
 11
-0.7937500000000453
 21
-0.7938689171519397
 31
0.0
  0
ARC
  5
186
330
1F
100
AcDbEntity
  8
Graypants_Drum24
 62
    36
420
  8866048
370
    -3
100
AcDbCircle
 10
0.7937499999930832
 20
0.0000000000039723
 30
0.0
 40
0.7938689171542304
210
0.0
220
0.0
230
-1.0
100
AcDbArc
 50
243.0000000001163
 51
254.1060151905936
  0
LINE
  5
187
330
1F
100
AcDbEntity
  8
Graypants_Drum24
 62
    36
420
  8866048
370
    -3
100
AcDbLine
 10
-0.8875499846010368
 20
-0.7882061982422781
 30
0.0
 11
-0.7937500000000453
 21
-0.7938689171519397
 31
0.0
  0
LINE
  5
188
330
1F
100
AcDbEntity
  8
Graypants_Drum24
 62
    36
420
  8866048
370
    -3
100
AcDbLine
 10
-0.8875499846010368
 20
-0.7882061982422781
 30
0.0
 11
-0.7937500000000453
 21
-0.7938689171519397
 31
0.0
  0
LINE
  5
189
330
1F
100
AcDbEntity
  8
Graypants_Drum24
 62
    36
420
  8866048
370
    -3
100
AcDbLine
 10
3.174139177639063
 20
-0.794586442261334
 30
0.0
 11
3.176488197211029
 21
-0.7943545849241218
 31
0.0
  0
LINE
  5
18A
330
1F
100
AcDbEntity
  8
Graypants_Drum24
 62
    36
420
  8866048
370
    -3
100
AcDbLine
 10
-0.8875499846010368
 20
-0.7882061982422781
 30
0.0
 11
-0.7937500000000453
 21
-0.7938689171519397
 31
0.0
  0
LINE
  5
18B
330
1F
100
AcDbEntity
  8
Graypants_Drum24
 62
    36
420
  8866048
370
    -3
100
AcDbLine
 10
-0.8875499846010368
 20
-0.7882061982422781
 30
0.0
 11
-0.7937500000000453
 21
-0.7938689171519397
 31
0.0
  0
LINE
  5
18C
330
1F
100
AcDbEntity
  8
Graypants_Drum24
 62
    36
420
  8866048
370
    -3
100
AcDbLine
 10
-0.8875499846010368
 20
-0.7882061982422781
 30
0.0
 11
-0.7937500000000453
 21
-0.7938689171519397
 31
0.0
  0
LINE
  5
18D
330
1F
100
AcDbEntity
  8
Graypants_Drum24
 62
    36
420
  8866048
370
    -3
100
AcDbLine
 10
-0.8875499846010368
 20
-0.7882061982422781
 30
0.0
 11
-0.7937500000000453
 21
-0.7938689171519397
 31
0.0
  0
LINE
  5
18E
330
1F
100
AcDbEntity
  8
Graypants_Drum24
 62
    36
420
  8866048
370
    -3
100
AcDbLine
 10
-0.8875499846010368
 20
-0.7882061982422781
 30
0.0
 11
-0.7937500000000453
 21
-0.7938689171519397
 31
0.0
  0
LINE
  5
18F
330
1F
100
AcDbEntity
  8
Graypants_Drum24
 62
    36
420
  8866048
370
    -3
100
AcDbLine
 10
0.5785108385764487
 20
0.764936171937961
 30
0.0
 11
0.5759593209265857
 21
0.7640960947455822
 31
0.0
  0
LINE
  5
190
330
1F
100
AcDbEntity
  8
Graypants_Drum24
 62
    36
420
  8866048
370
    -3
100
AcDbLine
 10
-0.8875499846010368
 20
-0.7882061982422781
 30
0.0
 11
-0.7937500000000453
 21
-0.7938689171519397
 31
0.0
  0
LINE
  5
191
330
1F
100
AcDbEntity
  8
Graypants_Drum24
 62
    36
420
  8866048
370
    -3
100
AcDbLine
 10
-0.8875499846010368
 20
-0.7882061982422781
 30
0.0
 11
-0.7937500000000453
 21
-0.7938689171519397
 31
0.0
  0
LINE
  5
192
330
1F
100
AcDbEntity
  8
Graypants_Drum24
 62
    36
420
  8866048
370
    -3
100
AcDbLine
 10
-0.8875499846010368
 20
-0.7882061982422781
 30
0.0
 11
-0.7937500000000453
 21
-0.7938689171519397
 31
0.0
  0
LINE
  5
193
330
1F
100
AcDbEntity
  8
Graypants_Drum24
 62
    36
420
  8866048
370
    -3
100
AcDbLine
 10
-0.8875499846010368
 20
-0.7882061982422781
 30
0.0
 11
-0.7937500000000453
 21
-0.7938689171519397
 31
0.0
  0
LINE
  5
194
330
1F
100
AcDbEntity
  8
Graypants_Drum24
 62
    36
420
  8866048
370
    -3
100
AcDbLine
 10
-0.8875499846010368
 20
-0.7882061982422781
 30
0.0
 11
-0.7937500000000453
 21
-0.7938689171519397
 31
0.0
  0
ARC
  5
195
330
1F
100
AcDbEntity
  8
Graypants_Drum24
 62
    36
420
  8866048
370
    -3
100
AcDbCircle
 10
-0.7937499690137403
 20
-0.0035952508851033
 30
0.0
 40
0.7937500348097319
210
0.0
220
0.0
230
-1.0
100
AcDbArc
 50
152.7692442260908
 51
152.9999999952937
  0
ARC
  5
196
330
1F
100
AcDbEntity
  8
Graypants_Drum24
 62
    36
420
  8866048
370
    -3
100
AcDbCircle
 10
-0.7937499831789628
 20
-0.0035952436421018
 30
0.0
 40
0.7937500189001722
210
0.0
220
0.0
230
-1.0
100
AcDbArc
 50
152.769278521019
 51
152.9999999969312
  0
ARC
  5
197
330
1F
100
AcDbEntity
  8
Graypants_Drum24
 62
    36
420
  8866048
370
    -3
100
AcDbCircle
 10
0.7937500000000591
 20
-0.0035952350239984
 30
0.0
 40
0.7937500000002118
210
0.0
220
0.0
230
-1.0
100
AcDbArc
 50
333.2316336341213
 51
62.99999999998046
  0
ARC
  5
198
330
1F
100
AcDbEntity
  8
Graypants_Drum24
 62
    36
420
  8866048
370
    -3
100
AcDbCircle
 10
0.0031148919495894
 20
11.11122567181099
 30
0.0
 40
2.384605137726715
210
0.0
220
0.0
230
-1.0
100
AcDbArc
 50
153.0066624458615
 51
171.7233173166297
  0
ARC
  5
199
330
1F
100
AcDbEntity
  8
Graypants_Drum24
 62
    36
420
  8866048
370
    -3
100
AcDbCircle
 10
32.60073848786658
 20
-18.82204559913794
 30
0.0
 40
3.17500000009604
100
AcDbArc
 50
27.00000000009677
 51
29.99999939722298
  0
ARC
  5
19A
330
1F
100
AcDbEntity
  8
Graypants_Drum24
 62
    36
420
  8866048
370
    -3
100
AcDbCircle
 10
-3.174719217511486
 20
-0.0002246202127495
 30
0.0
 40
0.7940930676561362
210
0.0
220
0.0
230
-1.0
100
AcDbArc
 50
90.01636531954
 51
270.1200792501118
  0
LINE
  5
19B
330
1F
100
AcDbEntity
  8
Graypants_Drum24
 62
    36
420
  8866048
370
    -3
100
AcDbLine
 10
-3.174129956914385
 20
0.7938687261405448
 30
0.0
 11
-2.698750000000018
 21
0.7938687408211536
 31
0.0
  0
ARC
  5
19C
330
1F
100
AcDbEntity
  8
Graypants_Drum24
 62
    36
420
  8866048
370
    -3
100
AcDbCircle
 10
3.174226514206209
 20
-202.2709264962947
 30
0.0
 40
203.0647949126203
100
AcDbArc
 50
89.99979698397958
 51
90.00002716052386
  0
LINE
  5
19D
330
1F
100
AcDbEntity
  8
Graypants_Drum24
 62
    36
420
  8866048
370
    -3
100
AcDbLine
 10
3.174129677092424
 20
-0.7938684138152894
 30
0.0
 11
2.698750000000246
 21
-0.793868399134908
 31
0.0
  0
ARC
  5
19E
330
1F
100
AcDbEntity
  8
Graypants_Drum24
 62
    36
420
  8866048
370
    -3
100
AcDbCircle
 10
3.174927951153041
 20
-0.0000035200849305
 30
0.0
 40
0.7938722452078236
210
0.0
220
0.0
230
-1.0
100
AcDbArc
 50
269.9456030599577
 51
89.99874894358746
  0
LINE
  5
19F
330
1F
100
AcDbEntity
  8
Graypants_Drum24
 62
    36
420
  8866048
370
    -3
100
AcDbLine
 10
-2.698750000000018
 20
-0.7938687407929592
 30
0.0
 11
-3.174130533244806
 21
-0.7938687261121231
 31
0.0
  0
LINE
  5
1A0
330
1F
100
AcDbEntity
  8
Graypants_Drum24
 62
    36
420
  8866048
370
    -3
100
AcDbLine
 10
2.698750000000246
 20
0.793868399162875
 30
0.0
 11
3.174130253255498
 21
0.7938684138437111
 31
0.0
  0
ARC
  5
1A1
330
1F
100
AcDbEntity
  8
Graypants_Drum24
 62
    36
420
  8866048
370
    -3
100
AcDbCircle
 10
0.7937500000131894
 20
0.0000000000402117
 30
0.0
 40
0.7940000000000758
210
0.0
220
0.0
230
-1.0
100
AcDbArc
 50
332.9999999978918
 51
332.7692442185353
  0
ARC
  5
1A2
330
1F
100
AcDbEntity
  8
Graypants_Drum24
 62
    36
420
  8866048
370
    -3
100
AcDbCircle
 10
-0.7937500000004225
 20
0.0000000000094581
 30
0.0
 40
0.7937499999998783
210
0.0
220
0.0
230
-1.0
100
AcDbArc
 50
1.0169291983846
 51
359.4108166238091
  0
LINE
  5
1A3
330
1F
100
AcDbEntity
  8
Graypants_Drum24
 62
    36
420
  8866048
370
    -3
100
AcDbLine
 10
0.7937497175744284
 20
-0.797345235023613
 30
0.0
 11
-0.7937500000002728
 21
-0.797345235023613
 31
0.0
  0
LINE
  5
1A4
330
1F
100
AcDbEntity
  8
Graypants_Drum24
 62
    36
420
  8866048
370
    -3
100
AcDbLine
 10
-0.7937497309885657
 20
0.7901547649762506
 30
0.0
 11
0.7937499999998181
 21
0.7901547649762506
 31
0.0
  0
ARC
  5
1A5
330
1F
100
AcDbEntity
  8
Graypants_Drum24
 62
    36
420
  8866048
370
    -3
100
AcDbCircle
 10
-0.7937500000003135
 20
-0.0035952350236555
 30
0.0
 40
1.587500000000003
100
AcDbArc
 50
89.99998543631149
 51
270.0000000000014
  0
LINE
  5
1A6
330
1F
100
AcDbEntity
  8
Graypants_Drum24
 62
    36
420
  8866048
370
    -3
100
AcDbLine
 10
0.7937499999998181
 20
1.583904764976296
 30
0.0
 11
-0.7937495964827121
 21
1.583904764976296
 31
0.0
  0
ARC
  5
1A7
330
1F
100
AcDbEntity
  8
Graypants_Drum24
 62
    36
420
  8866048
370
    -3
100
AcDbCircle
 10
0.7937500000002842
 20
-0.0035952350237095
 30
0.0
 40
1.587500000000005
100
AcDbArc
 50
269.9999847101096
 51
90.00000000001683
  0
LINE
  5
1A8
330
1F
100
AcDbEntity
  8
Graypants_Drum24
 62
    36
420
  8866048
370
    -3
100
AcDbLine
 10
-0.7937500000002728
 20
-1.591095235023658
 30
0.0
 11
0.7937495763617335
 21
-1.591095235023658
 31
0.0
  0
LINE
  5
1A9
330
1F
100
AcDbEntity
  8
Graypants_Drum24
 62
    36
420
  8866048
370
    -3
100
AcDbLine
 10
9.52500087223666
 20
-2.920999999985952
 30
0.0
 11
4.7625000000005
 21
-2.920999999985725
 31
0.0
  0
LINE
  5
1AA
330
1F
100
AcDbEntity
  8
Graypants_Drum24
 62
    36
420
  8866048
370
    -3
100
AcDbLine
 10
4.762500000000499
 20
2.921000000014146
 30
0.0
 11
9.525000000000771
 21
2.921000000014146
 31
0.0
  0
CIRCLE
  5
1AB
330
1F
100
AcDbEntity
  8
Graypants_Drum24
 62
    36
420
  8866048
370
    -3
100
AcDbCircle
 10
-9.525000000000546
 20
0.0000000000140989
 30
0.0
 40
2.921000000000049
210
0.0
220
0.0
230
-1.0
  0
POLYLINE
  5
1AC
330
1F
100
AcDbEntity
  8
Graypants_Drum24
 62
    36
420
  8866048
370
    -3
100
AcDb2dPolyline
 66
     1
 10
0.0
 20
0.0
 30
0.0
  0
VERTEX
  5
1AD
330
1AC
100
AcDbEntity
  8
Graypants_Drum24
 62
    36
420
  8866048
370
    -3
100
AcDbVertex
100
AcDb2dVertex
 10
2.381250000000364
 20
-11.11250000009841
 30
0.0
  0
VERTEX
  5
1AE
330
1AC
100
AcDbEntity
  8
Graypants_Drum24
 62
    36
420
  8866048
370
    -3
100
AcDbVertex
100
AcDb2dVertex
 10
2.348064729243503
 20
-11.44729340133677
 30
0.0
  0
VERTEX
  5
1AF
330
1AC
100
AcDbEntity
  8
Graypants_Drum24
 62
    36
420
  8866048
370
    -3
100
AcDbVertex
100
AcDb2dVertex
 10
2.335717027013809
 20
-11.54500142645538
 30
0.0
  0
VERTEX
  5
1B0
330
1AC
100
AcDbEntity
  8
Graypants_Drum24
 62
    36
420
  8866048
370
    -3
100
AcDbVertex
100
AcDb2dVertex
 10
2.326417020982996
 20
-11.60197297053539
 30
0.0
  0
VERTEX
  5
1B1
330
1AC
100
AcDbEntity
  8
Graypants_Drum24
 62
    36
420
  8866048
370
    -3
100
AcDbVertex
100
AcDb2dVertex
 10
2.31527816563647
 20
-11.6585547118119
 30
0.0
  0
VERTEX
  5
1B2
330
1AC
100
AcDbEntity
  8
Graypants_Drum24
 62
    36
420
  8866048
370
    -3
100
AcDbVertex
100
AcDb2dVertex
 10
2.302375982295269
 20
-11.71473176147517
 30
0.0
  0
VERTEX
  5
1B3
330
1AC
100
AcDbEntity
  8
Graypants_Drum24
 62
    36
420
  8866048
370
    -3
100
AcDbVertex
100
AcDb2dVertex
 10
2.287785992280428
 20
-11.77048923071543
 30
0.0
  0
VERTEX
  5
1B4
330
1AC
100
AcDbEntity
  8
Graypants_Drum24
 62
    36
420
  8866048
370
    -3
100
AcDbVertex
100
AcDb2dVertex
 10
2.271583716912984
 20
-11.82581223072293
 30
0.0
  0
VERTEX
  5
1B5
330
1AC
100
AcDbEntity
  8
Graypants_Drum24
 62
    36
420
  8866048
370
    -3
100
AcDbVertex
100
AcDb2dVertex
 10
2.253844677513972
 20
-11.88068587268793
 30
0.0
  0
VERTEX
  5
1B6
330
1AC
100
AcDbEntity
  8
Graypants_Drum24
 62
    36
420
  8866048
370
    -3
100
AcDbVertex
100
AcDb2dVertex
 10
2.234644395404428
 20
-11.93509526780067
 30
0.0
  0
VERTEX
  5
1B7
330
1AC
100
AcDbEntity
  8
Graypants_Drum24
 62
    36
420
  8866048
370
    -3
100
AcDbVertex
100
AcDb2dVertex
 10
2.21405839190539
 20
-11.98902552725138
 30
0.0
  0
VERTEX
  5
1B8
330
1AC
100
AcDbEntity
  8
Graypants_Drum24
 62
    36
420
  8866048
370
    -3
100
AcDbVertex
100
AcDb2dVertex
 10
2.190898563114102
 20
-12.04540690833451
 30
0.0
  0
VERTEX
  5
1B9
330
1AC
100
AcDbEntity
  8
Graypants_Drum24
 62
    36
420
  8866048
370
    -3
100
AcDbVertex
100
AcDb2dVertex
 10
2.166332010776811
 20
-12.10111408827442
 30
0.0
  0
VERTEX
  5
1BA
330
1AC
100
AcDbEntity
  8
Graypants_Drum24
 62
    36
420
  8866048
370
    -3
100
AcDbVertex
100
AcDb2dVertex
 10
2.140374991530976
 20
-12.15612220017008
 30
0.0
  0
VERTEX
  5
1BB
330
1AC
100
AcDbEntity
  8
Graypants_Drum24
 62
    36
420
  8866048
370
    -3
100
AcDbVertex
100
AcDb2dVertex
 10
2.113043762014054
 20
-12.21040637712046
 30
0.0
  0
VERTEX
  5
1BC
330
1AC
100
AcDbEntity
  8
Graypants_Drum24
 62
    36
420
  8866048
370
    -3
100
AcDbVertex
100
AcDb2dVertex
 10
2.084354578863504
 20
-12.26394175222452
 30
0.0
  0
VERTEX
  5
1BD
330
1AC
100
AcDbEntity
  8
Graypants_Drum24
 62
    36
420
  8866048
370
    -3
100
AcDbVertex
100
AcDb2dVertex
 10
2.054323698716783
 20
-12.31670345858123
 30
0.0
  0
VERTEX
  5
1BE
330
1AC
100
AcDbEntity
  8
Graypants_Drum24
 62
    36
420
  8866048
370
    -3
100
AcDbVertex
100
AcDb2dVertex
 10
2.02296737821135
 20
-12.36866662928955
 30
0.0
  0
VERTEX
  5
1BF
330
1AC
100
AcDbEntity
  8
Graypants_Drum24
 62
    36
420
  8866048
370
    -3
100
AcDbVertex
100
AcDb2dVertex
 10
1.990301873984664
 20
-12.41980639744843
 30
0.0
  0
VERTEX
  5
1C0
330
1AC
100
AcDbEntity
  8
Graypants_Drum24
 62
    36
420
  8866048
370
    -3
100
AcDbVertex
100
AcDb2dVertex
 10
1.956343442674181
 20
-12.47009789615686
 30
0.0
  0
VERTEX
  5
1C1
330
1AC
100
AcDbEntity
  8
Graypants_Drum24
 62
    36
420
  8866048
370
    -3
100
AcDbVertex
100
AcDb2dVertex
 10
1.921108340917362
 20
-12.51951625851378
 30
0.0
  0
VERTEX
  5
1C2
330
1AC
100
AcDbEntity
  8
Graypants_Drum24
 62
    36
420
  8866048
370
    -3
100
AcDbVertex
100
AcDb2dVertex
 10
1.884612825351662
 20
-12.56803661761817
 30
0.0
  0
VERTEX
  5
1C3
330
1AC
100
AcDbEntity
  8
Graypants_Drum24
 62
    36
420
  8866048
370
    -3
100
AcDbVertex
100
AcDb2dVertex
 10
1.846873152614542
 20
-12.61563410656898
 30
0.0
  0
VERTEX
  5
1C4
330
1AC
100
AcDbEntity
  8
Graypants_Drum24
 62
    36
420
  8866048
370
    -3
100
AcDbVertex
100
AcDb2dVertex
 10
1.807905579343458
 20
-12.66228385846519
 30
0.0
  0
VERTEX
  5
1C5
330
1AC
100
AcDbEntity
  8
Graypants_Drum24
 62
    36
420
  8866048
370
    -3
100
AcDbVertex
100
AcDb2dVertex
 10
1.76772636217587
 20
-12.70796100640575
 30
0.0
  0
VERTEX
  5
1C6
330
1AC
100
AcDbEntity
  8
Graypants_Drum24
 62
    36
420
  8866048
370
    -3
100
AcDbVertex
100
AcDb2dVertex
 10
1.726351757749236
 20
-12.75264068348963
 30
0.0
  0
VERTEX
  5
1C7
330
1AC
100
AcDbEntity
  8
Graypants_Drum24
 62
    36
420
  8866048
370
    -3
100
AcDbVertex
100
AcDb2dVertex
 10
1.683798022701012
 20
-12.79629802281579
 30
0.0
  0
VERTEX
  5
1C8
330
1AC
100
AcDbEntity
  8
Graypants_Drum24
 62
    36
420
  8866048
370
    -3
100
AcDbVertex
100
AcDb2dVertex
 10
1.639650424895258
 20
-12.83931731721752
 30
0.0
  0
VERTEX
  5
1C9
330
1AC
100
AcDbEntity
  8
Graypants_Drum24
 62
    36
420
  8866048
370
    -3
100
AcDbVertex
100
AcDb2dVertex
 10
1.594419442740687
 20
-12.88116565622876
 30
0.0
  0
VERTEX
  5
1CA
330
1AC
100
AcDbEntity
  8
Graypants_Drum24
 62
    36
420
  8866048
370
    -3
100
AcDbVertex
100
AcDb2dVertex
 10
1.548152110167518
 20
-12.9218027957496
 30
0.0
  0
VERTEX
  5
1CB
330
1AC
100
AcDbEntity
  8
Graypants_Drum24
 62
    36
420
  8866048
370
    -3
100
AcDbVertex
100
AcDb2dVertex
 10
1.500897413488673
 20
-12.96119102802957
 30
0.0
  0
VERTEX
  5
1CC
330
1AC
100
AcDbEntity
  8
Graypants_Drum24
 62
    36
420
  8866048
370
    -3
100
AcDbVertex
100
AcDb2dVertex
 10
1.45270611978578
 20
-12.99929529692048
 30
0.0
  0
VERTEX
  5
1CD
330
1AC
100
AcDbEntity
  8
Graypants_Drum24
 62
    36
420
  8866048
370
    -3
100
AcDbVertex
100
AcDb2dVertex
 10
1.403630597426656
 20
-13.03608329918981
 30
0.0
  0
VERTEX
  5
1CE
330
1AC
100
AcDbEntity
  8
Graypants_Drum24
 62
    36
420
  8866048
370
    -3
100
AcDbVertex
100
AcDb2dVertex
 10
1.353724630031121
 20
-13.07152557130096
 30
0.0
  0
VERTEX
  5
1CF
330
1AC
100
AcDbEntity
  8
Graypants_Drum24
 62
    36
420
  8866048
370
    -3
100
AcDbVertex
100
AcDb2dVertex
 10
1.303043225248836
 20
-13.10559556120784
 30
0.0
  0
VERTEX
  5
1D0
330
1AC
100
AcDbEntity
  8
Graypants_Drum24
 62
    36
420
  8866048
370
    -3
100
AcDbVertex
100
AcDb2dVertex
 10
1.251642419742839
 20
-13.13826968485625
 30
0.0
  0
VERTEX
  5
1D1
330
1AC
100
AcDbEntity
  8
Graypants_Drum24
 62
    36
420
  8866048
370
    -3
100
AcDbVertex
100
AcDb2dVertex
 10
1.199579081785425
 20
-13.16952736723014
 30
0.0
  0
VERTEX
  5
1D2
330
1AC
100
AcDbEntity
  8
Graypants_Drum24
 62
    36
420
  8866048
370
    -3
100
AcDbVertex
100
AcDb2dVertex
 10
1.146910712869106
 20
-13.19935106792634
 30
0.0
  0
VERTEX
  5
1D3
330
1AC
100
AcDbEntity
  8
Graypants_Drum24
 62
    36
420
  8866048
370
    -3
100
AcDbVertex
100
AcDb2dVertex
 10
1.093695249715036
 20
-13.22772629138301
 30
0.0
  0
VERTEX
  5
1D4
330
1AC
100
AcDbEntity
  8
Graypants_Drum24
 62
    36
420
  8866048
370
    -3
100
AcDbVertex
100
AcDb2dVertex
 10
1.039990868025216
 20
-13.2546415820246
 30
0.0
  0
VERTEX
  5
1D5
330
1AC
100
AcDbEntity
  8
Graypants_Drum24
 62
    36
420
  8866048
370
    -3
100
AcDbVertex
100
AcDb2dVertex
 10
0.9858557892740146
 20
-13.28008850471596
 30
0.0
  0
VERTEX
  5
1D6
330
1AC
100
AcDbEntity
  8
Graypants_Drum24
 62
    36
420
  8866048
370
    -3
100
AcDbVertex
100
AcDb2dVertex
 10
0.9313480917702415
 20
-13.30406161104007
 30
0.0
  0
VERTEX
  5
1D7
330
1AC
100
AcDbEntity
  8
Graypants_Drum24
 62
    36
420
  8866048
370
    -3
100
AcDbVertex
100
AcDb2dVertex
 10
0.8765255271446075
 20
-13.32655839202558
 30
0.0
  0
VERTEX
  5
1D8
330
1AC
100
AcDbEntity
  8
Graypants_Drum24
 62
    36
420
  8866048
370
    -3
100
AcDbVertex
100
AcDb2dVertex
 10
0.8214453433304618
 20
-13.3475792180506
 30
0.0
  0
VERTEX
  5
1D9
330
1AC
100
AcDbEntity
  8
Graypants_Drum24
 62
    36
420
  8866048
370
    -3
100
AcDbVertex
100
AcDb2dVertex
 10
0.7661641150098946
 20
-13.36712726673782
 30
0.0
  0
VERTEX
  5
1DA
330
1AC
100
AcDbEntity
  8
Graypants_Drum24
 62
    36
420
  8866048
370
    -3
100
AcDbVertex
100
AcDb2dVertex
 10
0.7107375823943817
 20
-13.38520843973087
 30
0.0
  0
VERTEX
  5
1DB
330
1AC
100
AcDbEntity
  8
Graypants_Drum24
 62
    36
420
  8866048
370
    -3
100
AcDbVertex
100
AcDb2dVertex
 10
0.655220499100913
 20
-13.4018312693043
 30
0.0
  0
VERTEX
  5
1DC
330
1AC
100
AcDbEntity
  8
Graypants_Drum24
 62
    36
420
  8866048
370
    -3
100
AcDbVertex
100
AcDb2dVertex
 10
0.5996664897727897
 20
-13.41700681580776
 30
0.0
  0
VERTEX
  5
1DD
330
1AC
100
AcDbEntity
  8
Graypants_Drum24
 62
    36
420
  8866048
370
    -3
100
AcDbVertex
100
AcDb2dVertex
 10
0.5441279179807207
 20
-13.43074855697977
 30
0.0
  0
VERTEX
  5
1DE
330
1AC
100
AcDbEntity
  8
Graypants_Drum24
 62
    36
420
  8866048
370
    -3
100
AcDbVertex
100
AcDb2dVertex
 10
0.4886557648261812
 20
-13.44307227018827
 30
0.0
  0
VERTEX
  5
1DF
330
1AC
100
AcDbEntity
  8
Graypants_Drum24
 62
    36
420
  8866048
370
    -3
100
AcDbVertex
100
AcDb2dVertex
 10
0.4332995185567871
 20
-13.45399590866394
 30
0.0
  0
VERTEX
  5
1E0
330
1AC
100
AcDbEntity
  8
Graypants_Drum24
 62
    36
420
  8866048
370
    -3
100
AcDbVertex
100
AcDb2dVertex
 10
0.3781070753941193
 20
-13.46353947278883
 30
0.0
  0
VERTEX
  5
1E1
330
1AC
100
AcDbEntity
  8
Graypants_Drum24
 62
    36
420
  8866048
370
    -3
100
AcDbVertex
100
AcDb2dVertex
 10
0.3231246516693149
 20
-13.47172487748842
 30
0.0
  0
VERTEX
  5
1E2
330
1AC
100
AcDbEntity
  8
Graypants_Drum24
 62
    36
420
  8866048
370
    -3
100
AcDbVertex
100
AcDb2dVertex
 10
0.2683967072619542
 20
-13.47857581675009
 30
0.0
  0
VERTEX
  5
1E3
330
1AC
100
AcDbEntity
  8
Graypants_Drum24
 62
    36
420
  8866048
370
    -3
100
AcDbVertex
100
AcDb2dVertex
 10
0.21396588024428
 20
-13.48411762625672
 30
0.0
  0
VERTEX
  5
1E4
330
1AC
100
AcDbEntity
  8
Graypants_Drum24
 62
    36
420
  8866048
370
    -3
100
AcDbVertex
100
AcDb2dVertex
 10
0.1598729325463933
 20
-13.48837714508147
 30
0.0
  0
VERTEX
  5
1E5
330
1AC
100
AcDbEntity
  8
Graypants_Drum24
 62
    36
420
  8866048
370
    -3
100
AcDbVertex
100
AcDb2dVertex
 10
0.1061567063793694
 20
-13.49138257734026
 30
0.0
  0
VERTEX
  5
1E6
330
1AC
100
AcDbEntity
  8
Graypants_Drum24
 62
    36
420
  8866048
370
    -3
100
AcDbVertex
100
AcDb2dVertex
 10
0.0528540910827051
 20
-13.49316335464271
 30
0.0
  0
VERTEX
  5
1E7
330
1AC
100
AcDbEntity
  8
Graypants_Drum24
 62
    36
420
  8866048
370
    -3
100
AcDbVertex
100
AcDb2dVertex
 10
0.0000000000003882
 20
-13.49375000012241
 30
0.0
  0
VERTEX
  5
1E8
330
1AC
100
AcDbEntity
  8
Graypants_Drum24
 62
    36
420
  8866048
370
    -3
100
AcDbVertex
100
AcDb2dVertex
 10
-0.0528540910819217
 20
-13.49316335464271
 30
0.0
  0
VERTEX
  5
1E9
330
1AC
100
AcDbEntity
  8
Graypants_Drum24
 62
    36
420
  8866048
370
    -3
100
AcDbVertex
100
AcDb2dVertex
 10
-0.1061567063785791
 20
-13.49138257734026
 30
0.0
  0
VERTEX
  5
1EA
330
1AC
100
AcDbEntity
  8
Graypants_Drum24
 62
    36
420
  8866048
370
    -3
100
AcDbVertex
100
AcDb2dVertex
 10
-0.1598729325455961
 20
-13.48837714508147
 30
0.0
  0
VERTEX
  5
1EB
330
1AC
100
AcDbEntity
  8
Graypants_Drum24
 62
    36
420
  8866048
370
    -3
100
AcDbVertex
100
AcDb2dVertex
 10
-0.2139658802434761
 20
-13.48411762625672
 30
0.0
  0
VERTEX
  5
1EC
330
1AC
100
AcDbEntity
  8
Graypants_Drum24
 62
    36
420
  8866048
370
    -3
100
AcDbVertex
100
AcDb2dVertex
 10
-0.2683967072611437
 20
-13.47857581675009
 30
0.0
  0
VERTEX
  5
1ED
330
1AC
100
AcDbEntity
  8
Graypants_Drum24
 62
    36
420
  8866048
370
    -3
100
AcDbVertex
100
AcDb2dVertex
 10
-0.323124651668498
 20
-13.47172487748842
 30
0.0
  0
VERTEX
  5
1EE
330
1AC
100
AcDbEntity
  8
Graypants_Drum24
 62
    36
420
  8866048
370
    -3
100
AcDbVertex
100
AcDb2dVertex
 10
-0.378107075393296
 20
-13.46353947278883
 30
0.0
  0
VERTEX
  5
1EF
330
1AC
100
AcDbEntity
  8
Graypants_Drum24
 62
    36
420
  8866048
370
    -3
100
AcDbVertex
100
AcDb2dVertex
 10
-0.4332995185559576
 20
-13.45399590866394
 30
0.0
  0
VERTEX
  5
1F0
330
1AC
100
AcDbEntity
  8
Graypants_Drum24
 62
    36
420
  8866048
370
    -3
100
AcDbVertex
100
AcDb2dVertex
 10
-0.4886557648253458
 20
-13.44307227018827
 30
0.0
  0
VERTEX
  5
1F1
330
1AC
100
AcDbEntity
  8
Graypants_Drum24
 62
    36
420
  8866048
370
    -3
100
AcDbVertex
100
AcDb2dVertex
 10
-0.5441279179798794
 20
-13.43074855697977
 30
0.0
  0
VERTEX
  5
1F2
330
1AC
100
AcDbEntity
  8
Graypants_Drum24
 62
    36
420
  8866048
370
    -3
100
AcDbVertex
100
AcDb2dVertex
 10
-0.5996664897719428
 20
-13.41700681580776
 30
0.0
  0
VERTEX
  5
1F3
330
1AC
100
AcDbEntity
  8
Graypants_Drum24
 62
    36
420
  8866048
370
    -3
100
AcDbVertex
100
AcDb2dVertex
 10
-0.6552204991000605
 20
-13.4018312693043
 30
0.0
  0
VERTEX
  5
1F4
330
1AC
100
AcDbEntity
  8
Graypants_Drum24
 62
    36
420
  8866048
370
    -3
100
AcDbVertex
100
AcDb2dVertex
 10
-0.7107375823935241
 20
-13.38520843973087
 30
0.0
  0
VERTEX
  5
1F5
330
1AC
100
AcDbEntity
  8
Graypants_Drum24
 62
    36
420
  8866048
370
    -3
100
AcDbVertex
100
AcDb2dVertex
 10
-0.7661641150090319
 20
-13.36712726673782
 30
0.0
  0
VERTEX
  5
1F6
330
1AC
100
AcDbEntity
  8
Graypants_Drum24
 62
    36
420
  8866048
370
    -3
100
AcDbVertex
100
AcDb2dVertex
 10
-0.8214453433295944
 20
-13.3475792180506
 30
0.0
  0
VERTEX
  5
1F7
330
1AC
100
AcDbEntity
  8
Graypants_Drum24
 62
    36
420
  8866048
370
    -3
100
AcDbVertex
100
AcDb2dVertex
 10
-0.8765255271437354
 20
-13.32655839202558
 30
0.0
  0
VERTEX
  5
1F8
330
1AC
100
AcDbEntity
  8
Graypants_Drum24
 62
    36
420
  8866048
370
    -3
100
AcDbVertex
100
AcDb2dVertex
 10
-0.9313480917693651
 20
-13.30406161104007
 30
0.0
  0
VERTEX
  5
1F9
330
1AC
100
AcDbEntity
  8
Graypants_Drum24
 62
    36
420
  8866048
370
    -3
100
AcDbVertex
100
AcDb2dVertex
 10
-0.985855789273134
 20
-13.28008850471596
 30
0.0
  0
VERTEX
  5
1FA
330
1AC
100
AcDbEntity
  8
Graypants_Drum24
 62
    36
420
  8866048
370
    -3
100
AcDbVertex
100
AcDb2dVertex
 10
-1.039990868024332
 20
-13.2546415820246
 30
0.0
  0
VERTEX
  5
1FB
330
1AC
100
AcDbEntity
  8
Graypants_Drum24
 62
    36
420
  8866048
370
    -3
100
AcDbVertex
100
AcDb2dVertex
 10
-1.093695249714148
 20
-13.22772629138301
 30
0.0
  0
VERTEX
  5
1FC
330
1AC
100
AcDbEntity
  8
Graypants_Drum24
 62
    36
420
  8866048
370
    -3
100
AcDbVertex
100
AcDb2dVertex
 10
-1.146910712868215
 20
-13.19935106792634
 30
0.0
  0
VERTEX
  5
1FD
330
1AC
100
AcDbEntity
  8
Graypants_Drum24
 62
    36
420
  8866048
370
    -3
100
AcDbVertex
100
AcDb2dVertex
 10
-1.199579081784531
 20
-13.16952736723014
 30
0.0
  0
VERTEX
  5
1FE
330
1AC
100
AcDbEntity
  8
Graypants_Drum24
 62
    36
420
  8866048
370
    -3
100
AcDbVertex
100
AcDb2dVertex
 10
-1.251642419741942
 20
-13.13826968485625
 30
0.0
  0
VERTEX
  5
1FF
330
1AC
100
AcDbEntity
  8
Graypants_Drum24
 62
    36
420
  8866048
370
    -3
100
AcDbVertex
100
AcDb2dVertex
 10
-1.303043225247936
 20
-13.10559556120784
 30
0.0
  0
VERTEX
  5
200
330
1AC
100
AcDbEntity
  8
Graypants_Drum24
 62
    36
420
  8866048
370
    -3
100
AcDbVertex
100
AcDb2dVertex
 10
-1.353724630030218
 20
-13.07152557130096
 30
0.0
  0
VERTEX
  5
201
330
1AC
100
AcDbEntity
  8
Graypants_Drum24
 62
    36
420
  8866048
370
    -3
100
AcDbVertex
100
AcDb2dVertex
 10
-1.403630597425752
 20
-13.03608329918981
 30
0.0
  0
VERTEX
  5
202
330
1AC
100
AcDbEntity
  8
Graypants_Drum24
 62
    36
420
  8866048
370
    -3
100
AcDbVertex
100
AcDb2dVertex
 10
-1.452706119784875
 20
-12.99929529692048
 30
0.0
  0
VERTEX
  5
203
330
1AC
100
AcDbEntity
  8
Graypants_Drum24
 62
    36
420
  8866048
370
    -3
100
AcDbVertex
100
AcDb2dVertex
 10
-1.500897413487766
 20
-12.96119102802957
 30
0.0
  0
VERTEX
  5
204
330
1AC
100
AcDbEntity
  8
Graypants_Drum24
 62
    36
420
  8866048
370
    -3
100
AcDbVertex
100
AcDb2dVertex
 10
-1.548152110166609
 20
-12.9218027957496
 30
0.0
  0
VERTEX
  5
205
330
1AC
100
AcDbEntity
  8
Graypants_Drum24
 62
    36
420
  8866048
370
    -3
100
AcDbVertex
100
AcDb2dVertex
 10
-1.594419442739778
 20
-12.88116565622876
 30
0.0
  0
VERTEX
  5
206
330
1AC
100
AcDbEntity
  8
Graypants_Drum24
 62
    36
420
  8866048
370
    -3
100
AcDbVertex
100
AcDb2dVertex
 10
-1.639650424894349
 20
-12.83931731721752
 30
0.0
  0
VERTEX
  5
207
330
1AC
100
AcDbEntity
  8
Graypants_Drum24
 62
    36
420
  8866048
370
    -3
100
AcDbVertex
100
AcDb2dVertex
 10
-1.683798022700103
 20
-12.79629802281579
 30
0.0
  0
VERTEX
  5
208
330
1AC
100
AcDbEntity
  8
Graypants_Drum24
 62
    36
420
  8866048
370
    -3
100
AcDbVertex
100
AcDb2dVertex
 10
-1.726351757748326
 20
-12.7526406834896
 30
0.0
  0
VERTEX
  5
209
330
1AC
100
AcDbEntity
  8
Graypants_Drum24
 62
    36
420
  8866048
370
    -3
100
AcDbVertex
100
AcDb2dVertex
 10
-1.767726362174961
 20
-12.70796100640569
 30
0.0
  0
VERTEX
  5
20A
330
1AC
100
AcDbEntity
  8
Graypants_Drum24
 62
    36
420
  8866048
370
    -3
100
AcDbVertex
100
AcDb2dVertex
 10
-1.807905579342549
 20
-12.66228385846511
 30
0.0
  0
VERTEX
  5
20B
330
1AC
100
AcDbEntity
  8
Graypants_Drum24
 62
    36
420
  8866048
370
    -3
100
AcDbVertex
100
AcDb2dVertex
 10
-1.846873152613633
 20
-12.61563410656889
 30
0.0
  0
VERTEX
  5
20C
330
1AC
100
AcDbEntity
  8
Graypants_Drum24
 62
    36
420
  8866048
370
    -3
100
AcDbVertex
100
AcDb2dVertex
 10
-1.884612825350753
 20
-12.56803661761807
 30
0.0
  0
VERTEX
  5
20D
330
1AC
100
AcDbEntity
  8
Graypants_Drum24
 62
    36
420
  8866048
370
    -3
100
AcDbVertex
100
AcDb2dVertex
 10
-1.921108340916453
 20
-12.51951625851368
 30
0.0
  0
VERTEX
  5
20E
330
1AC
100
AcDbEntity
  8
Graypants_Drum24
 62
    36
420
  8866048
370
    -3
100
AcDbVertex
100
AcDb2dVertex
 10
-1.956343442673272
 20
-12.47009789615676
 30
0.0
  0
VERTEX
  5
20F
330
1AC
100
AcDbEntity
  8
Graypants_Drum24
 62
    36
420
  8866048
370
    -3
100
AcDbVertex
100
AcDb2dVertex
 10
-1.990301873983755
 20
-12.41980639744835
 30
0.0
  0
VERTEX
  5
210
330
1AC
100
AcDbEntity
  8
Graypants_Drum24
 62
    36
420
  8866048
370
    -3
100
AcDbVertex
100
AcDb2dVertex
 10
-2.022967378210441
 20
-12.36866662928947
 30
0.0
  0
VERTEX
  5
211
330
1AC
100
AcDbEntity
  8
Graypants_Drum24
 62
    36
420
  8866048
370
    -3
100
AcDbVertex
100
AcDb2dVertex
 10
-2.054323698715874
 20
-12.31670345858117
 30
0.0
  0
VERTEX
  5
212
330
1AC
100
AcDbEntity
  8
Graypants_Drum24
 62
    36
420
  8866048
370
    -3
100
AcDbVertex
100
AcDb2dVertex
 10
-2.084354578862595
 20
-12.26394175222448
 30
0.0
  0
VERTEX
  5
213
330
1AC
100
AcDbEntity
  8
Graypants_Drum24
 62
    36
420
  8866048
370
    -3
100
AcDbVertex
100
AcDb2dVertex
 10
-2.113043762013145
 20
-12.21040637712043
 30
0.0
  0
VERTEX
  5
214
330
1AC
100
AcDbEntity
  8
Graypants_Drum24
 62
    36
420
  8866048
370
    -3
100
AcDbVertex
100
AcDb2dVertex
 10
-2.140374991530067
 20
-12.15612220017006
 30
0.0
  0
VERTEX
  5
215
330
1AC
100
AcDbEntity
  8
Graypants_Drum24
 62
    36
420
  8866048
370
    -3
100
AcDbVertex
100
AcDb2dVertex
 10
-2.166332010775903
 20
-12.10111408827441
 30
0.0
  0
VERTEX
  5
216
330
1AC
100
AcDbEntity
  8
Graypants_Drum24
 62
    36
420
  8866048
370
    -3
100
AcDbVertex
100
AcDb2dVertex
 10
-2.190898563113194
 20
-12.0454069083345
 30
0.0
  0
VERTEX
  5
217
330
1AC
100
AcDbEntity
  8
Graypants_Drum24
 62
    36
420
  8866048
370
    -3
100
AcDbVertex
100
AcDb2dVertex
 10
-2.214058391904481
 20
-11.98902552725138
 30
0.0
  0
VERTEX
  5
218
330
1AC
100
AcDbEntity
  8
Graypants_Drum24
 62
    36
420
  8866048
370
    -3
100
AcDbVertex
100
AcDb2dVertex
 10
-2.234655682281506
 20
-11.9350968265745
 30
0.0
  0
VERTEX
  5
219
330
1AC
100
AcDbEntity
  8
Graypants_Drum24
 62
    36
420
  8866048
370
    -3
100
AcDbVertex
100
AcDb2dVertex
 10
-2.253934972536949
 20
-11.88069834287861
 30
0.0
  0
VERTEX
  5
21A
330
1AC
100
AcDbEntity
  8
Graypants_Drum24
 62
    36
420
  8866048
370
    -3
100
AcDbVertex
100
AcDb2dVertex
 10
-2.271888462617692
 20
-11.82585431761649
 30
0.0
  0
VERTEX
  5
21B
330
1AC
100
AcDbEntity
  8
Graypants_Drum24
 62
    36
420
  8866048
370
    -3
100
AcDbVertex
100
AcDb2dVertex
 10
-2.288508352470612
 20
-11.7705889922409
 30
0.0
  0
VERTEX
  5
21C
330
1AC
100
AcDbEntity
  8
Graypants_Drum24
 62
    36
420
  8866048
370
    -3
100
AcDbVertex
100
AcDb2dVertex
 10
-2.30378684204259
 20
-11.7149266082046
 30
0.0
  0
VERTEX
  5
21D
330
1AC
100
AcDbEntity
  8
Graypants_Drum24
 62
    36
420
  8866048
370
    -3
100
AcDbVertex
100
AcDb2dVertex
 10
-2.317716131280501
 20
-11.65889140696036
 30
0.0
  0
VERTEX
  5
21E
330
1AC
100
AcDbEntity
  8
Graypants_Drum24
 62
    36
420
  8866048
370
    -3
100
AcDbVertex
100
AcDb2dVertex
 10
-2.330288420131228
 20
-11.60250762996095
 30
0.0
  0
VERTEX
  5
21F
330
1AC
100
AcDbEntity
  8
Graypants_Drum24
 62
    36
420
  8866048
370
    -3
100
AcDbVertex
100
AcDb2dVertex
 10
-2.341495908541647
 20
-11.54579951865913
 30
0.0
  0
VERTEX
  5
220
330
1AC
100
AcDbEntity
  8
Graypants_Drum24
 62
    36
420
  8866048
370
    -3
100
AcDbVertex
100
AcDb2dVertex
 10
-2.353860400291439
 20
-11.47262883599019
 30
0.0
  0
VERTEX
  5
221
330
1AC
100
AcDbEntity
  8
Graypants_Drum24
 62
    36
420
  8866048
370
    -3
100
AcDbVertex
100
AcDb2dVertex
 10
-2.363938912477384
 20
-11.39910840991052
 30
0.0
  0
VERTEX
  5
222
330
1AC
100
AcDbEntity
  8
Graypants_Drum24
 62
    36
420
  8866048
370
    -3
100
AcDbVertex
100
AcDb2dVertex
 10
-2.371581506031175
 20
-11.32686586200239
 30
0.0
  0
VERTEX
  5
223
330
1AC
100
AcDbEntity
  8
Graypants_Drum24
 62
    36
420
  8866048
370
    -3
100
AcDbVertex
100
AcDb2dVertex
 10
-2.377016869193828
 20
-11.25442380383328
 30
0.0
  0
VERTEX
  5
224
330
1AC
100
AcDbEntity
  8
Graypants_Drum24
 62
    36
420
  8866048
370
    -3
100
AcDbVertex
100
AcDb2dVertex
 10
-2.379135328165469
 20
-11.18343040065394
 30
0.0
  0
VERTEX
  5
225
330
1AC
100
AcDbEntity
  8
Graypants_Drum24
 62
    36
420
  8866048
370
    -3
100
AcDbVertex
100
AcDb2dVertex
 10
-2.381249999999682
 20
-11.11250000009818
 30
0.0
  0
SEQEND
  5
226
330
1AC
100
AcDbEntity
  8
Graypants_Drum24
 62
    36
420
  8866048
370
    -3
  0
ARC
  5
227
330
1F
100
AcDbEntity
  8
Graypants_Drum24
 62
    36
420
  8866048
370
    -3
100
AcDbCircle
 10
-0.0000482308343894
 20
11.11245568725481
 30
0.0
 40
2.381298231245917
210
0.0
220
0.0
230
-1.0
100
AcDbArc
 50
0.0010661974477549
 51
171.742233555202
  0
ARC
  5
228
330
1F
100
AcDbEntity
  8
Graypants_Drum24
 62
    36
420
  8866048
370
    -3
100
AcDbCircle
 10
0.0123384519356838
 20
-0.0000057976326452
 30
0.0
 40
7.937495932757374
100
AcDbArc
 50
89.99872240250336
 51
90.08906346571015
  0
ARC
  5
229
330
1F
100
AcDbEntity
  8
Graypants_Drum24
 62
    36
420
  8866048
370
    -3
100
AcDbCircle
 10
-0.0123384439003822
 20
-0.0000058053335507
 30
0.0
 40
7.937495940450493
100
AcDbArc
 50
89.91093651558468
 51
90.00127772678562
  0
LINE
  5
22A
330
1F
100
AcDbEntity
  8
Graypants_Drum24
 62
    36
420
  8866048
370
    -3
100
AcDbLine
 10
35.35036916166655
 20
-17.23454562801726
 30
0.0
 11
2.749631069755196
 21
39.23159048333605
 31
0.0
  0
LINE
  5
22B
330
1F
100
AcDbEntity
  8
Graypants_Drum24
 62
    36
420
  8866048
370
    -3
100
AcDbLine
 10
-32.60073891739103
 20
-21.99704491313105
 30
0.0
 11
32.60073845454667
 21
-21.99704559908969
 31
0.0
  0
LINE
  5
22C
330
1F
100
AcDbEntity
  8
Graypants_Drum24
 62
    36
420
  8866048
370
    -3
100
AcDbLine
 10
-2.749630244275977
 20
39.23159054119151
 30
0.0
 11
-35.3503695243021
 21
-17.23454488420361
 31
0.0
  0
ARC
  5
22D
330
1F
100
AcDbEntity
  8
Graypants_Drum24
 62
    36
420
  8866048
370
    -3
100
AcDbCircle
 10
-0.0000000000001638
 20
0.0000000000016005
 30
0.0
 40
234.9500000000005
210
0.0
220
0.0
230
-1.0
100
AcDbArc
 50
210.3648347717167
 51
329.6342013418137
  0
ARC
  5
22E
330
1F
100
AcDbEntity
  8
Graypants_Drum24
 62
    36
420
  8866048
370
    -3
100
AcDbCircle
 10
-0.0000000000003685
 20
0.000000000000854
 30
0.0
 40
234.9500000000004
210
0.0
220
0.0
230
-1.0
100
AcDbArc
 50
330.3657974526535
 51
89.6345559280719
  0
LINE
  5
22F
330
1F
100
AcDbEntity
  8
Graypants_Drum24
 62
    36
420
  8866048
370
    -3
100
AcDbLine
 10
256.4572618802406
 20
-149.7977180902415
 30
0.0
 11
254.2944822373106
 21
-148.5490366971703
 31
0.0
  0
LINE
  5
230
330
1F
100
AcDbEntity
  8
Graypants_Drum24
 62
    36
420
  8866048
370
    -3
100
AcDbLine
 10
257.9562653191194
 20
-147.1990665140638
 30
0.0
 11
255.7944822229206
 21
-145.9509604775087
 31
0.0
  0
LINE
  5
231
330
1F
100
AcDbEntity
  8
Graypants_Drum24
 62
    36
420
  8866048
370
    -3
100
AcDbLine
 10
-257.9533698276596
 20
-147.1974003085988
 30
0.0
 11
-255.7944798790727
 21
-145.9509645853489
 31
0.0
  0
LINE
  5
232
330
1F
100
AcDbEntity
  8
Graypants_Drum24
 62
    36
420
  8866048
370
    -3
100
AcDbLine
 10
-256.4520724051013
 20
-149.7947274526709
 30
0.0
 11
-254.2944798517403
 21
-148.549040780922
 31
0.0
  0
LINE
  5
233
330
1F
100
AcDbEntity
  8
Graypants_Drum24
 62
    36
420
  8866048
370
    -3
100
AcDbLine
 10
56.18963791399051
 20
10.44405686855998
 30
0.0
 11
39.57352269322223
 21
0.85073838332778
 31
0.0
  0
LINE
  5
234
330
1F
100
AcDbEntity
  8
Graypants_Drum24
 62
    36
420
  8866048
370
    -3
100
AcDbLine
 10
37.14137243215191
 20
43.44062617726308
 30
0.0
 11
53.5190908366742
 21
52.89630619804507
 31
0.0
  0
LINE
  5
235
330
1F
100
AcDbEntity
  8
Graypants_Drum24
 62
    36
420
  8866048
370
    -3
100
AcDbLine
 10
-37.13777928540139
 20
43.43855257429755
 30
0.0
 11
-20.52352239853531
 21
33.84630677792802
 31
0.0
  0
LINE
  5
236
330
1F
100
AcDbEntity
  8
Graypants_Drum24
 62
    36
420
  8866048
370
    -3
100
AcDbLine
 10
-56.18647439916913
 20
10.44223131368426
 30
0.0
 11
-72.56909035219223
 21
19.90073915300582
 31
0.0
  0
LINE
  5
237
330
1F
100
AcDbEntity
  8
Graypants_Drum24
 62
    36
420
  8866048
370
    -3
100
AcDbLine
 10
1.499999999982265
 20
296.9962120970565
 30
0.0
 11
1.49999999998181
 21
294.4999999999998
 31
0.0
  0
LINE
  5
238
330
1F
100
AcDbEntity
  8
Graypants_Drum24
 62
    36
420
  8866048
370
    -3
100
AcDbLine
 10
-1.500000000017053
 20
296.9962120970565
 30
0.0
 11
-1.500000000017508
 21
294.5000000000005
 31
0.0
  0
LINE
  5
239
330
1F
100
AcDbEntity
  8
Graypants_Drum24
 62
    36
420
  8866048
370
    -3
100
AcDbLine
 10
-19.05000039023071
 20
-53.87673506243004
 30
0.0
 11
-19.05000029468715
 21
-34.69704516121283
 31
0.0
  0
LINE
  5
23A
330
1F
100
AcDbEntity
  8
Graypants_Drum24
 62
    36
420
  8866048
370
    -3
100
AcDbLine
 10
19.04999960974533
 20
-53.88153686437704
 30
0.0
 11
19.04999951551781
 21
-72.79704535100791
 31
0.0
  0
CIRCLE
  5
23B
330
1F
100
AcDbEntity
  8
Graypants_Drum24
 62
    36
420
  8866048
370
    -3
100
AcDbCircle
 10
0.0000000000001026
 20
-0.0000000000000534
 30
0.0
 40
312.2879766184996
  0
ARC
  5
23C
330
1F
100
AcDbEntity
  8
Graypants_Drum24
 62
    36
420
  8866048
370
    -3
100
AcDbCircle
 10
0.0000000000002862
 20
0.0000000000008532
 30
0.0
 40
234.9500000000002
210
0.0
220
0.0
230
-1.0
100
AcDbArc
 50
90.36711274730602
 51
209.6341083333429
  0
LINE
  5
23D
330
1F
100
AcDbEntity
  8
Graypants_Drum24
 62
    36
420
  8866048
370
    -3
100
AcDbLine
 10
19.04999951551781
 20
-72.79704535100791
 30
0.0
 11
-19.05000048448233
 21
-72.79704516121296
 31
0.0
  0
ARC
  5
23E
330
1F
100
AcDbEntity
  8
Graypants_Drum24
 62
    36
420
  8866048
370
    -3
100
AcDbCircle
 10
6.350000294686547
 20
-34.69704522447852
 30
0.0
 40
12.70000000000061
210
0.0
220
0.0
230
-1.0
100
AcDbArc
 50
0.0000002854218351
 51
90.00000028541575
  0
ARC
  5
23F
330
1F
100
AcDbEntity
  8
Graypants_Drum24
 62
    36
420
  8866048
370
    -3
100
AcDbCircle
 10
6.349999705313173
 20
-34.69704528774286
 30
0.0
 40
12.69999999999981
100
AcDbArc
 50
359.9999997145807
 51
89.99999971458175
  0
LINE
  5
240
330
1F
100
AcDbEntity
  8
Graypants_Drum24
 62
    36
420
  8866048
370
    -3
100
AcDbLine
 10
-19.05000048448233
 20
-72.79704516121296
 30
0.0
 11
-19.05000039023071
 21
-53.87673506243004
 31
0.0
  0
LINE
  5
241
330
1F
100
AcDbEntity
  8
Graypants_Drum24
 62
    36
420
  8866048
370
    -3
100
AcDbLine
 10
19.04999970531298
 20
-34.697045351008
 30
0.0
 11
19.04999960974533
 21
-53.88153686437704
 31
0.0
  0
LINE
  5
242
330
1F
100
AcDbEntity
  8
Graypants_Drum24
 62
    36
420
  8866048
370
    -3
100
AcDbLine
 10
53.5190908366742
 20
52.89630619804507
 30
0.0
 11
72.56909067230686
 21
19.90073821896044
 31
0.0
  0
ARC
  5
243
330
1F
100
AcDbEntity
  8
Graypants_Drum24
 62
    36
420
  8866048
370
    -3
100
AcDbCircle
 10
-33.22352274801101
 20
11.84926104302213
 30
0.0
 40
12.69999999999951
210
0.0
220
0.0
230
-1.0
100
AcDbArc
 50
240.0000002854158
 51
330.0000002854202
  0
ARC
  5
244
330
1F
100
AcDbEntity
  8
Graypants_Drum24
 62
    36
420
  8866048
370
    -3
100
AcDbCircle
 10
26.87352280280092
 20
22.84778370271746
 30
0.0
 40
12.70000000000049
100
AcDbArc
 50
119.9999997145824
 51
209.9999997145788
  0
LINE
  5
245
330
1F
100
AcDbEntity
  8
Graypants_Drum24
 62
    36
420
  8866048
370
    -3
100
AcDbLine
 10
72.56909067230686
 20
19.90073821896044
 30
0.0
 11
56.18963791399051
 21
10.44405686855998
 31
0.0
  0
LINE
  5
246
330
1F
100
AcDbEntity
  8
Graypants_Drum24
 62
    36
420
  8866048
370
    -3
100
AcDbLine
 10
20.52352285758957
 20
33.84630636241241
 30
0.0
 11
37.14137243215191
 21
43.44062617726308
 31
0.0
  0
LINE
  5
247
330
1F
100
AcDbEntity
  8
Graypants_Drum24
 62
    36
420
  8866048
370
    -3
100
AcDbLine
 10
-72.56909035219223
 20
19.90073915300582
 30
0.0
 11
-53.51909018782476
 21
52.89630694229527
 31
0.0
  0
ARC
  5
248
330
1F
100
AcDbEntity
  8
Graypants_Drum24
 62
    36
420
  8866048
370
    -3
100
AcDbCircle
 10
26.87352245332394
 20
22.84778418149823
 30
0.0
 40
12.6999999999997
210
0.0
220
0.0
230
-1.0
100
AcDbArc
 50
120.0000002854171
 51
210.0000002854195
  0
ARC
  5
249
330
1F
100
AcDbEntity
  8
Graypants_Drum24
 62
    36
420
  8866048
370
    -3
100
AcDbCircle
 10
-33.22352250811329
 20
11.84926158506761
 30
0.0
 40
12.69999999999956
100
AcDbArc
 50
239.9999997145793
 51
329.9999997145827
  0
LINE
  5
24A
330
1F
100
AcDbEntity
  8
Graypants_Drum24
 62
    36
420
  8866048
370
    -3
100
AcDbLine
 10
-53.51909018782476
 20
52.89630694229527
 30
0.0
 11
-37.13777928540139
 21
43.43855257429755
 31
0.0
  0
LINE
  5
24B
330
1F
100
AcDbEntity
  8
Graypants_Drum24
 62
    36
420
  8866048
370
    -3
100
AcDbLine
 10
-39.57352256290255
 20
0.8507389886383407
 30
0.0
 11
-56.18647439916913
 21
10.44223131368426
 31
0.0
  0
LINE
  5
24C
330
1F
100
AcDbEntity
  8
Graypants_Drum24
 62
    36
420
  8866048
370
    -3
100
AcDbLine
 10
1.499999999977945
 20
294.4999999999995
 30
0.0
 11
1.499999999975444
 21
282.0000000000016
 31
0.0
  0
LINE
  5
24D
330
1F
100
AcDbEntity
  8
Graypants_Drum24
 62
    36
420
  8866048
370
    -3
100
AcDbLine
 10
-1.5000000000216
 20
294.5000000000002
 30
0.0
 11
-1.500000000024102
 21
282.0000000000023
 31
0.0
  0
LINE
  5
24E
330
1F
100
AcDbEntity
  8
Graypants_Drum24
 62
    36
420
  8866048
370
    -3
100
AcDbLine
 10
-1.5000000000216
 20
294.5000000000002
 30
0.0
 11
1.499999999977945
 21
294.4999999999995
 31
0.0
  0
LINE
  5
24F
330
1F
100
AcDbEntity
  8
Graypants_Drum24
 62
    36
420
  8866048
370
    -3
100
AcDbLine
 10
254.2944822373115
 20
-148.5490366971705
 30
0.0
 11
243.4691646553902
 21
-142.2990367571308
 31
0.0
  0
LINE
  5
250
330
1F
100
AcDbEntity
  8
Graypants_Drum24
 62
    36
420
  8866048
370
    -3
100
AcDbLine
 10
255.794482222921
 20
-145.9509604775092
 30
0.0
 11
244.9691646409999
 21
-139.7009605374694
 31
0.0
  0
LINE
  5
251
330
1F
100
AcDbEntity
  8
Graypants_Drum24
 62
    36
420
  8866048
370
    -3
100
AcDbLine
 10
255.794482222921
 20
-145.9509604775092
 30
0.0
 11
254.2944822373115
 21
-148.5490366971705
 31
0.0
  0
LINE
  5
252
330
1F
100
AcDbEntity
  8
Graypants_Drum24
 62
    36
420
  8866048
370
    -3
100
AcDbLine
 10
-255.7944798790759
 20
-145.9509645853461
 30
0.0
 11
-244.9691623975241
 21
-139.7009644714619
 31
0.0
  0
LINE
  5
253
330
1F
100
AcDbEntity
  8
Graypants_Drum24
 62
    36
420
  8866048
370
    -3
100
AcDbLine
 10
-254.2944798517435
 20
-148.5490407809191
 30
0.0
 11
-243.4691623701915
 21
-142.2990406670349
 31
0.0
  0
LINE
  5
254
330
1F
100
AcDbEntity
  8
Graypants_Drum24
 62
    36
420
  8866048
370
    -3
100
AcDbLine
 10
-254.2944798517435
 20
-148.5490407809191
 30
0.0
 11
-255.7944798790759
 21
-145.9509645853461
 31
0.0
  0
LINE
  5
255
330
1F
100
AcDbEntity
  8
Graypants_Drum24
 62
    36
420
  8866048
370
    -3
100
AcDbLine
 10
-2.381249999999453
 20
-1298.00722408248
 30
0.0
 11
-2.381249999999681
 21
-1283.361328279858
 31
0.0
  0
ARC
  5
256
330
1F
100
AcDbEntity
  8
Graypants_Drum24
 62
    36
420
  8866048
370
    -3
100
AcDbCircle
 10
-0.0000000036735274
 20
-1283.361328256471
 30
0.0
 40
2.381249996326982
210
0.0
220
0.0
230
-1.0
100
AcDbArc
 50
148.2116698156717
 51
180.0000005627246
  0
LINE
  5
257
330
1F
100
AcDbEntity
  8
Graypants_Drum24
 62
    36
420
  8866048
370
    -3
100
AcDbLine
 10
2.381250000000364
 20
-1283.361328279858
 30
0.0
 11
2.381250000000591
 21
-1298.011845682787
 31
0.0
  0
LINE
  5
258
330
1F
100
AcDbEntity
  8
Graypants_Drum24
 62
    36
420
  8866048
370
    -3
100
AcDbLine
 10
-6.349999999999454
 20
-1296.523373377226
 30
0.0
 11
-2.381249999999437
 21
-1296.523373377226
 31
0.0
  0
LINE
  5
259
330
1F
100
AcDbEntity
  8
Graypants_Drum24
 62
    36
420
  8866048
370
    -3
100
AcDbLine
 10
2.381250000000327
 20
-1296.523373377226
 30
0.0
 11
6.350000000000364
 21
-1296.523373377226
 31
0.0
  0
LINE
  5
25A
330
1F
100
AcDbEntity
  8
Graypants_Drum24
 62
    36
420
  8866048
370
    -3
100
AcDbLine
 10
-246.9186213589228
 20
-1543.419179362478
 30
0.0
 11
-264.6867846340319
 21
-1543.419179362477
 31
0.0
  0
LINE
  5
25B
330
1F
100
AcDbEntity
  8
Graypants_Drum24
 62
    36
420
  8866048
370
    -3
100
AcDbLine
 10
-312.2879766184997
 20
-1539.411845682786
 30
0.0
 11
-156.1439868112845
 21
-1539.411845682786
 31
0.0
  0
LINE
  5
25C
330
1F
100
AcDbEntity
  8
Graypants_Drum24
 62
    36
420
  8866048
370
    -3
100
AcDbLine
 10
-156.1439868112845
 20
-1539.411845682786
 30
0.0
 11
312.2879766184994
 21
-1539.411845682786
 31
0.0
  0
LINE
  5
25D
330
1F
100
AcDbEntity
  8
Graypants_Drum24
 62
    36
420
  8866048
370
    -3
100
AcDbLine
 10
-2.381250000000431
 20
-1268.652367943966
 30
0.0
 11
-0.7937500000005002
 21
-1268.652367943966
 31
0.0
  0
LINE
  5
25E
330
1F
100
AcDbEntity
  8
Graypants_Drum24
 62
    36
420
  8866048
370
    -3
100
AcDbLine
 10
-2.381250000000431
 20
-1275.002367943966
 30
0.0
 11
-0.7937500000005002
 21
-1275.002367943966
 31
0.0
  0
LINE
  5
25F
330
1F
100
AcDbEntity
  8
Graypants_Drum24
 62
    36
420
  8866048
370
    -3
100
AcDbLine
 10
0.7937495763615061
 20
-1268.652367943966
 30
0.0
 11
2.381249999999995
 21
-1268.652367943966
 31
0.0
  0
LINE
  5
260
330
1F
100
AcDbEntity
  8
Graypants_Drum24
 62
    36
420
  8866048
370
    -3
100
AcDbLine
 10
0.7937495763615061
 20
-1275.002367943966
 30
0.0
 11
2.381249999999995
 21
-1275.002367943966
 31
0.0
  0
LINE
  5
261
330
1F
100
AcDbEntity
  8
Graypants_Drum24
 62
    36
420
  8866048
370
    -3
100
AcDbLine
 10
-0.7937500000005002
 20
-1268.652367943966
 30
0.0
 11
0.7937495763615061
 21
-1268.652367943966
 31
0.0
  0
LINE
  5
262
330
1F
100
AcDbEntity
  8
Graypants_Drum24
 62
    36
420
  8866048
370
    -3
100
AcDbLine
 10
-0.7937500000005002
 20
-1275.002367943966
 30
0.0
 11
0.7937495763615061
 21
-1275.002367943966
 31
0.0
  0
LINE
  5
263
330
1F
100
AcDbEntity
  8
Graypants_Drum24
 62
    36
420
  8866048
370
    -3
100
AcDbLine
 10
0.0002500000000509
 20
-584.0327075957794
 30
0.0
 11
0.0001201211193802
 21
-1268.652367943966
 31
0.0
  0
ARC
  5
264
330
1F
100
AcDbEntity
  8
Graypants_Drum24
 62
    36
420
  8866048
370
    -3
100
AcDbCircle
 10
13.49393773875938
 20
-1274.9985701143
 30
0.0
 40
13.49407204140263
210
0.0
220
0.0
230
-1.0
100
AcDbArc
 50
180.233178896183
 51
211.7882102512084
  0
ARC
  5
265
330
1F
100
AcDbEntity
  8
Graypants_Drum24
 62
    36
420
  8866048
370
    -3
100
AcDbCircle
 10
-13.49375008819252
 20
-1274.998653423322
 30
0.0
 40
11.90613117102645
100
AcDbArc
 50
328.2116708732163
 51
0.0000014902398945
  0
ARC
  5
266
330
1F
100
AcDbEntity
  8
Graypants_Drum24
 62
    36
420
  8866048
370
    -3
100
AcDbCircle
 10
0.0030279935099817
 20
-1283.362118122183
 30
0.0
 40
2.384121307826669
100
AcDbArc
 50
148.233868654505
 51
179.9054386694566
  0
ARC
  5
267
330
1F
100
AcDbEntity
  8
Graypants_Drum24
 62
    36
420
  8866048
370
    -3
100
AcDbCircle
 10
-13.49375008007136
 20
-1274.998653394764
 30
0.0
 40
13.4938683191235
210
0.0
220
0.0
230
-1.0
100
AcDbArc
 50
328.2116705766302
 51
0.000001193634307
  0
LINE
  5
268
330
1F
100
AcDbEntity
  8
Graypants_Drum24
 62
    36
420
  8866048
370
    -3
100
AcDbLine
 10
-55.5625
 20
-584.0327075957794
 30
0.0
 11
-0.0000000000004547
 21
-584.0327075957794
 31
0.0
  0
LINE
  5
269
330
1F
100
AcDbEntity
  8
Graypants_Drum24
 62
    36
420
  8866048
370
    -3
100
AcDbLine
 10
-0.0000000000004547
 20
-584.0327075957794
 30
0.0
 11
55.56250000000023
 21
-584.0327075957794
 31
0.0
  0
ARC
  5
26A
330
1F
100
AcDbEntity
  8
Graypants_Drum24
 62
    36
420
  8866048
370
    -3
100
AcDbCircle
 10
-0.0000000003130936
 20
-1283.361328286497
 30
0.0
 40
2.381250006665578
210
0.0
220
0.0
230
-1.0
100
AcDbArc
 50
32.33013013758726
 51
147.714467988882
  0
ARC
  5
26B
330
1F
100
AcDbEntity
  8
Graypants_Drum24
 62
    36
420
  8866048
370
    -3
100
AcDbCircle
 10
6.349999999999966
 20
-1298.110873377226
 30
0.0
 40
1.587499999999601
210
0.0
220
0.0
230
-1.0
100
AcDbArc
 50
3.650621825936053
 51
90.00000000001846
  0
ARC
  5
26C
330
1F
100
AcDbEntity
  8
Graypants_Drum24
 62
    36
420
  8866048
370
    -3
100
AcDbCircle
 10
6.350000000001046
 20
-1298.110873377226
 30
0.0
 40
1.587499999999582
100
AcDbArc
 50
3.576412672348767
 51
90.00000000002461
  0
LINE
  5
26D
330
1F
100
AcDbEntity
  8
Graypants_Drum24
 62
    36
420
  8866048
370
    -3
100
AcDbLine
 10
2.121515161162051
 20
-1282.279837388556
 30
0.0
 11
2.023961860723603
 21
-1282.10698937565
 31
0.0
  0
ARC
  5
26E
330
1F
100
AcDbEntity
  8
Graypants_Drum24
 62
    36
420
  8866048
370
    -3
100
AcDbCircle
 10
-0.0029403575568473
 20
-1283.360489381353
 30
0.0
 40
3.970926771718646
210
0.0
220
0.0
230
-1.0
100
AcDbArc
 50
306.8993795086567
 51
31.75569272593099
  0
ARC
  5
26F
330
1F
100
AcDbEntity
  8
Graypants_Drum24
 62
    36
420
  8866048
370
    -3
100
AcDbCircle
 10
-4.763251583116471
 20
-1296.528690979597
 30
0.0
 40
7.688817639104724
210
0.0
220
0.0
230
-1.0
100
AcDbArc
 50
71.98493251019443
 51
89.99439932866467
  0
ARC
  5
270
330
1F
100
AcDbEntity
  8
Graypants_Drum24
 62
    36
420
  8866048
370
    -3
100
AcDbCircle
 10
-0.6537505225315136
 20
-1283.464767899987
 30
0.0
 40
3.036762737978663
210
0.0
220
0.0
230
-1.0
100
AcDbArc
 50
1.952012997439852
 51
15.90390623589813
  0
ARC
  5
271
330
1F
100
AcDbEntity
  8
Graypants_Drum24
 62
    36
420
  8866048
370
    -3
100
AcDbCircle
 10
6.350000000028455
 20
-1298.110873377224
 30
0.0
 40
1.58749999997109
210
0.0
220
0.0
230
-1.0
100
AcDbArc
 50
359.9999999999343
 51
3.650621825952368
  0
ARC
  5
272
330
1F
100
AcDbEntity
  8
Graypants_Drum24
 62
    36
420
  8866048
370
    -3
100
AcDbCircle
 10
6.349999999941782
 20
-1298.110873377225
 30
0.0
 40
1.587500000058673
100
AcDbArc
 50
359.9999999999426
 51
3.576412672182582
  0
ARC
  5
273
330
1F
100
AcDbEntity
  8
Graypants_Drum24
 62
    36
420
  8866048
370
    -3
100
AcDbCircle
 10
-180.8403111693811
 20
-1568.762056174554
 30
0.0
 40
69.23649269592681
100
AcDbArc
 50
154.9181562494815
 51
157.0261528646795
  0
LINE
  5
274
330
1F
100
AcDbEntity
  8
Graypants_Drum24
 62
    36
420
  8866048
370
    -3
100
AcDbLine
 10
-264.6867846340319
 20
-1543.419179362477
 30
0.0
 11
-266.1867846613645
 21
-1543.419179362477
 31
0.0
  0
POLYLINE
  5
275
330
1F
100
AcDbEntity
  8
Graypants_Drum24
 62
    36
420
  8866048
370
    -3
100
AcDb2dPolyline
 66
     1
 10
0.0
 20
0.0
 30
0.0
  0
VERTEX
  5
276
330
275
100
AcDbEntity
  8
Graypants_Drum24
 62
    36
420
  8866048
370
    -3
100
AcDbVertex
100
AcDb2dVertex
 10
-244.5851804642843
 20
-1541.738297009537
 30
0.0
  0
VERTEX
  5
277
330
275
100
AcDbEntity
  8
Graypants_Drum24
 62
    36
420
  8866048
370
    -3
100
AcDbVertex
100
AcDb2dVertex
 10
-244.6244293103804
 20
-1541.82710113136
 30
0.0
  0
VERTEX
  5
278
330
275
100
AcDbEntity
  8
Graypants_Drum24
 62
    36
420
  8866048
370
    -3
100
AcDbVertex
100
AcDb2dVertex
 10
-244.6665994649673
 20
-1541.915128259795
 30
0.0
  0
VERTEX
  5
279
330
275
100
AcDbEntity
  8
Graypants_Drum24
 62
    36
420
  8866048
370
    -3
100
AcDbVertex
100
AcDb2dVertex
 10
-244.711691272266
 20
-1542.00219738025
 30
0.0
  0
VERTEX
  5
27A
330
275
100
AcDbEntity
  8
Graypants_Drum24
 62
    36
420
  8866048
370
    -3
100
AcDbVertex
100
AcDb2dVertex
 10
-244.7596943542739
 20
-1542.088124790776
 30
0.0
  0
VERTEX
  5
27B
330
275
100
AcDbEntity
  8
Graypants_Drum24
 62
    36
420
  8866048
370
    -3
100
AcDbVertex
100
AcDb2dVertex
 10
-244.810587228449
 20
-1542.172725123035
 30
0.0
  0
VERTEX
  5
27C
330
275
100
AcDbEntity
  8
Graypants_Drum24
 62
    36
420
  8866048
370
    -3
100
AcDbVertex
100
AcDb2dVertex
 10
-244.8643370102714
 20
-1542.255812428216
 30
0.0
  0
VERTEX
  5
27D
330
275
100
AcDbEntity
  8
Graypants_Drum24
 62
    36
420
  8866048
370
    -3
100
AcDbVertex
100
AcDb2dVertex
 10
-244.9208992092185
 20
-1542.337201317202
 30
0.0
  0
VERTEX
  5
27E
330
275
100
AcDbEntity
  8
Graypants_Drum24
 62
    36
420
  8866048
370
    -3
100
AcDbVertex
100
AcDb2dVertex
 10
-244.9802176255654
 20
-1542.4167081427
 30
0.0
  0
VERTEX
  5
27F
330
275
100
AcDbEntity
  8
Graypants_Drum24
 62
    36
420
  8866048
370
    -3
100
AcDbVertex
100
AcDb2dVertex
 10
-245.0422243540492
 20
-1542.494152209636
 30
0.0
  0
VERTEX
  5
280
330
275
100
AcDbEntity
  8
Graypants_Drum24
 62
    36
420
  8866048
370
    -3
100
AcDbVertex
100
AcDb2dVertex
 10
-245.0742114401788
 20
-1542.532045349809
 30
0.0
  0
VERTEX
  5
281
330
275
100
AcDbEntity
  8
Graypants_Drum24
 62
    36
420
  8866048
370
    -3
100
AcDbVertex
100
AcDb2dVertex
 10
-245.1068398988486
 20
-1542.569356998878
 30
0.0
  0
VERTEX
  5
282
330
275
100
AcDbEntity
  8
Graypants_Drum24
 62
    36
420
  8866048
370
    -3
100
AcDbVertex
100
AcDb2dVertex
 10
-245.140098019622
 20
-1542.606065944856
 30
0.0
  0
VERTEX
  5
283
330
275
100
AcDbEntity
  8
Graypants_Drum24
 62
    36
420
  8866048
370
    -3
100
AcDbVertex
100
AcDb2dVertex
 10
-245.1739734025557
 20
-1542.642151388504
 30
0.0
  0
VERTEX
  5
284
330
275
100
AcDbEntity
  8
Graypants_Drum24
 62
    36
420
  8866048
370
    -3
100
AcDbVertex
100
AcDb2dVertex
 10
-245.2084529716219
 20
-1542.677592980204
 30
0.0
  0
VERTEX
  5
285
330
275
100
AcDbEntity
  8
Graypants_Drum24
 62
    36
420
  8866048
370
    -3
100
AcDbVertex
100
AcDb2dVertex
 10
-245.2435229898859
 20
-1542.712370856143
 30
0.0
  0
VERTEX
  5
286
330
275
100
AcDbEntity
  8
Graypants_Drum24
 62
    36
420
  8866048
370
    -3
100
AcDbVertex
100
AcDb2dVertex
 10
-245.2791690764116
 20
-1542.746465673676
 30
0.0
  0
VERTEX
  5
287
330
275
100
AcDbEntity
  8
Graypants_Drum24
 62
    36
420
  8866048
370
    -3
100
AcDbVertex
100
AcDb2dVertex
 10
-245.3153762248542
 20
-1542.779858645752
 30
0.0
  0
VERTEX
  5
288
330
275
100
AcDbEntity
  8
Graypants_Drum24
 62
    36
420
  8866048
370
    -3
100
AcDbVertex
100
AcDb2dVertex
 10
-245.3521288236956
 20
-1542.81253157427
 30
0.0
  0
VERTEX
  5
289
330
275
100
AcDbEntity
  8
Graypants_Drum24
 62
    36
420
  8866048
370
    -3
100
AcDbVertex
100
AcDb2dVertex
 10
-245.3894106780671
 20
-1542.844466882244
 30
0.0
  0
VERTEX
  5
28A
330
275
100
AcDbEntity
  8
Graypants_Drum24
 62
    36
420
  8866048
370
    -3
100
AcDbVertex
100
AcDb2dVertex
 10
-245.4272050330986
 20
-1542.875647644666
 30
0.0
  0
VERTEX
  5
28B
330
275
100
AcDbEntity
  8
Graypants_Drum24
 62
    36
420
  8866048
370
    -3
100
AcDbVertex
100
AcDb2dVertex
 10
-245.4654945987243
 20
-1542.906057617947
 30
0.0
  0
VERTEX
  5
28C
330
275
100
AcDbEntity
  8
Graypants_Drum24
 62
    36
420
  8866048
370
    -3
100
AcDbVertex
100
AcDb2dVertex
 10
-245.5042615758692
 20
-1542.935681267843
 30
0.0
  0
VERTEX
  5
28D
330
275
100
AcDbEntity
  8
Graypants_Drum24
 62
    36
420
  8866048
370
    -3
100
AcDbVertex
100
AcDb2dVertex
 10
-245.5434876839342
 20
-1542.964503795745
 30
0.0
  0
VERTEX
  5
28E
330
275
100
AcDbEntity
  8
Graypants_Drum24
 62
    36
420
  8866048
370
    -3
100
AcDbVertex
100
AcDb2dVertex
 10
-245.5831541894902
 20
-1542.992511163264
 30
0.0
  0
VERTEX
  5
28F
330
275
100
AcDbEntity
  8
Graypants_Drum24
 62
    36
420
  8866048
370
    -3
100
AcDbVertex
100
AcDb2dVertex
 10
-245.6232419360871
 20
-1543.019690115006
 30
0.0
  0
VERTEX
  5
290
330
275
100
AcDbEntity
  8
Graypants_Drum24
 62
    36
420
  8866048
370
    -3
100
AcDbVertex
100
AcDb2dVertex
 10
-245.663731375079
 20
-1543.046028199474
 30
0.0
  0
VERTEX
  5
291
330
275
100
AcDbEntity
  8
Graypants_Drum24
 62
    36
420
  8866048
370
    -3
100
AcDbVertex
100
AcDb2dVertex
 10
-245.7046025973595
 20
-1543.071513788016
 30
0.0
  0
VERTEX
  5
292
330
275
100
AcDbEntity
  8
Graypants_Drum24
 62
    36
420
  8866048
370
    -3
100
AcDbVertex
100
AcDb2dVertex
 10
-245.7458353659012
 20
-1543.096136091767
 30
0.0
  0
VERTEX
  5
293
330
275
100
AcDbEntity
  8
Graypants_Drum24
 62
    36
420
  8866048
370
    -3
100
AcDbVertex
100
AcDb2dVertex
 10
-245.7874091489871
 20
-1543.119885176532
 30
0.0
  0
VERTEX
  5
294
330
275
100
AcDbEntity
  8
Graypants_Drum24
 62
    36
420
  8866048
370
    -3
100
AcDbVertex
100
AcDb2dVertex
 10
-245.8293031540192
 20
-1543.142751975561
 30
0.0
  0
VERTEX
  5
295
330
275
100
AcDbEntity
  8
Graypants_Drum24
 62
    36
420
  8866048
370
    -3
100
AcDbVertex
100
AcDb2dVertex
 10
-245.8714963617898
 20
-1543.164728300198
 30
0.0
  0
VERTEX
  5
296
330
275
100
AcDbEntity
  8
Graypants_Drum24
 62
    36
420
  8866048
370
    -3
100
AcDbVertex
100
AcDb2dVertex
 10
-245.9139675610964
 20
-1543.185806848366
 30
0.0
  0
VERTEX
  5
297
330
275
100
AcDbEntity
  8
Graypants_Drum24
 62
    36
420
  8866048
370
    -3
100
AcDbVertex
100
AcDb2dVertex
 10
-245.9566953835843
 20
-1543.205981210889
 30
0.0
  0
VERTEX
  5
298
330
275
100
AcDbEntity
  8
Graypants_Drum24
 62
    36
420
  8866048
370
    -3
100
AcDbVertex
100
AcDb2dVertex
 10
-245.9996583386969
 20
-1543.225245875636
 30
0.0
  0
VERTEX
  5
299
330
275
100
AcDbEntity
  8
Graypants_Drum24
 62
    36
420
  8866048
370
    -3
100
AcDbVertex
100
AcDb2dVertex
 10
-246.042834848618
 20
-1543.243596229503
 30
0.0
  0
VERTEX
  5
29A
330
275
100
AcDbEntity
  8
Graypants_Drum24
 62
    36
420
  8866048
370
    -3
100
AcDbVertex
100
AcDb2dVertex
 10
-246.0862032830888
 20
-1543.261028558244
 30
0.0
  0
VERTEX
  5
29B
330
275
100
AcDbEntity
  8
Graypants_Drum24
 62
    36
420
  8866048
370
    -3
100
AcDbVertex
100
AcDb2dVertex
 10
-246.129741993988
 20
-1543.277540044179
 30
0.0
  0
VERTEX
  5
29C
330
275
100
AcDbEntity
  8
Graypants_Drum24
 62
    36
420
  8866048
370
    -3
100
AcDbVertex
100
AcDb2dVertex
 10
-246.173429349561
 20
-1543.293128761809
 30
0.0
  0
VERTEX
  5
29D
330
275
100
AcDbEntity
  8
Graypants_Drum24
 62
    36
420
  8866048
370
    -3
100
AcDbVertex
100
AcDb2dVertex
 10
-246.2172437681923
 20
-1543.307793671391
 30
0.0
  0
VERTEX
  5
29E
330
275
100
AcDbEntity
  8
Graypants_Drum24
 62
    36
420
  8866048
370
    -3
100
AcDbVertex
100
AcDb2dVertex
 10
-246.2611637516164
 20
-1543.321534610512
 30
0.0
  0
VERTEX
  5
29F
330
275
100
AcDbEntity
  8
Graypants_Drum24
 62
    36
420
  8866048
370
    -3
100
AcDbVertex
100
AcDb2dVertex
 10
-246.3051679174661
 20
-1543.334352283729
 30
0.0
  0
VERTEX
  5
2A0
330
275
100
AcDbEntity
  8
Graypants_Drum24
 62
    36
420
  8866048
370
    -3
100
AcDbVertex
100
AcDb2dVertex
 10
-246.3492350310647
 20
-1543.346248250338
 30
0.0
  0
VERTEX
  5
2A1
330
275
100
AcDbEntity
  8
Graypants_Drum24
 62
    36
420
  8866048
370
    -3
100
AcDbVertex
100
AcDb2dVertex
 10
-246.3933440363711
 20
-1543.357224910357
 30
0.0
  0
VERTEX
  5
2A2
330
275
100
AcDbEntity
  8
Graypants_Drum24
 62
    36
420
  8866048
370
    -3
100
AcDbVertex
100
AcDb2dVertex
 10
-246.4374740859932
 20
-1543.367285488776
 30
0.0
  0
VERTEX
  5
2A3
330
275
100
AcDbEntity
  8
Graypants_Drum24
 62
    36
420
  8866048
370
    -3
100
AcDbVertex
100
AcDb2dVertex
 10
-246.4816045701916
 20
-1543.376434018189
 30
0.0
  0
VERTEX
  5
2A4
330
275
100
AcDbEntity
  8
Graypants_Drum24
 62
    36
420
  8866048
370
    -3
100
AcDbVertex
100
AcDb2dVertex
 10
-246.5257151448004
 20
-1543.384675319881
 30
0.0
  0
VERTEX
  5
2A5
330
275
100
AcDbEntity
  8
Graypants_Drum24
 62
    36
420
  8866048
370
    -3
100
AcDbVertex
100
AcDb2dVertex
 10
-246.5697857580005
 20
-1543.392014983463
 30
0.0
  0
VERTEX
  5
2A6
330
275
100
AcDbEntity
  8
Graypants_Drum24
 62
    36
420
  8866048
370
    -3
100
AcDbVertex
100
AcDb2dVertex
 10
-246.6137966758845
 20
-1543.398459345176
 30
0.0
  0
VERTEX
  5
2A7
330
275
100
AcDbEntity
  8
Graypants_Drum24
 62
    36
420
  8866048
370
    -3
100
AcDbVertex
100
AcDb2dVertex
 10
-246.6577285067609
 20
-1543.404015464927
 30
0.0
  0
VERTEX
  5
2A8
330
275
100
AcDbEntity
  8
Graypants_Drum24
 62
    36
420
  8866048
370
    -3
100
AcDbVertex
100
AcDb2dVertex
 10
-246.7015622241534
 20
-1543.408691102197
 30
0.0
  0
VERTEX
  5
2A9
330
275
100
AcDbEntity
  8
Graypants_Drum24
 62
    36
420
  8866048
370
    -3
100
AcDbVertex
100
AcDb2dVertex
 10
-246.745279188453
 20
-1543.41249469091
 30
0.0
  0
VERTEX
  5
2AA
330
275
100
AcDbEntity
  8
Graypants_Drum24
 62
    36
420
  8866048
370
    -3
100
AcDbVertex
100
AcDb2dVertex
 10
-246.7888611671941
 20
-1543.415435313369
 30
0.0
  0
VERTEX
  5
2AB
330
275
100
AcDbEntity
  8
Graypants_Drum24
 62
    36
420
  8866048
370
    -3
100
AcDbVertex
100
AcDb2dVertex
 10
-246.8322903539272
 20
-1543.417522673371
 30
0.0
  0
VERTEX
  5
2AC
330
275
100
AcDbEntity
  8
Graypants_Drum24
 62
    36
420
  8866048
370
    -3
100
AcDbVertex
100
AcDb2dVertex
 10
-246.8755493856697
 20
-1543.418767068613
 30
0.0
  0
VERTEX
  5
2AD
330
275
100
AcDbEntity
  8
Graypants_Drum24
 62
    36
420
  8866048
370
    -3
100
AcDbVertex
100
AcDb2dVertex
 10
-246.9186213589228
 20
-1543.419179362478
 30
0.0
  0
SEQEND
  5
2AE
330
275
100
AcDbEntity
  8
Graypants_Drum24
 62
    36
420
  8866048
370
    -3
  0
LINE
  5
2AF
330
1F
100
AcDbEntity
  8
Graypants_Drum24
 62
    36
420
  8866048
370
    -3
100
AcDbLine
 10
-267.9188354584132
 20
-1541.419179362478
 30
0.0
 11
-267.9188354584132
 21
-1539.408294579995
 31
0.0
  0
LINE
  5
2B0
330
1F
100
AcDbEntity
  8
Graypants_Drum24
 62
    36
420
  8866048
370
    -3
100
AcDbLine
 10
-266.4188354310809
 20
-1541.419179362478
 30
0.0
 11
-266.4188354310809
 21
-1539.411845682786
 31
0.0
  0
POLYLINE
  5
2B1
330
1F
100
AcDbEntity
  8
Graypants_Drum24
 62
    36
420
  8866048
370
    -3
100
AcDb2dPolyline
 66
     1
 10
0.0
 20
0.0
 30
0.0
  0
VERTEX
  5
2B2
330
2B1
100
AcDbEntity
  8
Graypants_Drum24
 62
    36
420
  8866048
370
    -3
100
AcDbVertex
100
AcDb2dVertex
 10
-266.1867846613645
 20
-1543.419179362477
 30
0.0
  0
VERTEX
  5
2B3
330
2B1
100
AcDbEntity
  8
Graypants_Drum24
 62
    36
420
  8866048
370
    -3
100
AcDbVertex
100
AcDb2dVertex
 10
-266.2252291634481
 20
-1543.418686641864
 30
0.0
  0
VERTEX
  5
2B4
330
2B1
100
AcDbEntity
  8
Graypants_Drum24
 62
    36
420
  8866048
370
    -3
100
AcDbVertex
100
AcDb2dVertex
 10
-266.2639999087748
 20
-1543.417190975888
 30
0.0
  0
VERTEX
  5
2B5
330
2B1
100
AcDbEntity
  8
Graypants_Drum24
 62
    36
420
  8866048
370
    -3
100
AcDbVertex
100
AcDb2dVertex
 10
-266.3030715024115
 20
-1543.414666728322
 30
0.0
  0
VERTEX
  5
2B6
330
2B1
100
AcDbEntity
  8
Graypants_Drum24
 62
    36
420
  8866048
370
    -3
100
AcDbVertex
100
AcDb2dVertex
 10
-266.3424171121436
 20
-1543.411089179702
 30
0.0
  0
VERTEX
  5
2B7
330
2B1
100
AcDbEntity
  8
Graypants_Drum24
 62
    36
420
  8866048
370
    -3
100
AcDbVertex
100
AcDb2dVertex
 10
-266.3820084852964
 20
-1543.406434641534
 30
0.0
  0
VERTEX
  5
2B8
330
2B1
100
AcDbEntity
  8
Graypants_Drum24
 62
    36
420
  8866048
370
    -3
100
AcDbVertex
100
AcDb2dVertex
 10
-266.4218159728476
 20
-1543.400680571813
 30
0.0
  0
VERTEX
  5
2B9
330
2B1
100
AcDbEntity
  8
Graypants_Drum24
 62
    36
420
  8866048
370
    -3
100
AcDbVertex
100
AcDb2dVertex
 10
-266.4618085611253
 20
-1543.393805691225
 30
0.0
  0
VERTEX
  5
2BA
330
2B1
100
AcDbEntity
  8
Graypants_Drum24
 62
    36
420
  8866048
370
    -3
100
AcDbVertex
100
AcDb2dVertex
 10
-266.5019539113284
 20
-1543.38579009931
 30
0.0
  0
VERTEX
  5
2BB
330
2B1
100
AcDbEntity
  8
Graypants_Drum24
 62
    36
420
  8866048
370
    -3
100
AcDbVertex
100
AcDb2dVertex
 10
-266.5422184070649
 20
-1543.376615389829
 30
0.0
  0
VERTEX
  5
2BC
330
2B1
100
AcDbEntity
  8
Graypants_Drum24
 62
    36
420
  8866048
370
    -3
100
AcDbVertex
100
AcDb2dVertex
 10
-266.5825672100403
 20
-1543.366264764563
 30
0.0
  0
VERTEX
  5
2BD
330
2B1
100
AcDbEntity
  8
Graypants_Drum24
 62
    36
420
  8866048
370
    -3
100
AcDbVertex
100
AcDb2dVertex
 10
-266.6229643239677
 20
-1543.354723144681
 30
0.0
  0
VERTEX
  5
2BE
330
2B1
100
AcDbEntity
  8
Graypants_Drum24
 62
    36
420
  8866048
370
    -3
100
AcDbVertex
100
AcDb2dVertex
 10
-266.6633726667019
 20
-1543.341977278851
 30
0.0
  0
VERTEX
  5
2BF
330
2B1
100
AcDbEntity
  8
Graypants_Drum24
 62
    36
420
  8866048
370
    -3
100
AcDbVertex
100
AcDb2dVertex
 10
-266.7037541505312
 20
-1543.328015847189
 30
0.0
  0
VERTEX
  5
2C0
330
2B1
100
AcDbEntity
  8
Graypants_Drum24
 62
    36
420
  8866048
370
    -3
100
AcDbVertex
100
AcDb2dVertex
 10
-266.7440697704762
 20
-1543.31282956016
 30
0.0
  0
VERTEX
  5
2C1
330
2B1
100
AcDbEntity
  8
Graypants_Drum24
 62
    36
420
  8866048
370
    -3
100
AcDbVertex
100
AcDb2dVertex
 10
-266.7842797003763
 20
-1543.296411251552
 30
0.0
  0
VERTEX
  5
2C2
330
2B1
100
AcDbEntity
  8
Graypants_Drum24
 62
    36
420
  8866048
370
    -3
100
AcDbVertex
100
AcDb2dVertex
 10
-266.8243433964506
 20
-1543.278755964602
 30
0.0
  0
VERTEX
  5
2C3
330
2B1
100
AcDbEntity
  8
Graypants_Drum24
 62
    36
420
  8866048
370
    -3
100
AcDbVertex
100
AcDb2dVertex
 10
-266.8642197079492
 20
-1543.259861030441
 30
0.0
  0
VERTEX
  5
2C4
330
2B1
100
AcDbEntity
  8
Graypants_Drum24
 62
    36
420
  8866048
370
    -3
100
AcDbVertex
100
AcDb2dVertex
 10
-266.9038669944192
 20
-1543.239726137991
 30
0.0
  0
VERTEX
  5
2C5
330
2B1
100
AcDbEntity
  8
Graypants_Drum24
 62
    36
420
  8866048
370
    -3
100
AcDbVertex
100
AcDb2dVertex
 10
-266.9432432490331
 20
-1543.218353394523
 30
0.0
  0
VERTEX
  5
2C6
330
2B1
100
AcDbEntity
  8
Graypants_Drum24
 62
    36
420
  8866048
370
    -3
100
AcDbVertex
100
AcDb2dVertex
 10
-266.9823062273474
 20
-1543.195747376137
 30
0.0
  0
VERTEX
  5
2C7
330
2B1
100
AcDbEntity
  8
Graypants_Drum24
 62
    36
420
  8866048
370
    -3
100
AcDbVertex
100
AcDb2dVertex
 10
-267.0210135807841
 20
-1543.17191516746
 30
0.0
  0
VERTEX
  5
2C8
330
2B1
100
AcDbEntity
  8
Graypants_Drum24
 62
    36
420
  8866048
370
    -3
100
AcDbVertex
100
AcDb2dVertex
 10
-267.0593229940589
 20
-1543.146866389972
 30
0.0
  0
VERTEX
  5
2C9
330
2B1
100
AcDbEntity
  8
Graypants_Drum24
 62
    36
420
  8866048
370
    -3
100
AcDbVertex
100
AcDb2dVertex
 10
-267.0971923257151
 20
-1543.120613218425
 30
0.0
  0
VERTEX
  5
2CA
330
2B1
100
AcDbEntity
  8
Graypants_Drum24
 62
    36
420
  8866048
370
    -3
100
AcDbVertex
100
AcDb2dVertex
 10
-267.134579750868
 20
-1543.093170384914
 30
0.0
  0
VERTEX
  5
2CB
330
2B1
100
AcDbEntity
  8
Graypants_Drum24
 62
    36
420
  8866048
370
    -3
100
AcDbVertex
100
AcDb2dVertex
 10
-267.1714439052192
 20
-1543.064555170294
 30
0.0
  0
VERTEX
  5
2CC
330
2B1
100
AcDbEntity
  8
Graypants_Drum24
 62
    36
420
  8866048
370
    -3
100
AcDbVertex
100
AcDb2dVertex
 10
-267.2077440293577
 20
-1543.034787382695
 30
0.0
  0
VERTEX
  5
2CD
330
2B1
100
AcDbEntity
  8
Graypants_Drum24
 62
    36
420
  8866048
370
    -3
100
AcDbVertex
100
AcDb2dVertex
 10
-267.2434401123468
 20
-1543.003889323047
 30
0.0
  0
VERTEX
  5
2CE
330
2B1
100
AcDbEntity
  8
Graypants_Drum24
 62
    36
420
  8866048
370
    -3
100
AcDbVertex
100
AcDb2dVertex
 10
-267.2784930335726
 20
-1542.971885737627
 30
0.0
  0
VERTEX
  5
2CF
330
2B1
100
AcDbEntity
  8
Graypants_Drum24
 62
    36
420
  8866048
370
    -3
100
AcDbVertex
100
AcDb2dVertex
 10
-267.3128647018337
 20
-1542.93880375776
 30
0.0
  0
VERTEX
  5
2D0
330
2B1
100
AcDbEntity
  8
Graypants_Drum24
 62
    36
420
  8866048
370
    -3
100
AcDbVertex
100
AcDb2dVertex
 10
-267.3465181906571
 20
-1542.904672826929
 30
0.0
  0
VERTEX
  5
2D1
330
2B1
100
AcDbEntity
  8
Graypants_Drum24
 62
    36
420
  8866048
370
    -3
100
AcDbVertex
100
AcDb2dVertex
 10
-267.379417868848
 20
-1542.869524615686
 30
0.0
  0
VERTEX
  5
2D2
330
2B1
100
AcDbEntity
  8
Graypants_Drum24
 62
    36
420
  8866048
370
    -3
100
AcDbVertex
100
AcDb2dVertex
 10
-267.4115295253172
 20
-1542.833392924851
 30
0.0
  0
VERTEX
  5
2D3
330
2B1
100
AcDbEntity
  8
Graypants_Drum24
 62
    36
420
  8866048
370
    -3
100
AcDbVertex
100
AcDb2dVertex
 10
-267.4428204872726
 20
-1542.796313577612
 30
0.0
  0
VERTEX
  5
2D4
330
2B1
100
AcDbEntity
  8
Graypants_Drum24
 62
    36
420
  8866048
370
    -3
100
AcDbVertex
100
AcDb2dVertex
 10
-267.4732597309214
 20
-1542.758324301262
 30
0.0
  0
VERTEX
  5
2D5
330
2B1
100
AcDbEntity
  8
Graypants_Drum24
 62
    36
420
  8866048
370
    -3
100
AcDbVertex
100
AcDb2dVertex
 10
-267.5028179838963
 20
-1542.719464599364
 30
0.0
  0
VERTEX
  5
2D6
330
2B1
100
AcDbEntity
  8
Graypants_Drum24
 62
    36
420
  8866048
370
    -3
100
AcDbVertex
100
AcDb2dVertex
 10
-267.5314678186949
 20
-1542.679775615276
 30
0.0
  0
VERTEX
  5
2D7
330
2B1
100
AcDbEntity
  8
Graypants_Drum24
 62
    36
420
  8866048
370
    -3
100
AcDbVertex
100
AcDb2dVertex
 10
-267.5591837365123
 20
-1542.639299988019
 30
0.0
  0
VERTEX
  5
2D8
330
2B1
100
AcDbEntity
  8
Graypants_Drum24
 62
    36
420
  8866048
370
    -3
100
AcDbVertex
100
AcDb2dVertex
 10
-267.585942240933
 20
-1542.598081701523
 30
0.0
  0
VERTEX
  5
2D9
330
2B1
100
AcDbEntity
  8
Graypants_Drum24
 62
    36
420
  8866048
370
    -3
100
AcDbVertex
100
AcDb2dVertex
 10
-267.6117219010521
 20
-1542.556165928382
 30
0.0
  0
VERTEX
  5
2DA
330
2B1
100
AcDbEntity
  8
Graypants_Drum24
 62
    36
420
  8866048
370
    -3
100
AcDbVertex
100
AcDb2dVertex
 10
-267.6365034036969
 20
-1542.513598869248
 30
0.0
  0
VERTEX
  5
2DB
330
2B1
100
AcDbEntity
  8
Graypants_Drum24
 62
    36
420
  8866048
370
    -3
100
AcDbVertex
100
AcDb2dVertex
 10
-267.6602695945243
 20
-1542.470427589033
 30
0.0
  0
VERTEX
  5
2DC
330
2B1
100
AcDbEntity
  8
Graypants_Drum24
 62
    36
420
  8866048
370
    -3
100
AcDbVertex
100
AcDb2dVertex
 10
-267.6830055078761
 20
-1542.426699851116
 30
0.0
  0
VERTEX
  5
2DD
330
2B1
100
AcDbEntity
  8
Graypants_Drum24
 62
    36
420
  8866048
370
    -3
100
AcDbVertex
100
AcDb2dVertex
 10
-267.7046983853822
 20
-1542.382463950714
 30
0.0
  0
VERTEX
  5
2DE
330
2B1
100
AcDbEntity
  8
Graypants_Drum24
 62
    36
420
  8866048
370
    -3
100
AcDbVertex
100
AcDb2dVertex
 10
-267.7253376833996
 20
-1542.33776854859
 30
0.0
  0
VERTEX
  5
2DF
330
2B1
100
AcDbEntity
  8
Graypants_Drum24
 62
    36
420
  8866048
370
    -3
100
AcDbVertex
100
AcDb2dVertex
 10
-267.7449150694817
 20
-1542.292662506225
 30
0.0
  0
VERTEX
  5
2E0
330
2B1
100
AcDbEntity
  8
Graypants_Drum24
 62
    36
420
  8866048
370
    -3
100
AcDbVertex
100
AcDb2dVertex
 10
-267.7634244081609
 20
-1542.247194723548
 30
0.0
  0
VERTEX
  5
2E1
330
2B1
100
AcDbEntity
  8
Graypants_Drum24
 62
    36
420
  8866048
370
    -3
100
AcDbVertex
100
AcDb2dVertex
 10
-267.7808617364195
 20
-1542.201413980237
 30
0.0
  0
VERTEX
  5
2E2
330
2B1
100
AcDbEntity
  8
Graypants_Drum24
 62
    36
420
  8866048
370
    -3
100
AcDbVertex
100
AcDb2dVertex
 10
-267.7972252293063
 20
-1542.155368781602
 30
0.0
  0
VERTEX
  5
2E3
330
2B1
100
AcDbEntity
  8
Graypants_Drum24
 62
    36
420
  8866048
370
    -3
100
AcDbVertex
100
AcDb2dVertex
 10
-267.8125151562232
 20
-1542.109107209894
 30
0.0
  0
VERTEX
  5
2E4
330
2B1
100
AcDbEntity
  8
Graypants_Drum24
 62
    36
420
  8866048
370
    -3
100
AcDbVertex
100
AcDb2dVertex
 10
-267.826733828479
 20
-1542.062676781908
 30
0.0
  0
VERTEX
  5
2E5
330
2B1
100
AcDbEntity
  8
Graypants_Drum24
 62
    36
420
  8866048
370
    -3
100
AcDbVertex
100
AcDb2dVertex
 10
-267.8398855387546
 20
-1542.01612431357
 30
0.0
  0
VERTEX
  5
2E6
330
2B1
100
AcDbEntity
  8
Graypants_Drum24
 62
    36
420
  8866048
370
    -3
100
AcDbVertex
100
AcDb2dVertex
 10
-267.8519764931742
 20
-1541.969495792168
 30
0.0
  0
VERTEX
  5
2E7
330
2B1
100
AcDbEntity
  8
Graypants_Drum24
 62
    36
420
  8866048
370
    -3
100
AcDbVertex
100
AcDb2dVertex
 10
-267.8630147367088
 20
-1541.922836256775
 30
0.0
  0
VERTEX
  5
2E8
330
2B1
100
AcDbEntity
  8
Graypants_Drum24
 62
    36
420
  8866048
370
    -3
100
AcDbVertex
100
AcDb2dVertex
 10
-267.8730100726666
 20
-1541.876189687291
 30
0.0
  0
VERTEX
  5
2E9
330
2B1
100
AcDbEntity
  8
Graypants_Drum24
 62
    36
420
  8866048
370
    -3
100
AcDbVertex
100
AcDb2dVertex
 10
-267.8819739770383
 20
-1541.829598902489
 30
0.0
  0
VERTEX
  5
2EA
330
2B1
100
AcDbEntity
  8
Graypants_Drum24
 62
    36
420
  8866048
370
    -3
100
AcDbVertex
100
AcDb2dVertex
 10
-267.8899195084727
 20
-1541.783105467302
 30
0.0
  0
VERTEX
  5
2EB
330
2B1
100
AcDbEntity
  8
Graypants_Drum24
 62
    36
420
  8866048
370
    -3
100
AcDbVertex
100
AcDb2dVertex
 10
-267.896861214656
 20
-1541.736749609527
 30
0.0
  0
VERTEX
  5
2EC
330
2B1
100
AcDbEntity
  8
Graypants_Drum24
 62
    36
420
  8866048
370
    -3
100
AcDbVertex
100
AcDb2dVertex
 10
-267.9028150358566
 20
-1541.690570146032
 30
0.0
  0
VERTEX
  5
2ED
330
2B1
100
AcDbEntity
  8
Graypants_Drum24
 62
    36
420
  8866048
370
    -3
100
AcDbVertex
100
AcDb2dVertex
 10
-267.9077982063799
 20
-1541.644604418445
 30
0.0
  0
VERTEX
  5
2EE
330
2B1
100
AcDbEntity
  8
Graypants_Drum24
 62
    36
420
  8866048
370
    -3
100
AcDbVertex
100
AcDb2dVertex
 10
-267.911829154652
 20
-1541.598888238273
 30
0.0
  0
VERTEX
  5
2EF
330
2B1
100
AcDbEntity
  8
Graypants_Drum24
 62
    36
420
  8866048
370
    -3
100
AcDbVertex
100
AcDb2dVertex
 10
-267.9149274026207
 20
-1541.553455841257
 30
0.0
  0
VERTEX
  5
2F0
330
2B1
100
AcDbEntity
  8
Graypants_Drum24
 62
    36
420
  8866048
370
    -3
100
AcDbVertex
100
AcDb2dVertex
 10
-267.9171134651253
 20
-1541.508339850775
 30
0.0
  0
VERTEX
  5
2F1
330
2B1
100
AcDbEntity
  8
Graypants_Drum24
 62
    36
420
  8866048
370
    -3
100
AcDbVertex
100
AcDb2dVertex
 10
-267.9184087498481
 20
-1541.463571250001
 30
0.0
  0
VERTEX
  5
2F2
330
2B1
100
AcDbEntity
  8
Graypants_Drum24
 62
    36
420
  8866048
370
    -3
100
AcDbVertex
100
AcDb2dVertex
 10
-267.9188354584132
 20
-1541.419179362478
 30
0.0
  0
SEQEND
  5
2F3
330
2B1
100
AcDbEntity
  8
Graypants_Drum24
 62
    36
420
  8866048
370
    -3
  0
POLYLINE
  5
2F4
330
1F
100
AcDbEntity
  8
Graypants_Drum24
 62
    36
420
  8866048
370
    -3
100
AcDb2dPolyline
 66
     1
 10
0.0
 20
0.0
 30
0.0
  0
VERTEX
  5
2F5
330
2F4
100
AcDbEntity
  8
Graypants_Drum24
 62
    36
420
  8866048
370
    -3
100
AcDbVertex
100
AcDb2dVertex
 10
-264.6867846340319
 20
-1543.419179362477
 30
0.0
  0
VERTEX
  5
2F6
330
2F4
100
AcDbEntity
  8
Graypants_Drum24
 62
    36
420
  8866048
370
    -3
100
AcDbVertex
100
AcDb2dVertex
 10
-264.7252291361154
 20
-1543.418686641864
 30
0.0
  0
VERTEX
  5
2F7
330
2F4
100
AcDbEntity
  8
Graypants_Drum24
 62
    36
420
  8866048
370
    -3
100
AcDbVertex
100
AcDb2dVertex
 10
-264.7639998814422
 20
-1543.417190975888
 30
0.0
  0
VERTEX
  5
2F8
330
2F4
100
AcDbEntity
  8
Graypants_Drum24
 62
    36
420
  8866048
370
    -3
100
AcDbVertex
100
AcDb2dVertex
 10
-264.8030714750788
 20
-1543.414666728322
 30
0.0
  0
VERTEX
  5
2F9
330
2F4
100
AcDbEntity
  8
Graypants_Drum24
 62
    36
420
  8866048
370
    -3
100
AcDbVertex
100
AcDb2dVertex
 10
-264.842417084811
 20
-1543.411089179702
 30
0.0
  0
VERTEX
  5
2FA
330
2F4
100
AcDbEntity
  8
Graypants_Drum24
 62
    36
420
  8866048
370
    -3
100
AcDbVertex
100
AcDb2dVertex
 10
-264.8820084579638
 20
-1543.406434641534
 30
0.0
  0
VERTEX
  5
2FB
330
2F4
100
AcDbEntity
  8
Graypants_Drum24
 62
    36
420
  8866048
370
    -3
100
AcDbVertex
100
AcDb2dVertex
 10
-264.9218159455151
 20
-1543.400680571813
 30
0.0
  0
VERTEX
  5
2FC
330
2F4
100
AcDbEntity
  8
Graypants_Drum24
 62
    36
420
  8866048
370
    -3
100
AcDbVertex
100
AcDb2dVertex
 10
-264.9618085337927
 20
-1543.393805691225
 30
0.0
  0
VERTEX
  5
2FD
330
2F4
100
AcDbEntity
  8
Graypants_Drum24
 62
    36
420
  8866048
370
    -3
100
AcDbVertex
100
AcDb2dVertex
 10
-265.0019538839958
 20
-1543.38579009931
 30
0.0
  0
VERTEX
  5
2FE
330
2F4
100
AcDbEntity
  8
Graypants_Drum24
 62
    36
420
  8866048
370
    -3
100
AcDbVertex
100
AcDb2dVertex
 10
-265.0422183797323
 20
-1543.376615389829
 30
0.0
  0
VERTEX
  5
2FF
330
2F4
100
AcDbEntity
  8
Graypants_Drum24
 62
    36
420
  8866048
370
    -3
100
AcDbVertex
100
AcDb2dVertex
 10
-265.0825671827077
 20
-1543.366264764563
 30
0.0
  0
VERTEX
  5
300
330
2F4
100
AcDbEntity
  8
Graypants_Drum24
 62
    36
420
  8866048
370
    -3
100
AcDbVertex
100
AcDb2dVertex
 10
-265.1229642966351
 20
-1543.354723144681
 30
0.0
  0
VERTEX
  5
301
330
2F4
100
AcDbEntity
  8
Graypants_Drum24
 62
    36
420
  8866048
370
    -3
100
AcDbVertex
100
AcDb2dVertex
 10
-265.1633726393694
 20
-1543.341977278851
 30
0.0
  0
VERTEX
  5
302
330
2F4
100
AcDbEntity
  8
Graypants_Drum24
 62
    36
420
  8866048
370
    -3
100
AcDbVertex
100
AcDb2dVertex
 10
-265.2037541231986
 20
-1543.328015847189
 30
0.0
  0
VERTEX
  5
303
330
2F4
100
AcDbEntity
  8
Graypants_Drum24
 62
    36
420
  8866048
370
    -3
100
AcDbVertex
100
AcDb2dVertex
 10
-265.2440697431437
 20
-1543.31282956016
 30
0.0
  0
VERTEX
  5
304
330
2F4
100
AcDbEntity
  8
Graypants_Drum24
 62
    36
420
  8866048
370
    -3
100
AcDbVertex
100
AcDb2dVertex
 10
-265.2842796730438
 20
-1543.296411251552
 30
0.0
  0
VERTEX
  5
305
330
2F4
100
AcDbEntity
  8
Graypants_Drum24
 62
    36
420
  8866048
370
    -3
100
AcDbVertex
100
AcDb2dVertex
 10
-265.3243433691181
 20
-1543.278755964602
 30
0.0
  0
VERTEX
  5
306
330
2F4
100
AcDbEntity
  8
Graypants_Drum24
 62
    36
420
  8866048
370
    -3
100
AcDbVertex
100
AcDb2dVertex
 10
-265.3642196806167
 20
-1543.259861030441
 30
0.0
  0
VERTEX
  5
307
330
2F4
100
AcDbEntity
  8
Graypants_Drum24
 62
    36
420
  8866048
370
    -3
100
AcDbVertex
100
AcDb2dVertex
 10
-265.4038669670867
 20
-1543.239726137991
 30
0.0
  0
VERTEX
  5
308
330
2F4
100
AcDbEntity
  8
Graypants_Drum24
 62
    36
420
  8866048
370
    -3
100
AcDbVertex
100
AcDb2dVertex
 10
-265.4432432217006
 20
-1543.218353394523
 30
0.0
  0
VERTEX
  5
309
330
2F4
100
AcDbEntity
  8
Graypants_Drum24
 62
    36
420
  8866048
370
    -3
100
AcDbVertex
100
AcDb2dVertex
 10
-265.4823062000148
 20
-1543.195747376137
 30
0.0
  0
VERTEX
  5
30A
330
2F4
100
AcDbEntity
  8
Graypants_Drum24
 62
    36
420
  8866048
370
    -3
100
AcDbVertex
100
AcDb2dVertex
 10
-265.5210135534517
 20
-1543.17191516746
 30
0.0
  0
VERTEX
  5
30B
330
2F4
100
AcDbEntity
  8
Graypants_Drum24
 62
    36
420
  8866048
370
    -3
100
AcDbVertex
100
AcDb2dVertex
 10
-265.5593229667264
 20
-1543.146866389972
 30
0.0
  0
VERTEX
  5
30C
330
2F4
100
AcDbEntity
  8
Graypants_Drum24
 62
    36
420
  8866048
370
    -3
100
AcDbVertex
100
AcDb2dVertex
 10
-265.5971922983826
 20
-1543.120613218425
 30
0.0
  0
VERTEX
  5
30D
330
2F4
100
AcDbEntity
  8
Graypants_Drum24
 62
    36
420
  8866048
370
    -3
100
AcDbVertex
100
AcDb2dVertex
 10
-265.6345797235355
 20
-1543.093170384914
 30
0.0
  0
VERTEX
  5
30E
330
2F4
100
AcDbEntity
  8
Graypants_Drum24
 62
    36
420
  8866048
370
    -3
100
AcDbVertex
100
AcDb2dVertex
 10
-265.6714438778867
 20
-1543.064555170294
 30
0.0
  0
VERTEX
  5
30F
330
2F4
100
AcDbEntity
  8
Graypants_Drum24
 62
    36
420
  8866048
370
    -3
100
AcDbVertex
100
AcDb2dVertex
 10
-265.7077440020253
 20
-1543.034787382695
 30
0.0
  0
VERTEX
  5
310
330
2F4
100
AcDbEntity
  8
Graypants_Drum24
 62
    36
420
  8866048
370
    -3
100
AcDbVertex
100
AcDb2dVertex
 10
-265.7434400850144
 20
-1543.003889323047
 30
0.0
  0
VERTEX
  5
311
330
2F4
100
AcDbEntity
  8
Graypants_Drum24
 62
    36
420
  8866048
370
    -3
100
AcDbVertex
100
AcDb2dVertex
 10
-265.7784930062401
 20
-1542.971885737627
 30
0.0
  0
VERTEX
  5
312
330
2F4
100
AcDbEntity
  8
Graypants_Drum24
 62
    36
420
  8866048
370
    -3
100
AcDbVertex
100
AcDb2dVertex
 10
-265.8128646745013
 20
-1542.93880375776
 30
0.0
  0
VERTEX
  5
313
330
2F4
100
AcDbEntity
  8
Graypants_Drum24
 62
    36
420
  8866048
370
    -3
100
AcDbVertex
100
AcDb2dVertex
 10
-265.8465181633247
 20
-1542.904672826929
 30
0.0
  0
VERTEX
  5
314
330
2F4
100
AcDbEntity
  8
Graypants_Drum24
 62
    36
420
  8866048
370
    -3
100
AcDbVertex
100
AcDb2dVertex
 10
-265.8794178415156
 20
-1542.869524615686
 30
0.0
  0
VERTEX
  5
315
330
2F4
100
AcDbEntity
  8
Graypants_Drum24
 62
    36
420
  8866048
370
    -3
100
AcDbVertex
100
AcDb2dVertex
 10
-265.9115294979848
 20
-1542.833392924851
 30
0.0
  0
VERTEX
  5
316
330
2F4
100
AcDbEntity
  8
Graypants_Drum24
 62
    36
420
  8866048
370
    -3
100
AcDbVertex
100
AcDb2dVertex
 10
-265.9428204599402
 20
-1542.796313577612
 30
0.0
  0
VERTEX
  5
317
330
2F4
100
AcDbEntity
  8
Graypants_Drum24
 62
    36
420
  8866048
370
    -3
100
AcDbVertex
100
AcDb2dVertex
 10
-265.973259703589
 20
-1542.758324301262
 30
0.0
  0
VERTEX
  5
318
330
2F4
100
AcDbEntity
  8
Graypants_Drum24
 62
    36
420
  8866048
370
    -3
100
AcDbVertex
100
AcDb2dVertex
 10
-266.0028179565638
 20
-1542.719464599364
 30
0.0
  0
VERTEX
  5
319
330
2F4
100
AcDbEntity
  8
Graypants_Drum24
 62
    36
420
  8866048
370
    -3
100
AcDbVertex
100
AcDb2dVertex
 10
-266.0314677913624
 20
-1542.679775615276
 30
0.0
  0
VERTEX
  5
31A
330
2F4
100
AcDbEntity
  8
Graypants_Drum24
 62
    36
420
  8866048
370
    -3
100
AcDbVertex
100
AcDb2dVertex
 10
-266.0591837091798
 20
-1542.639299988019
 30
0.0
  0
VERTEX
  5
31B
330
2F4
100
AcDbEntity
  8
Graypants_Drum24
 62
    36
420
  8866048
370
    -3
100
AcDbVertex
100
AcDb2dVertex
 10
-266.0859422136005
 20
-1542.598081701523
 30
0.0
  0
VERTEX
  5
31C
330
2F4
100
AcDbEntity
  8
Graypants_Drum24
 62
    36
420
  8866048
370
    -3
100
AcDbVertex
100
AcDb2dVertex
 10
-266.1117218737197
 20
-1542.556165928382
 30
0.0
  0
VERTEX
  5
31D
330
2F4
100
AcDbEntity
  8
Graypants_Drum24
 62
    36
420
  8866048
370
    -3
100
AcDbVertex
100
AcDb2dVertex
 10
-266.1365033763645
 20
-1542.513598869248
 30
0.0
  0
VERTEX
  5
31E
330
2F4
100
AcDbEntity
  8
Graypants_Drum24
 62
    36
420
  8866048
370
    -3
100
AcDbVertex
100
AcDb2dVertex
 10
-266.1602695671918
 20
-1542.470427589033
 30
0.0
  0
VERTEX
  5
31F
330
2F4
100
AcDbEntity
  8
Graypants_Drum24
 62
    36
420
  8866048
370
    -3
100
AcDbVertex
100
AcDb2dVertex
 10
-266.1830054805437
 20
-1542.426699851116
 30
0.0
  0
VERTEX
  5
320
330
2F4
100
AcDbEntity
  8
Graypants_Drum24
 62
    36
420
  8866048
370
    -3
100
AcDbVertex
100
AcDb2dVertex
 10
-266.2046983580498
 20
-1542.382463950714
 30
0.0
  0
VERTEX
  5
321
330
2F4
100
AcDbEntity
  8
Graypants_Drum24
 62
    36
420
  8866048
370
    -3
100
AcDbVertex
100
AcDb2dVertex
 10
-266.2253376560672
 20
-1542.33776854859
 30
0.0
  0
VERTEX
  5
322
330
2F4
100
AcDbEntity
  8
Graypants_Drum24
 62
    36
420
  8866048
370
    -3
100
AcDbVertex
100
AcDb2dVertex
 10
-266.2449150421494
 20
-1542.292662506225
 30
0.0
  0
VERTEX
  5
323
330
2F4
100
AcDbEntity
  8
Graypants_Drum24
 62
    36
420
  8866048
370
    -3
100
AcDbVertex
100
AcDb2dVertex
 10
-266.2634243808284
 20
-1542.247194723548
 30
0.0
  0
VERTEX
  5
324
330
2F4
100
AcDbEntity
  8
Graypants_Drum24
 62
    36
420
  8866048
370
    -3
100
AcDbVertex
100
AcDb2dVertex
 10
-266.2808617090871
 20
-1542.201413980237
 30
0.0
  0
VERTEX
  5
325
330
2F4
100
AcDbEntity
  8
Graypants_Drum24
 62
    36
420
  8866048
370
    -3
100
AcDbVertex
100
AcDb2dVertex
 10
-266.2972252019739
 20
-1542.155368781602
 30
0.0
  0
VERTEX
  5
326
330
2F4
100
AcDbEntity
  8
Graypants_Drum24
 62
    36
420
  8866048
370
    -3
100
AcDbVertex
100
AcDb2dVertex
 10
-266.3125151288908
 20
-1542.109107209894
 30
0.0
  0
VERTEX
  5
327
330
2F4
100
AcDbEntity
  8
Graypants_Drum24
 62
    36
420
  8866048
370
    -3
100
AcDbVertex
100
AcDb2dVertex
 10
-266.3267338011466
 20
-1542.062676781908
 30
0.0
  0
VERTEX
  5
328
330
2F4
100
AcDbEntity
  8
Graypants_Drum24
 62
    36
420
  8866048
370
    -3
100
AcDbVertex
100
AcDb2dVertex
 10
-266.3398855114222
 20
-1542.01612431357
 30
0.0
  0
VERTEX
  5
329
330
2F4
100
AcDbEntity
  8
Graypants_Drum24
 62
    36
420
  8866048
370
    -3
100
AcDbVertex
100
AcDb2dVertex
 10
-266.3519764658417
 20
-1541.969495792168
 30
0.0
  0
VERTEX
  5
32A
330
2F4
100
AcDbEntity
  8
Graypants_Drum24
 62
    36
420
  8866048
370
    -3
100
AcDbVertex
100
AcDb2dVertex
 10
-266.3630147093764
 20
-1541.922836256775
 30
0.0
  0
VERTEX
  5
32B
330
2F4
100
AcDbEntity
  8
Graypants_Drum24
 62
    36
420
  8866048
370
    -3
100
AcDbVertex
100
AcDb2dVertex
 10
-266.3730100453342
 20
-1541.876189687291
 30
0.0
  0
VERTEX
  5
32C
330
2F4
100
AcDbEntity
  8
Graypants_Drum24
 62
    36
420
  8866048
370
    -3
100
AcDbVertex
100
AcDb2dVertex
 10
-266.3819739497059
 20
-1541.829598902489
 30
0.0
  0
VERTEX
  5
32D
330
2F4
100
AcDbEntity
  8
Graypants_Drum24
 62
    36
420
  8866048
370
    -3
100
AcDbVertex
100
AcDb2dVertex
 10
-266.3899194811403
 20
-1541.783105467302
 30
0.0
  0
VERTEX
  5
32E
330
2F4
100
AcDbEntity
  8
Graypants_Drum24
 62
    36
420
  8866048
370
    -3
100
AcDbVertex
100
AcDb2dVertex
 10
-266.3968611873236
 20
-1541.736749609527
 30
0.0
  0
VERTEX
  5
32F
330
2F4
100
AcDbEntity
  8
Graypants_Drum24
 62
    36
420
  8866048
370
    -3
100
AcDbVertex
100
AcDb2dVertex
 10
-266.4028150085243
 20
-1541.690570146032
 30
0.0
  0
VERTEX
  5
330
330
2F4
100
AcDbEntity
  8
Graypants_Drum24
 62
    36
420
  8866048
370
    -3
100
AcDbVertex
100
AcDb2dVertex
 10
-266.4077981790475
 20
-1541.644604418445
 30
0.0
  0
VERTEX
  5
331
330
2F4
100
AcDbEntity
  8
Graypants_Drum24
 62
    36
420
  8866048
370
    -3
100
AcDbVertex
100
AcDb2dVertex
 10
-266.4118291273196
 20
-1541.598888238273
 30
0.0
  0
VERTEX
  5
332
330
2F4
100
AcDbEntity
  8
Graypants_Drum24
 62
    36
420
  8866048
370
    -3
100
AcDbVertex
100
AcDb2dVertex
 10
-266.4149273752884
 20
-1541.553455841257
 30
0.0
  0
VERTEX
  5
333
330
2F4
100
AcDbEntity
  8
Graypants_Drum24
 62
    36
420
  8866048
370
    -3
100
AcDbVertex
100
AcDb2dVertex
 10
-266.4171134377929
 20
-1541.508339850775
 30
0.0
  0
VERTEX
  5
334
330
2F4
100
AcDbEntity
  8
Graypants_Drum24
 62
    36
420
  8866048
370
    -3
100
AcDbVertex
100
AcDb2dVertex
 10
-266.4184087225157
 20
-1541.463571250001
 30
0.0
  0
VERTEX
  5
335
330
2F4
100
AcDbEntity
  8
Graypants_Drum24
 62
    36
420
  8866048
370
    -3
100
AcDbVertex
100
AcDb2dVertex
 10
-266.4188354310809
 20
-1541.419179362478
 30
0.0
  0
SEQEND
  5
336
330
2F4
100
AcDbEntity
  8
Graypants_Drum24
 62
    36
420
  8866048
370
    -3
  0
LINE
  5
337
330
1F
100
AcDbEntity
  8
Graypants_Drum24
 62
    36
420
  8866048
370
    -3
100
AcDbLine
 10
1.49999999997956
 20
-1539.411845682787
 30
0.0
 11
1.499999999979991
 21
-1541.738297009535
 31
0.0
  0
LINE
  5
338
330
1F
100
AcDbEntity
  8
Graypants_Drum24
 62
    36
420
  8866048
370
    -3
100
AcDbLine
 10
-1.500000000019832
 20
-1539.409308418383
 30
0.0
 11
-1.500000000019554
 21
-1541.738297009535
 31
0.0
  0
ARC
  5
339
330
1F
100
AcDbEntity
  8
Graypants_Drum24
 62
    36
420
  8866048
370
    -3
100
AcDbCircle
 10
13.49374991996391
 20
-1274.998652832524
 30
0.0
 40
11.90613168091253
100
AcDbArc
 50
180.0000013528535
 51
211.7883319698774
  0
LINE
  5
33A
330
1F
100
AcDbEntity
  8
Graypants_Drum24
 62
    36
420
  8866048
370
    -3
100
AcDbLine
 10
-1.587620121119699
 20
-1268.652367943989
 30
0.0
 11
-1.587749999999687
 21
-584.0327075957794
 31
0.0
  0
LINE
  5
33B
330
1F
100
AcDbEntity
  8
Graypants_Drum24
 62
    36
420
  8866048
370
    -3
100
AcDbLine
 10
312.2879766184998
 20
-1298.011845682786
 30
0.0
 11
312.2879766184998
 21
-1539.411845682786
 31
0.0
  0
LINE
  5
33C
330
1F
100
AcDbEntity
  8
Graypants_Drum24
 62
    36
420
  8866048
370
    -3
100
AcDbLine
 10
-312.2879766184997
 20
-1539.411845682786
 30
0.0
 11
-312.2879766184997
 21
-1298.011845682786
 31
0.0
  0
LINE
  5
33D
330
1F
100
AcDbEntity
  8
Graypants_Drum24
 62
    36
420
  8866048
370
    -3
100
AcDbLine
 10
-2.381250000000307
 20
-1275.002367943966
 30
0.0
 11
-2.381250000000307
 21
-1268.652367943966
 31
0.0
  0
LINE
  5
33E
330
1F
100
AcDbEntity
  8
Graypants_Drum24
 62
    36
420
  8866048
370
    -3
100
AcDbLine
 10
2.381250000000117
 20
-1268.652367943966
 30
0.0
 11
2.381250000000117
 21
-1275.002367943966
 31
0.0
  0
LINE
  5
33F
330
1F
100
AcDbEntity
  8
Graypants_Drum24
 62
    36
420
  8866048
370
    -3
100
AcDbLine
 10
1.587500000000091
 20
-1267.061153113648
 30
0.0
 11
0.0
 21
-1267.061153113648
 31
0.0
  0
ARC
  5
340
330
1F
100
AcDbEntity
  8
Graypants_Drum24
 62
    36
420
  8866048
370
    -3
100
AcDbCircle
 10
0.0029066989987303
 20
-1283.360492930532
 30
0.0
 40
3.970899678171707
210
0.0
220
0.0
230
-1.0
100
AcDbArc
 50
148.2440081320802
 51
233.094689721143
  0
LINE
  5
341
330
1F
100
AcDbEntity
  8
Graypants_Drum24
 62
    36
420
  8866048
370
    -3
100
AcDbLine
 10
1.587500000000091
 20
-1267.061153113648
 30
0.0
 11
1.5875123500482
 21
-1268.652367943877
 31
0.0
  0
LINE
  5
342
330
1F
100
AcDbEntity
  8
Graypants_Drum24
 62
    36
420
  8866048
370
    -3
100
AcDbLine
 10
12.44600000000037
 20
-584.0327075957791
 30
0.0
 11
12.44600000000059
 21
-1286.998373377217
 31
0.0
  0
LINE
  5
343
330
1F
100
AcDbEntity
  8
Graypants_Drum24
 62
    36
420
  8866048
370
    -3
100
AcDbLine
 10
6.604000000000724
 20
-1286.998373377217
 30
0.0
 11
6.604000000000497
 21
-584.0327075957791
 31
0.0
  0
ARC
  5
344
330
1F
100
AcDbEntity
  8
Graypants_Drum24
 62
    36
420
  8866048
370
    -3
100
AcDbCircle
 10
-4.76249999994252
 20
-1286.998373377168
 30
0.0
 40
7.683500000058075
210
0.0
220
0.0
230
-1.0
100
AcDbArc
 50
180.0000000003612
 51
269.9999999995676
  0
ARC
  5
345
330
1F
100
AcDbEntity
  8
Graypants_Drum24
 62
    36
420
  8866048
370
    -3
100
AcDbCircle
 10
4.76249999998754
 20
-1286.998373377214
 30
0.0
 40
1.841500000012957
100
AcDbArc
 50
270.0000000004032
 51
359.9999999998939
  0
ARC
  5
346
330
1F
100
AcDbEntity
  8
Graypants_Drum24
 62
    36
420
  8866048
370
    -3
100
AcDbCircle
 10
4.762500000014365
 20
-1296.52337337724
 30
0.0
 40
1.841500000013866
100
AcDbArc
 50
90.00000000043137
 51
179.9999999995685
  0
ARC
  5
347
330
1F
100
AcDbEntity
  8
Graypants_Drum24
 62
    36
420
  8866048
370
    -3
100
AcDbCircle
 10
-4.767891838488342
 20
-1296.524331779486
 30
0.0
 40
7.688891898219229
210
0.0
220
0.0
230
-1.0
100
AcDbArc
 50
0.0071417839456118
 51
21.59613438626073
  0
ARC
  5
348
330
1F
100
AcDbEntity
  8
Graypants_Drum24
 62
    36
420
  8866048
370
    -3
100
AcDbCircle
 10
-55.56250000000021
 20
-582.4452075957797
 30
0.0
 40
1.587499999999658
100
AcDbArc
 50
179.9999999999877
 51
270.0000000000074
  0
ARC
  5
349
330
1F
100
AcDbEntity
  8
Graypants_Drum24
 62
    36
420
  8866048
370
    -3
100
AcDbCircle
 10
-55.56250000000055
 20
-582.4452075957797
 30
0.0
 40
1.587499999999537
210
0.0
220
0.0
230
-1.0
100
AcDbArc
 50
179.9999999999877
 51
270.0000000000118
  0
LINE
  5
34A
330
1F
100
AcDbEntity
  8
Graypants_Drum24
 62
    36
420
  8866048
370
    -3
100
AcDbLine
 10
-57.14999999999986
 20
-574.5077075957794
 30
0.0
 11
-0.0000000000004547
 21
-574.5077075957794
 31
0.0
  0
LINE
  5
34B
330
1F
100
AcDbEntity
  8
Graypants_Drum24
 62
    36
420
  8866048
370
    -3
100
AcDbLine
 10
57.15000000000009
 20
-574.5077075957794
 30
0.0
 11
57.15000000000009
 21
-582.4452075957794
 31
0.0
  0
LINE
  5
34C
330
1F
100
AcDbEntity
  8
Graypants_Drum24
 62
    36
420
  8866048
370
    -3
100
AcDbLine
 10
-57.14999999999986
 20
-582.4452075957794
 30
0.0
 11
-57.14999999999986
 21
-574.5077075957794
 31
0.0
  0
LINE
  5
34D
330
1F
100
AcDbEntity
  8
Graypants_Drum24
 62
    36
420
  8866048
370
    -3
100
AcDbLine
 10
-0.0000000000004547
 20
-574.5077075957794
 30
0.0
 11
57.15000000000009
 21
-574.5077075957794
 31
0.0
  0
LINE
  5
34E
330
1F
100
AcDbEntity
  8
Graypants_Drum24
 62
    36
420
  8866048
370
    -3
100
AcDbLine
 10
1.499999999980446
 20
-1543.419179362476
 30
0.0
 11
-1.500000000019099
 21
-1543.419179362476
 31
0.0
  0
LINE
  5
34F
330
1F
100
AcDbEntity
  8
Graypants_Drum24
 62
    36
420
  8866048
370
    -3
100
AcDbLine
 10
1.499999999979991
 20
-1541.738297009535
 30
0.0
 11
1.499999999980446
 21
-1543.419179362476
 31
0.0
  0
LINE
  5
350
330
1F
100
AcDbEntity
  8
Graypants_Drum24
 62
    36
420
  8866048
370
    -3
100
AcDbLine
 10
-1.500000000019554
 20
-1541.738297009535
 30
0.0
 11
-1.500000000019099
 21
-1543.419179362476
 31
0.0
  0
ENDSEC
  0
SECTION
  2
OBJECTS
  0
DICTIONARY
  5
C
330
0
100
AcDbDictionary
281
     1
  3
ACAD_DETAILVIEWSTYLE
350
38C
  3
ACAD_GROUP
350
D
  3
ACAD_LAYOUT
350
1A
  3
ACAD_MATERIAL
350
43
  3
ACAD_MLEADERSTYLE
350
6B
  3
ACAD_MLINESTYLE
350
17
  3
ACAD_PLOTSETTINGS
350
19
  3
ACAD_PLOTSTYLENAME
350
E
  3
ACAD_SCALELIST
350
47
  3
ACAD_SECTIONVIEWSTYLE
350
38D
  3
ACAD_TABLESTYLE
350
69
  3
ACAD_VISUALSTYLE
350
2A
  3
AcDbVariableDictionary
350
351
  3
ACDB_RECOMPOSE_DATA
350
389
  0
SUN
  5
6D
330
29
100
AcDbSun
 90
        1
290
     0
 63
     7
421
 16777215
 40
1.0
291
     1
 91
  2455826
 92
 54000000
292
     0
 70
     2
 71
   256
280
     1
  0
DICTIONARY
  5
38C
102
{ACAD_REACTORS
330
C
102
}
330
C
100
AcDbDictionary
281
     1
  0
DICTIONARY
  5
D
102
{ACAD_REACTORS
330
C
102
}
330
C
100
AcDbDictionary
281
     1
  0
DICTIONARY
  5
1A
102
{ACAD_REACTORS
330
C
102
}
330
C
100
AcDbDictionary
281
     1
  3
Layout1
350
1E
  3
Layout2
350
26
  3
Model
350
22
  0
DICTIONARY
  5
43
102
{ACAD_REACTORS
330
C
102
}
330
C
100
AcDbDictionary
281
     1
  3
ByBlock
350
45
  3
ByLayer
350
44
  3
Global
350
46
  0
DICTIONARY
  5
6B
102
{ACAD_REACTORS
330
C
102
}
330
C
100
AcDbDictionary
281
     1
  3
Standard
350
6C
  0
DICTIONARY
  5
17
102
{ACAD_REACTORS
330
C
102
}
330
C
100
AcDbDictionary
281
     1
  3
Standard
350
18
  0
DICTIONARY
  5
19
102
{ACAD_REACTORS
330
C
102
}
330
C
100
AcDbDictionary
281
     1
  0
ACDBDICTIONARYWDFLT
  5
E
102
{ACAD_REACTORS
330
C
102
}
330
C
100
AcDbDictionary
281
     1
  3
Normal
350
F
100
AcDbDictionaryWithDefault
340
F
  0
DICTIONARY
  5
47
102
{ACAD_REACTORS
330
C
102
}
330
C
100
AcDbDictionary
281
     1
  3
A0
350
48
  3
A1
350
49
  3
A2
350
4A
  3
A3
350
4B
  3
A4
350
4C
  3
A5
350
4D
  3
A6
350
4E
  3
A7
350
4F
  3
A8
350
50
  3
A9
350
51
  3
B0
350
52
  3
B1
350
53
  3
B2
350
54
  3
B3
350
55
  3
B4
350
56
  3
B5
350
57
  3
B6
350
58
  3
B7
350
59
  3
B8
350
5A
  3
B9
350
5B
  3
C0
350
5C
  3
C1
350
5D
  3
C2
350
5E
  3
C3
350
5F
  3
C4
350
60
  3
C5
350
61
  3
C6
350
62
  3
C7
350
63
  3
C8
350
64
  3
C9
350
65
  3
D0
350
66
  3
D1
350
67
  3
D2
350
68
  0
DICTIONARY
  5
38D
102
{ACAD_REACTORS
330
C
102
}
330
C
100
AcDbDictionary
281
     1
  0
DICTIONARY
  5
69
102
{ACAD_REACTORS
330
C
102
}
330
C
100
AcDbDictionary
281
     1
  3
Standard
350
6A
  0
DICTIONARY
  5
2A
102
{ACAD_REACTORS
330
C
102
}
330
C
100
AcDbDictionary
281
     1
  3
2dWireframe
350
2F
  3
Basic
350
32
  3
Brighten
350
36
  3
ColorChange
350
3A
  3
Conceptual
350
34
  3
Dim
350
35
  3
EdgeColorOff
350
3D
  3
Facepattern
350
39
  3
Flat
350
2B
  3
FlatWithEdges
350
2C
  3
Gouraud
350
2D
  3
GouraudWithEdges
350
2E
  3
Hidden
350
31
  3
JitterOff
350
3B
  3
Linepattern
350
38
  3
OverhangOff
350
3C
  3
Realistic
350
33
  3
Shaded
350
42
  3
Shaded with edges
350
41
  3
Shades of Gray
350
3E
  3
Sketchy
350
3F
  3
Thicken
350
37
  3
Wireframe
350
30
  3
X-Ray
350
40
  0
DICTIONARY
  5
351
102
{ACAD_REACTORS
330
C
102
}
330
C
100
AcDbDictionary
281
     1
  3
CANNOSCALE
350
352
  3
CMLEADERSTYLE
350
38B
  3
CTABLESTYLE
350
38A
  3
XCLIPFRAME
350
353
  0
XRECORD
  5
389
102
{ACAD_REACTORS
330
C
102
}
330
C
100
AcDbXrecord
280
     1
 90
        1
330
6A
  0
LAYOUT
  5
1E
102
{ACAD_REACTORS
330
1A
102
}
330
1A
100
AcDbPlotSettings
  1

  2
none_device
  4

  6

 40
0.0
 41
0.0
 42
0.0
 43
0.0
 44
0.0
 45
0.0
 46
0.0
 47
0.0
 48
0.0
 49
0.0
140
0.0
141
0.0
142
1.0
143
1.0
 70
   688
 72
     0
 73
     0
 74
     5
  7

 75
    16
 76
     0
 77
     2
 78
   300
147
1.0
148
0.0
149
0.0
100
AcDbLayout
  1
Layout1
 70
     1
 71
     1
 10
0.0
 20
0.0
 11
12.0
 21
9.0
 12
0.0
 22
0.0
 32
0.0
 14
1.000000000000000E+20
 24
1.000000000000000E+20
 34
1.000000000000000E+20
 15
-1.000000000000000E+20
 25
-1.000000000000000E+20
 35
-1.000000000000000E+20
146
0.0
 13
0.0
 23
0.0
 33
0.0
 16
1.0
 26
0.0
 36
0.0
 17
0.0
 27
1.0
 37
0.0
 76
     0
330
1B
  0
LAYOUT
  5
26
102
{ACAD_REACTORS
330
1A
102
}
330
1A
100
AcDbPlotSettings
  1

  2
none_device
  4

  6

 40
0.0
 41
0.0
 42
0.0
 43
0.0
 44
0.0
 45
0.0
 46
0.0
 47
0.0
 48
0.0
 49
0.0
140
0.0
141
0.0
142
1.0
143
1.0
 70
   688
 72
     0
 73
     0
 74
     5
  7

 75
    16
 76
     0
 77
     2
 78
   300
147
1.0
148
0.0
149
0.0
100
AcDbLayout
  1
Layout2
 70
     1
 71
     2
 10
0.0
 20
0.0
 11
0.0
 21
0.0
 12
0.0
 22
0.0
 32
0.0
 14
0.0
 24
0.0
 34
0.0
 15
0.0
 25
0.0
 35
0.0
146
0.0
 13
0.0
 23
0.0
 33
0.0
 16
1.0
 26
0.0
 36
0.0
 17
0.0
 27
1.0
 37
0.0
 76
     0
330
23
  0
LAYOUT
  5
22
102
{ACAD_REACTORS
330
1A
102
}
330
1A
100
AcDbPlotSettings
  1

  2
none_device
  4
Letter_(8.50_x_11.00_Inches)
  6

 40
6.35
 41
6.35
 42
6.35000508
 43
6.35000508
 44
215.9
 45
279.4
 46
0.0
 47
0.0
 48
0.0
 49
0.0
140
0.0
141
0.0
142
1.0
143
1.0
 70
  1712
 72
     0
 73
     0
 74
     0
  7

 75
     0
 76
     0
 77
     2
 78
   300
147
1.0
148
0.0
149
0.0
100
AcDbLayout
  1
Model
 70
     1
 71
     0
 10
0.0
 20
0.0
 11
12.0
 21
9.0
 12
3804.693056528511
 22
1444.863951419895
 32
0.0
 14
1.000000000000000E+20
 24
1.000000000000000E+20
 34
1.000000000000000E+20
 15
-1.000000000000000E+20
 25
-1.000000000000000E+20
 35
-1.000000000000000E+20
146
0.0
 13
0.0
 23
0.0
 33
0.0
 16
1.0
 26
0.0
 36
0.0
 17
0.0
 27
1.0
 37
0.0
 76
     0
330
1F
331
29
  0
MATERIAL
  5
45
102
{ACAD_REACTORS
330
43
102
}
330
43
100
AcDbMaterial
  1
ByBlock
 72
     1
 94
      127
  0
MATERIAL
  5
44
102
{ACAD_REACTORS
330
43
102
}
330
43
100
AcDbMaterial
  1
ByLayer
 72
     1
 94
      127
  0
MATERIAL
  5
46
102
{ACAD_REACTORS
330
43
102
}
330
43
100
AcDbMaterial
  1
Global
 72
     1
 94
      127
  0
MLEADERSTYLE
  5
6C
102
{ACAD_REACTORS
330
6B
102
}
102
{ACAD_XDICTIONARY
360
387
102
}
330
6B
100
AcDbMLeaderStyle
170
     2
171
     1
172
     0
 90
        2
 40
0.0
 41
0.0
173
     1
 91
-1056964608
340
14
 92
       -2
290
     1
 42
0.09
291
     1
 43
0.36
  3
Standard
341
0
 44
0.18
300

342
11
174
     1
178
     6
175
     1
176
     0
 93
-1056964608
 45
0.18
292
     0
297
     0
 46
0.18
343
0
 94
-1056964608
 47
1.0
 49
1.0
140
1.0
293
     1
141
0.0
294
     1
177
     0
142
1.0
295
     0
296
     0
143
0.125
1001
ACAD_MLEADERVER
1070
     2
  0
MLINESTYLE
  5
18
102
{ACAD_REACTORS
330
17
102
}
330
17
100
AcDbMlineStyle
  2
Standard
 70
     0
  3

 62
   256
 51
90.0
 52
90.0
 71
     2
 49
0.5
 62
   256
  6
BYLAYER
 49
-0.5
 62
   256
  6
BYLAYER
  0
ACDBPLACEHOLDER
  5
F
102
{ACAD_REACTORS
330
E
102
}
330
E
  0
SCALE
  5
48
102
{ACAD_REACTORS
330
47
102
}
330
47
100
AcDbScale
 70
     0
300
1:1
140
1.0
141
1.0
290
     1
  0
SCALE
  5
49
102
{ACAD_REACTORS
330
47
102
}
330
47
100
AcDbScale
 70
     0
300
1:2
140
1.0
141
2.0
290
     0
  0
SCALE
  5
4A
102
{ACAD_REACTORS
330
47
102
}
330
47
100
AcDbScale
 70
     0
300
1:4
140
1.0
141
4.0
290
     0
  0
SCALE
  5
4B
102
{ACAD_REACTORS
330
47
102
}
330
47
100
AcDbScale
 70
     0
300
1:5
140
1.0
141
5.0
290
     0
  0
SCALE
  5
4C
102
{ACAD_REACTORS
330
47
102
}
330
47
100
AcDbScale
 70
     0
300
1:8
140
1.0
141
8.0
290
     0
  0
SCALE
  5
4D
102
{ACAD_REACTORS
330
47
102
}
330
47
100
AcDbScale
 70
     0
300
1:10
140
1.0
141
10.0
290
     0
  0
SCALE
  5
4E
102
{ACAD_REACTORS
330
47
102
}
330
47
100
AcDbScale
 70
     0
300
1:16
140
1.0
141
16.0
290
     0
  0
SCALE
  5
4F
102
{ACAD_REACTORS
330
47
102
}
330
47
100
AcDbScale
 70
     0
300
1:20
140
1.0
141
20.0
290
     0
  0
SCALE
  5
50
102
{ACAD_REACTORS
330
47
102
}
330
47
100
AcDbScale
 70
     0
300
1:30
140
1.0
141
30.0
290
     0
  0
SCALE
  5
51
102
{ACAD_REACTORS
330
47
102
}
330
47
100
AcDbScale
 70
     0
300
1:40
140
1.0
141
40.0
290
     0
  0
SCALE
  5
52
102
{ACAD_REACTORS
330
47
102
}
330
47
100
AcDbScale
 70
     0
300
1:50
140
1.0
141
50.0
290
     0
  0
SCALE
  5
53
102
{ACAD_REACTORS
330
47
102
}
330
47
100
AcDbScale
 70
     0
300
1:100
140
1.0
141
100.0
290
     0
  0
SCALE
  5
54
102
{ACAD_REACTORS
330
47
102
}
330
47
100
AcDbScale
 70
     0
300
2:1
140
2.0
141
1.0
290
     0
  0
SCALE
  5
55
102
{ACAD_REACTORS
330
47
102
}
330
47
100
AcDbScale
 70
     0
300
4:1
140
4.0
141
1.0
290
     0
  0
SCALE
  5
56
102
{ACAD_REACTORS
330
47
102
}
330
47
100
AcDbScale
 70
     0
300
8:1
140
8.0
141
1.0
290
     0
  0
SCALE
  5
57
102
{ACAD_REACTORS
330
47
102
}
330
47
100
AcDbScale
 70
     0
300
10:1
140
10.0
141
1.0
290
     0
  0
SCALE
  5
58
102
{ACAD_REACTORS
330
47
102
}
330
47
100
AcDbScale
 70
     0
300
100:1
140
100.0
141
1.0
290
     0
  0
SCALE
  5
59
102
{ACAD_REACTORS
330
47
102
}
330
47
100
AcDbScale
 70
     0
300
1/128" = 1'-0"
140
0.0078125
141
12.0
290
     0
  0
SCALE
  5
5A
102
{ACAD_REACTORS
330
47
102
}
330
47
100
AcDbScale
 70
     0
300
1/64" = 1'-0"
140
0.015625
141
12.0
290
     0
  0
SCALE
  5
5B
102
{ACAD_REACTORS
330
47
102
}
330
47
100
AcDbScale
 70
     0
300
1/32" = 1'-0"
140
0.03125
141
12.0
290
     0
  0
SCALE
  5
5C
102
{ACAD_REACTORS
330
47
102
}
330
47
100
AcDbScale
 70
     0
300
1/16" = 1'-0"
140
0.0625
141
12.0
290
     0
  0
SCALE
  5
5D
102
{ACAD_REACTORS
330
47
102
}
330
47
100
AcDbScale
 70
     0
300
3/32" = 1'-0"
140
0.09375
141
12.0
290
     0
  0
SCALE
  5
5E
102
{ACAD_REACTORS
330
47
102
}
330
47
100
AcDbScale
 70
     0
300
1/8" = 1'-0"
140
0.125
141
12.0
290
     0
  0
SCALE
  5
5F
102
{ACAD_REACTORS
330
47
102
}
330
47
100
AcDbScale
 70
     0
300
3/16" = 1'-0"
140
0.1875
141
12.0
290
     0
  0
SCALE
  5
60
102
{ACAD_REACTORS
330
47
102
}
330
47
100
AcDbScale
 70
     0
300
1/4" = 1'-0"
140
0.25
141
12.0
290
     0
  0
SCALE
  5
61
102
{ACAD_REACTORS
330
47
102
}
330
47
100
AcDbScale
 70
     0
300
3/8" = 1'-0"
140
0.375
141
12.0
290
     0
  0
SCALE
  5
62
102
{ACAD_REACTORS
330
47
102
}
330
47
100
AcDbScale
 70
     0
300
1/2" = 1'-0"
140
0.5
141
12.0
290
     0
  0
SCALE
  5
63
102
{ACAD_REACTORS
330
47
102
}
330
47
100
AcDbScale
 70
     0
300
3/4" = 1'-0"
140
0.75
141
12.0
290
     0
  0
SCALE
  5
64
102
{ACAD_REACTORS
330
47
102
}
330
47
100
AcDbScale
 70
     0
300
1" = 1'-0"
140
1.0
141
12.0
290
     0
  0
SCALE
  5
65
102
{ACAD_REACTORS
330
47
102
}
330
47
100
AcDbScale
 70
     0
300
1-1/2" = 1'-0"
140
1.5
141
12.0
290
     0
  0
SCALE
  5
66
102
{ACAD_REACTORS
330
47
102
}
330
47
100
AcDbScale
 70
     0
300
3" = 1'-0"
140
3.0
141
12.0
290
     0
  0
SCALE
  5
67
102
{ACAD_REACTORS
330
47
102
}
330
47
100
AcDbScale
 70
     0
300
6" = 1'-0"
140
6.0
141
12.0
290
     0
  0
SCALE
  5
68
102
{ACAD_REACTORS
330
47
102
}
330
47
100
AcDbScale
 70
     0
300
1'-0" = 1'-0"
140
12.0
141
12.0
290
     0
  0
TABLESTYLE
  5
6A
102
{ACAD_REACTORS
330
69
102
}
102
{ACAD_XDICTIONARY
360
384
102
}
330
69
100
AcDbTableStyle
  3
Standard
 70
     0
 71
     0
 40
0.06
 41
0.06
280
     0
281
     0
  7
Standard
140
0.18
170
     2
 62
     0
 63
   257
283
     0
 90
        4
 91
        0
  1

274
    -2
284
     1
 64
     0
275
    -2
285
     1
 65
     0
276
    -2
286
     1
 66
     0
277
    -2
287
     1
 67
     0
278
    -2
288
     1
 68
     0
279
    -2
289
     1
 69
     0
  7
Standard
140
0.25
170
     5
 62
     0
 63
   257
283
     0
 90
        4
 91
        0
  1

274
    -2
284
     1
 64
     0
275
    -2
285
     1
 65
     0
276
    -2
286
     1
 66
     0
277
    -2
287
     1
 67
     0
278
    -2
288
     1
 68
     0
279
    -2
289
     1
 69
     0
  7
Standard
140
0.18
170
     5
 62
     0
 63
   257
283
     0
 90
        4
 91
        0
  1

274
    -2
284
     1
 64
     0
275
    -2
285
     1
 65
     0
276
    -2
286
     1
 66
     0
277
    -2
287
     1
 67
     0
278
    -2
288
     1
 68
     0
279
    -2
289
     1
 69
     0
  0
VISUALSTYLE
  5
2F
102
{ACAD_REACTORS
330
2A
102
}
102
{ACAD_XDICTIONARY
360
35C
102
}
330
2A
100
AcDbVisualStyle
  2
2dWireframe
 70
     4
 71
     0
 72
     2
 73
     0
 90
        0
 40
0.6
 41
30.0
 62
     5
 63
     7
421
 16777215
 74
     1
 91
        4
 64
     7
 65
   257
 75
     1
175
     1
 42
1.0
 92
        0
 66
   257
 43
1.0
 76
     1
 77
     6
 78
     2
 67
     7
 79
     5
170
     0
171
     0
290
     0
174
     0
 93
        1
 44
0.0
173
     0
291
     0
 45
0.0
  0
VISUALSTYLE
  5
32
102
{ACAD_REACTORS
330
2A
102
}
102
{ACAD_XDICTIONARY
360
362
102
}
330
2A
100
AcDbVisualStyle
  2
Basic
 70
     7
 71
     1
 72
     0
 73
     1
 90
        0
 40
0.6
 41
30.0
 62
     5
 63
     7
421
 16777215
 74
     0
 91
        4
 64
     7
 65
   257
 75
     1
175
     1
 42
1.0
 92
        8
 66
     7
 43
1.0
 76
     1
 77
     6
 78
     2
 67
     7
 79
     5
170
     0
171
     0
290
     0
174
     0
 93
        1
 44
0.0
173
     0
291
     1
 45
0.0
  0
VISUALSTYLE
  5
36
102
{ACAD_REACTORS
330
2A
102
}
102
{ACAD_XDICTIONARY
360
36A
102
}
330
2A
100
AcDbVisualStyle
  2
Brighten
 70
    12
 71
     2
 72
     2
 73
     0
 90
        0
 40
0.6
 41
30.0
 62
     5
 63
     7
421
 16777215
 74
     1
 91
        4
 64
     7
 65
   257
 75
     1
175
     1
 42
1.0
 92
        8
 66
     7
 43
1.0
 76
     1
 77
     6
 78
     2
 67
     7
 79
     5
170
     0
171
     0
290
     0
174
     0
 93
        1
 44
50.0
173
     0
291
     1
 45
0.0
  0
VISUALSTYLE
  5
3A
102
{ACAD_REACTORS
330
2A
102
}
102
{ACAD_XDICTIONARY
360
372
102
}
330
2A
100
AcDbVisualStyle
  2
ColorChange
 70
    16
 71
     2
 72
     2
 73
     3
 90
        0
 40
0.6
 41
30.0
 62
     5
 63
     8
421
  8421504
 74
     1
 91
        4
 64
     7
 65
   257
 75
     1
175
     1
 42
1.0
 92
        8
 66
     8
424
  8421504
 43
1.0
 76
     1
 77
     6
 78
     2
 67
     7
 79
     5
170
     0
171
     0
290
     0
174
     0
 93
        1
 44
0.0
173
     0
291
     1
 45
0.0
  0
VISUALSTYLE
  5
34
102
{ACAD_REACTORS
330
2A
102
}
102
{ACAD_XDICTIONARY
360
366
102
}
330
2A
100
AcDbVisualStyle
  2
Conceptual
 70
     9
 71
     3
 72
     2
 73
     0
 90
        0
 40
0.6
 41
30.0
 62
     5
 63
     7
421
 16777215
 74
     2
 91
        2
 64
     7
 65
   257
 75
     1
175
     1
 42
179.0
 92
        8
 66
     7
 43
1.0
 76
     1
 77
     6
 78
     2
 67
     7
 79
     3
170
     0
171
     0
290
     0
174
     0
 93
        1
 44
0.0
173
     0
291
     0
 45
0.0
  0
VISUALSTYLE
  5
35
102
{ACAD_REACTORS
330
2A
102
}
102
{ACAD_XDICTIONARY
360
368
102
}
330
2A
100
AcDbVisualStyle
  2
Dim
 70
    11
 71
     2
 72
     2
 73
     0
 90
        0
 40
0.6
 41
30.0
 62
     5
 63
     7
421
 16777215
 74
     1
 91
        4
 64
     7
 65
   257
 75
     1
175
     1
 42
1.0
 92
        8
 66
     7
 43
1.0
 76
     1
 77
     6
 78
     2
 67
     7
 79
     5
170
     0
171
     0
290
     0
174
     0
 93
        1
 44
-50.0
173
     0
291
     1
 45
0.0
  0
VISUALSTYLE
  5
3D
102
{ACAD_REACTORS
330
2A
102
}
102
{ACAD_XDICTIONARY
360
378
102
}
330
2A
100
AcDbVisualStyle
  2
EdgeColorOff
 70
    22
 71
     2
 72
     2
 73
     0
 90
        0
 40
0.6
 41
30.0
 62
     5
 63
     7
421
 16777215
 74
     1
 91
        4
 64
     7
 65
   257
 75
     1
175
     1
 42
1.0
 92
        8
 66
     7
 43
1.0
 76
     1
 77
     6
 78
     2
 67
     7
 79
     5
170
     0
171
     0
290
     0
174
     0
 93
        1
 44
0.0
173
     0
291
     1
 45
0.0
  0
VISUALSTYLE
  5
39
102
{ACAD_REACTORS
330
2A
102
}
102
{ACAD_XDICTIONARY
360
370
102
}
330
2A
100
AcDbVisualStyle
  2
Facepattern
 70
    15
 71
     2
 72
     2
 73
     0
 90
        0
 40
0.6
 41
30.0
 62
     5
 63
     7
421
 16777215
 74
     1
 91
        4
 64
     7
 65
   257
 75
     1
175
     1
 42
1.0
 92
        8
 66
     7
 43
1.0
 76
     1
 77
     6
 78
     2
 67
     7
 79
     5
170
     0
171
     0
290
     0
174
     0
 93
        1
 44
0.0
173
     0
291
     1
 45
0.0
  0
VISUALSTYLE
  5
2B
102
{ACAD_REACTORS
330
2A
102
}
102
{ACAD_XDICTIONARY
360
354
102
}
330
2A
100
AcDbVisualStyle
  2
Flat
 70
     0
 71
     2
 72
     1
 73
     1
 90
        2
 40
0.6
 41
30.0
 62
     5
 63
     7
421
 16777215
 74
     0
 91
        0
 64
     7
 65
   257
 75
     1
175
     1
 42
1.0
 92
        8
 66
     7
 43
1.0
 76
     1
 77
     6
 78
     2
 67
     7
 79
     5
170
     0
171
     0
290
     0
174
     0
 93
       13
 44
0.0
173
     0
291
     1
 45
0.0
  0
VISUALSTYLE
  5
2C
102
{ACAD_REACTORS
330
2A
102
}
102
{ACAD_XDICTIONARY
360
356
102
}
330
2A
100
AcDbVisualStyle
  2
FlatWithEdges
 70
     1
 71
     2
 72
     1
 73
     1
 90
        2
 40
0.6
 41
30.0
 62
     5
 63
     7
421
 16777215
 74
     1
 91
        0
 64
     7
 65
   257
 75
     1
175
     1
 42
1.0
 92
        0
 66
   257
 43
1.0
 76
     1
 77
     6
 78
     2
 67
     7
 79
     5
170
     0
171
     0
290
     0
174
     0
 93
       13
 44
0.0
173
     0
291
     1
 45
0.0
  0
VISUALSTYLE
  5
2D
102
{ACAD_REACTORS
330
2A
102
}
102
{ACAD_XDICTIONARY
360
358
102
}
330
2A
100
AcDbVisualStyle
  2
Gouraud
 70
     2
 71
     2
 72
     2
 73
     1
 90
        2
 40
0.6
 41
30.0
 62
     5
 63
     7
421
 16777215
 74
     0
 91
        0
 64
     7
 65
   257
 75
     1
175
     1
 42
1.0
 92
        0
 66
     7
 43
1.0
 76
     1
 77
     6
 78
     2
 67
     7
 79
     5
170
     0
171
     0
290
     0
174
     0
 93
       13
 44
0.0
173
     0
291
     1
 45
0.0
  0
VISUALSTYLE
  5
2E
102
{ACAD_REACTORS
330
2A
102
}
102
{ACAD_XDICTIONARY
360
35A
102
}
330
2A
100
AcDbVisualStyle
  2
GouraudWithEdges
 70
     3
 71
     2
 72
     2
 73
     1
 90
        2
 40
0.6
 41
30.0
 62
     5
 63
     7
421
 16777215
 74
     1
 91
        0
 64
     7
 65
   257
 75
     1
175
     1
 42
1.0
 92
        0
 66
   257
 43
1.0
 76
     1
 77
     6
 78
     2
 67
     7
 79
     5
170
     0
171
     0
290
     0
174
     0
 93
       13
 44
0.0
173
     0
291
     1
 45
0.0
  0
VISUALSTYLE
  5
31
102
{ACAD_REACTORS
330
2A
102
}
102
{ACAD_XDICTIONARY
360
360
102
}
330
2A
100
AcDbVisualStyle
  2
Hidden
 70
     6
 71
     1
 72
     2
 73
     2
 90
        0
 40
0.6
 41
30.0
 62
     5
 63
     7
421
 16777215
 74
     2
 91
        2
 64
     7
 65
   257
 75
     2
175
     1
 42
40.0
 92
        0
 66
   257
 43
1.0
 76
     1
 77
     6
 78
     2
 67
     7
 79
     3
170
     0
171
     0
290
     0
174
     0
 93
        1
 44
0.0
173
     0
291
     0
 45
0.0
  0
VISUALSTYLE
  5
3B
102
{ACAD_REACTORS
330
2A
102
}
102
{ACAD_XDICTIONARY
360
374
102
}
330
2A
100
AcDbVisualStyle
  2
JitterOff
 70
    20
 71
     2
 72
     2
 73
     0
 90
        0
 40
0.6
 41
30.0
 62
     5
 63
     7
421
 16777215
 74
     1
 91
        4
 64
     7
 65
   257
 75
     1
175
     1
 42
1.0
 92
       10
 66
     7
 43
1.0
 76
     1
 77
     6
 78
     2
 67
     7
 79
     5
170
     0
171
     0
290
     0
174
     0
 93
        1
 44
0.0
173
     0
291
     1
 45
0.0
  0
VISUALSTYLE
  5
38
102
{ACAD_REACTORS
330
2A
102
}
102
{ACAD_XDICTIONARY
360
36E
102
}
330
2A
100
AcDbVisualStyle
  2
Linepattern
 70
    14
 71
     2
 72
     2
 73
     0
 90
        0
 40
0.6
 41
30.0
 62
     5
 63
     7
421
 16777215
 74
     1
 91
        4
 64
     7
 65
   257
 75
     7
175
     7
 42
1.0
 92
        8
 66
     7
 43
1.0
 76
     1
 77
     6
 78
     2
 67
     7
 79
     5
170
     0
171
     0
290
     0
174
     0
 93
        1
 44
0.0
173
     0
291
     1
 45
0.0
  0
VISUALSTYLE
  5
3C
102
{ACAD_REACTORS
330
2A
102
}
102
{ACAD_XDICTIONARY
360
376
102
}
330
2A
100
AcDbVisualStyle
  2
OverhangOff
 70
    21
 71
     2
 72
     2
 73
     0
 90
        0
 40
0.6
 41
30.0
 62
     5
 63
     7
421
 16777215
 74
     1
 91
        4
 64
     7
 65
   257
 75
     1
175
     1
 42
1.0
 92
        9
 66
     7
 43
1.0
 76
     1
 77
     6
 78
     2
 67
     7
 79
     5
170
     0
171
     0
290
     0
174
     0
 93
        1
 44
0.0
173
     0
291
     1
 45
0.0
  0
VISUALSTYLE
  5
33
102
{ACAD_REACTORS
330
2A
102
}
102
{ACAD_XDICTIONARY
360
364
102
}
330
2A
100
AcDbVisualStyle
  2
Realistic
 70
     8
 71
     2
 72
     3
 73
     0
 90
        2
 40
0.6
 41
30.0
 62
     5
 63
     7
421
 16777215
 74
     0
 91
        0
 64
     7
 65
   257
 75
     1
175
     1
 42
1.0
 92
        8
 66
   257
 43
1.0
 76
     1
 77
     6
 78
     2
 67
     7
 79
     3
170
     0
171
     0
290
     0
174
     0
 93
       13
 44
0.0
173
     0
291
     0
 45
0.0
  0
VISUALSTYLE
  5
42
102
{ACAD_REACTORS
330
2A
102
}
102
{ACAD_XDICTIONARY
360
382
102
}
330
2A
100
AcDbVisualStyle
  2
Shaded
 70
    27
 71
     2
 72
     2
 73
     1
 90
        2
 40
0.6
 41
30.0
 62
     5
 63
     7
421
 16777215
 74
     0
 91
        4
 64
     7
 65
   257
 75
     1
175
     1
 42
1.0
 92
        8
 66
   257
 43
1.0
 76
     1
 77
     6
 78
     2
 67
     8
425
  7895160
 79
     3
170
     0
171
     0
290
     0
174
     0
 93
        5
 44
0.0
173
     0
291
     0
 45
0.0
  0
VISUALSTYLE
  5
41
102
{ACAD_REACTORS
330
2A
102
}
102
{ACAD_XDICTIONARY
360
380
102
}
330
2A
100
AcDbVisualStyle
  2
Shaded with edges
 70
    26
 71
     2
 72
     2
 73
     1
 90
        2
 40
0.6
 41
30.0
 62
     5
 63
     7
421
 16777215
 74
     1
 91
       10
 64
     7
 65
   257
 75
     2
175
     1
 42
1.0
 92
        8
 66
   257
 43
1.0
 76
     1
 77
     6
 78
     2
 67
     7
 79
     3
170
     0
171
     0
290
     0
174
     0
 93
        5
 44
0.0
173
     0
291
     0
 45
0.0
  0
VISUALSTYLE
  5
3E
102
{ACAD_REACTORS
330
2A
102
}
102
{ACAD_XDICTIONARY
360
37A
102
}
330
2A
100
AcDbVisualStyle
  2
Shades of Gray
 70
    23
 71
     2
 72
     2
 73
     3
 90
        0
 40
0.6
 41
30.0
 62
     5
 63
     7
421
 16777215
 74
     2
 91
        2
 64
     7
 65
     7
 75
     1
175
     1
 42
40.0
 92
        8
 66
     7
 43
1.0
 76
     1
 77
     6
 78
     2
 67
     7
 79
     3
170
     0
171
     0
290
     0
174
     0
 93
        1
 44
0.0
173
     0
291
     0
 45
0.0
  0
VISUALSTYLE
  5
3F
102
{ACAD_REACTORS
330
2A
102
}
102
{ACAD_XDICTIONARY
360
37C
102
}
330
2A
100
AcDbVisualStyle
  2
Sketchy
 70
    24
 71
     1
 72
     2
 73
     2
 90
        0
 40
0.6
 41
30.0
 62
     5
 63
     7
421
 16777215
 74
     2
 91
        2
 64
     7
 65
     7
 75
     1
175
     1
 42
40.0
 92
       11
 66
     7
 43
1.0
 76
     1
 77
     6
 78
     2
 67
     7
 79
     6
170
     0
171
     0
290
     0
174
     0
 93
        1
 44
0.0
173
     0
291
     0
 45
0.0
  0
VISUALSTYLE
  5
37
102
{ACAD_REACTORS
330
2A
102
}
102
{ACAD_XDICTIONARY
360
36C
102
}
330
2A
100
AcDbVisualStyle
  2
Thicken
 70
    13
 71
     2
 72
     2
 73
     0
 90
        0
 40
0.6
 41
30.0
 62
     5
 63
     7
421
 16777215
 74
     1
 91
        4
 64
     7
 65
   257
 75
     1
175
     1
 42
1.0
 92
       12
 66
     7
 43
1.0
 76
     1
 77
     6
 78
     2
 67
     7
 79
     5
170
     0
171
     0
290
     0
174
     0
 93
        1
 44
0.0
173
     0
291
     1
 45
0.0
  0
VISUALSTYLE
  5
30
102
{ACAD_REACTORS
330
2A
102
}
102
{ACAD_XDICTIONARY
360
35E
102
}
330
2A
100
AcDbVisualStyle
  2
Wireframe
 70
     5
 71
     0
 72
     2
 73
     0
 90
        0
 40
0.6
 41
30.0
 62
     5
 63
     7
421
 16777215
 74
     1
 91
        4
 64
     7
 65
   257
 75
     1
175
     1
 42
1.0
 92
        0
 66
   257
 43
1.0
 76
     1
 77
     6
 78
     2
 67
     7
 79
     3
170
     0
171
     0
290
     0
174
     0
 93
        1
 44
0.0
173
     0
291
     0
 45
0.0
  0
VISUALSTYLE
  5
40
102
{ACAD_REACTORS
330
2A
102
}
102
{ACAD_XDICTIONARY
360
37E
102
}
330
2A
100
AcDbVisualStyle
  2
X-Ray
 70
    25
 71
     2
 72
     2
 73
     1
 90
        1
 40
0.5
 41
30.0
 62
     5
 63
     7
421
 16777215
 74
     1
 91
        0
 64
     7
 65
   257
 75
     1
175
     1
 42
1.0
 92
        8
 66
     7
 43
1.0
 76
     1
 77
     6
 78
     2
 67
     7
 79
     3
170
     0
171
     0
290
     0
174
     0
 93
       13
 44
0.0
173
     0
291
     0
 45
0.0
  0
DICTIONARYVAR
  5
352
102
{ACAD_REACTORS
330
351
102
}
330
351
100
DictionaryVariables
280
     0
  1
1:1
  0
DICTIONARYVAR
  5
38B
102
{ACAD_REACTORS
330
351
102
}
330
351
100
DictionaryVariables
280
     0
  1
Standard
  0
DICTIONARYVAR
  5
38A
102
{ACAD_REACTORS
330
351
102
}
330
351
100
DictionaryVariables
280
     0
  1
Standard
  0
DICTIONARYVAR
  5
353
102
{ACAD_REACTORS
330
351
102
}
330
351
100
DictionaryVariables
280
     0
  1
2
  0
DICTIONARY
  5
387
330
6C
100
AcDbDictionary
280
     1
281
     1
  3
ACAD_XREC_ROUNDTRIP
360
388
  0
DICTIONARY
  5
384
330
6A
100
AcDbDictionary
280
     1
281
     1
  3
ACAD_ROUNDTRIP_2008_TABLESTYLE_CELLSTYLEMAP
360
385
  0
DICTIONARY
  5
35C
330
2F
100
AcDbDictionary
280
     1
281
     1
  3
ACAD_XREC_ROUNDTRIP
360
35D
  0
DICTIONARY
  5
362
330
32
100
AcDbDictionary
280
     1
281
     1
  3
ACAD_XREC_ROUNDTRIP
360
363
  0
DICTIONARY
  5
36A
330
36
100
AcDbDictionary
280
     1
281
     1
  3
ACAD_XREC_ROUNDTRIP
360
36B
  0
DICTIONARY
  5
372
330
3A
100
AcDbDictionary
280
     1
281
     1
  3
ACAD_XREC_ROUNDTRIP
360
373
  0
DICTIONARY
  5
366
330
34
100
AcDbDictionary
280
     1
281
     1
  3
ACAD_XREC_ROUNDTRIP
360
367
  0
DICTIONARY
  5
368
330
35
100
AcDbDictionary
280
     1
281
     1
  3
ACAD_XREC_ROUNDTRIP
360
369
  0
DICTIONARY
  5
378
330
3D
100
AcDbDictionary
280
     1
281
     1
  3
ACAD_XREC_ROUNDTRIP
360
379
  0
DICTIONARY
  5
370
330
39
100
AcDbDictionary
280
     1
281
     1
  3
ACAD_XREC_ROUNDTRIP
360
371
  0
DICTIONARY
  5
354
330
2B
100
AcDbDictionary
280
     1
281
     1
  3
ACAD_XREC_ROUNDTRIP
360
355
  0
DICTIONARY
  5
356
330
2C
100
AcDbDictionary
280
     1
281
     1
  3
ACAD_XREC_ROUNDTRIP
360
357
  0
DICTIONARY
  5
358
330
2D
100
AcDbDictionary
280
     1
281
     1
  3
ACAD_XREC_ROUNDTRIP
360
359
  0
DICTIONARY
  5
35A
330
2E
100
AcDbDictionary
280
     1
281
     1
  3
ACAD_XREC_ROUNDTRIP
360
35B
  0
DICTIONARY
  5
360
330
31
100
AcDbDictionary
280
     1
281
     1
  3
ACAD_XREC_ROUNDTRIP
360
361
  0
DICTIONARY
  5
374
330
3B
100
AcDbDictionary
280
     1
281
     1
  3
ACAD_XREC_ROUNDTRIP
360
375
  0
DICTIONARY
  5
36E
330
38
100
AcDbDictionary
280
     1
281
     1
  3
ACAD_XREC_ROUNDTRIP
360
36F
  0
DICTIONARY
  5
376
330
3C
100
AcDbDictionary
280
     1
281
     1
  3
ACAD_XREC_ROUNDTRIP
360
377
  0
DICTIONARY
  5
364
330
33
100
AcDbDictionary
280
     1
281
     1
  3
ACAD_XREC_ROUNDTRIP
360
365
  0
DICTIONARY
  5
382
330
42
100
AcDbDictionary
280
     1
281
     1
  3
ACAD_XREC_ROUNDTRIP
360
383
  0
DICTIONARY
  5
380
330
41
100
AcDbDictionary
280
     1
281
     1
  3
ACAD_XREC_ROUNDTRIP
360
381
  0
DICTIONARY
  5
37A
330
3E
100
AcDbDictionary
280
     1
281
     1
  3
ACAD_XREC_ROUNDTRIP
360
37B
  0
DICTIONARY
  5
37C
330
3F
100
AcDbDictionary
280
     1
281
     1
  3
ACAD_XREC_ROUNDTRIP
360
37D
  0
DICTIONARY
  5
36C
330
37
100
AcDbDictionary
280
     1
281
     1
  3
ACAD_XREC_ROUNDTRIP
360
36D
  0
DICTIONARY
  5
35E
330
30
100
AcDbDictionary
280
     1
281
     1
  3
ACAD_XREC_ROUNDTRIP
360
35F
  0
DICTIONARY
  5
37E
330
40
100
AcDbDictionary
280
     1
281
     1
  3
ACAD_XREC_ROUNDTRIP
360
37F
  0
XRECORD
  5
388
102
{ACAD_REACTORS
330
387
102
}
330
387
100
AcDbXrecord
280
     1
102
ACAD_ROUNDTRIP_2010_MLEADER_STYLE
  0
CELLSTYLEMAP
  5
385
102
{ACAD_REACTORS
330
384
102
}
330
384
100
AcDbCellStyleMap
 90
        3
300
CELLSTYLE
  1
TABLEFORMAT_BEGIN
 90
        5
170
     1
 91
        0
 92
    32768
 62
   257
 93
        1
300
CONTENTFORMAT
  1
CONTENTFORMAT_BEGIN
 90
        0
 91
        0
 92
        4
 93
        0
300

 40
0.0
140
1.0
 94
        5
 62
     0
340
11
144
0.25
309
CONTENTFORMAT_END
171
     1
301
MARGIN
  1
CELLMARGIN_BEGIN
 40
0.06
 40
0.06
 40
0.06
 40
0.06
 40
0.06
 40
0.06
309
CELLMARGIN_END
 94
        6
 95
        1
302
GRIDFORMAT
  1
GRIDFORMAT_BEGIN
 90
        0
 91
        1
 62
     0
 92
       -2
340
14
 93
        0
 40
0.045
309
GRIDFORMAT_END
 95
        2
302
GRIDFORMAT
  1
GRIDFORMAT_BEGIN
 90
        0
 91
        1
 62
     0
 92
       -2
340
14
 93
        0
 40
0.045
309
GRIDFORMAT_END
 95
        4
302
GRIDFORMAT
  1
GRIDFORMAT_BEGIN
 90
        0
 91
        1
 62
     0
 92
       -2
340
14
 93
        0
 40
0.045
309
GRIDFORMAT_END
 95
        8
302
GRIDFORMAT
  1
GRIDFORMAT_BEGIN
 90
        0
 91
        1
 62
     0
 92
       -2
340
14
 93
        0
 40
0.045
309
GRIDFORMAT_END
 95
       16
302
GRIDFORMAT
  1
GRIDFORMAT_BEGIN
 90
        0
 91
        1
 62
     0
 92
       -2
340
14
 93
        0
 40
0.045
309
GRIDFORMAT_END
 95
       32
302
GRIDFORMAT
  1
GRIDFORMAT_BEGIN
 90
        0
 91
        1
 62
     0
 92
       -2
340
14
 93
        0
 40
0.045
309
GRIDFORMAT_END
309
TABLEFORMAT_END
  1
CELLSTYLE_BEGIN
 90
        1
 91
        1
300
_TITLE
309
CELLSTYLE_END
300
CELLSTYLE
  1
TABLEFORMAT_BEGIN
 90
        5
170
     1
 91
        0
 92
        0
 62
   257
 93
        1
300
CONTENTFORMAT
  1
CONTENTFORMAT_BEGIN
 90
        0
 91
        0
 92
        4
 93
        0
300

 40
0.0
140
1.0
 94
        5
 62
     0
340
11
144
0.18
309
CONTENTFORMAT_END
171
     1
301
MARGIN
  1
CELLMARGIN_BEGIN
 40
0.06
 40
0.06
 40
0.06
 40
0.06
 40
0.06
 40
0.06
309
CELLMARGIN_END
 94
        6
 95
        1
302
GRIDFORMAT
  1
GRIDFORMAT_BEGIN
 90
        0
 91
        1
 62
     0
 92
       -2
340
14
 93
        0
 40
0.045
309
GRIDFORMAT_END
 95
        2
302
GRIDFORMAT
  1
GRIDFORMAT_BEGIN
 90
        0
 91
        1
 62
     0
 92
       -2
340
14
 93
        0
 40
0.045
309
GRIDFORMAT_END
 95
        4
302
GRIDFORMAT
  1
GRIDFORMAT_BEGIN
 90
        0
 91
        1
 62
     0
 92
       -2
340
14
 93
        0
 40
0.045
309
GRIDFORMAT_END
 95
        8
302
GRIDFORMAT
  1
GRIDFORMAT_BEGIN
 90
        0
 91
        1
 62
     0
 92
       -2
340
14
 93
        0
 40
0.045
309
GRIDFORMAT_END
 95
       16
302
GRIDFORMAT
  1
GRIDFORMAT_BEGIN
 90
        0
 91
        1
 62
     0
 92
       -2
340
14
 93
        0
 40
0.045
309
GRIDFORMAT_END
 95
       32
302
GRIDFORMAT
  1
GRIDFORMAT_BEGIN
 90
        0
 91
        1
 62
     0
 92
       -2
340
14
 93
        0
 40
0.045
309
GRIDFORMAT_END
309
TABLEFORMAT_END
  1
CELLSTYLE_BEGIN
 90
        2
 91
        1
300
_HEADER
309
CELLSTYLE_END
300
CELLSTYLE
  1
TABLEFORMAT_BEGIN
 90
        5
170
     1
 91
        0
 92
        0
 62
   257
 93
        1
300
CONTENTFORMAT
  1
CONTENTFORMAT_BEGIN
 90
        0
 91
        0
 92
        4
 93
        0
300

 40
0.0
140
1.0
 94
        2
 62
     0
340
11
144
0.18
309
CONTENTFORMAT_END
171
     1
301
MARGIN
  1
CELLMARGIN_BEGIN
 40
0.06
 40
0.06
 40
0.06
 40
0.06
 40
0.06
 40
0.06
309
CELLMARGIN_END
 94
        6
 95
        1
302
GRIDFORMAT
  1
GRIDFORMAT_BEGIN
 90
        0
 91
        1
 62
     0
 92
       -2
340
14
 93
        0
 40
0.045
309
GRIDFORMAT_END
 95
        2
302
GRIDFORMAT
  1
GRIDFORMAT_BEGIN
 90
        0
 91
        1
 62
     0
 92
       -2
340
14
 93
        0
 40
0.045
309
GRIDFORMAT_END
 95
        4
302
GRIDFORMAT
  1
GRIDFORMAT_BEGIN
 90
        0
 91
        1
 62
     0
 92
       -2
340
14
 93
        0
 40
0.045
309
GRIDFORMAT_END
 95
        8
302
GRIDFORMAT
  1
GRIDFORMAT_BEGIN
 90
        0
 91
        1
 62
     0
 92
       -2
340
14
 93
        0
 40
0.045
309
GRIDFORMAT_END
 95
       16
302
GRIDFORMAT
  1
GRIDFORMAT_BEGIN
 90
        0
 91
        1
 62
     0
 92
       -2
340
14
 93
        0
 40
0.045
309
GRIDFORMAT_END
 95
       32
302
GRIDFORMAT
  1
GRIDFORMAT_BEGIN
 90
        0
 91
        1
 62
     0
 92
       -2
340
14
 93
        0
 40
0.045
309
GRIDFORMAT_END
309
TABLEFORMAT_END
  1
CELLSTYLE_BEGIN
 90
        3
 91
        2
300
_DATA
309
CELLSTYLE_END
  0
XRECORD
  5
35D
102
{ACAD_REACTORS
330
35C
102
}
330
35C
100
AcDbXrecord
280
     1
102
RTVSPropertyOp0
 70
     1
102
RTVSPropertyOp1
 70
     1
102
RTVSPropertyOp2
 70
     1
102
RTVSPropertyOp3
 70
     1
102
RTVSPropertyOp4
 70
     1
102
RTVSPropertyOp5
 70
     1
102
RTVSPropertyOp6
 70
     1
102
RTVSPropertyOp7
 70
     1
102
RTVSPropertyOp8
 70
     1
102
RTVSPropertyOp9
 70
     1
102
RTVSPropertyOp10
 70
     1
102
RTVSPropertyOp11
 70
     1
102
RTVSPropertyOp12
 70
     1
102
RTVSPropertyOp13
 70
     1
102
RTVSPropertyOp14
 70
     1
102
RTVSPropertyOp15
 70
     1
102
RTVSPropertyOp16
 70
     1
102
RTVSPropertyOp17
 70
     1
102
RTVSPropertyOp18
 70
     1
102
RTVSPropertyOp19
 70
     1
102
RTVSPropertyOp20
 70
     1
102
RTVSPropertyOp21
 70
     1
102
RTVSPropertyOp22
 70
     1
102
RTVSPropertyOp23
 70
     1
102
RTVSPropertyOp24
 70
     1
102
RTVSPropertyOp25
 70
     1
102
RTVSPropertyOp26
 70
     1
102
RTVSPropertyOp27
 70
     1
102
RTVSPropertyOp28
 70
     1
102
RTVSPropertyOp29
 70
     1
102
RTVSPropertyOp30
 70
     1
102
RTVSPropertyOp31
 70
     1
102
RTVSPropertyOp32
 70
     1
102
RTVSPropertyOp33
 70
     1
102
RTVSPropertyOp34
 70
     1
102
RTVSPropertyOp35
 70
     1
102
RTVSPropertyOp36
 70
     1
102
RTVSPropertyOp37
 70
     1
102
RTVSPropertyOp38
 70
     1
102
RTVSPropertyOp39
 70
     1
102
RTVSPropertyOp40
 70
     1
102
RTVSPropertyOp41
 70
     1
102
RTVSPropertyOp42
 70
     1
102
RTVSPropertyOp43
 70
     1
102
RTVSPropertyOp44
 70
     1
102
RTVSPropertyOp45
 70
     1
102
RTVSPropertyOp46
 70
     1
102
RTVSPropertyOp47
 70
     1
102
RTVSPropertyOp48
 70
     1
102
RTVSPropertyOp49
 70
     1
102
RTVSPropertyOp50
 70
     1
102
RTVSPropertyOp51
 70
     0
102
RTVSPropertyOp52
 70
     0
102
RTVSPropertyOp53
 70
     1
102
RTVSPropertyOp54
 70
     1
102
RTVSPropertyOp55
 70
     1
102
RTVSPropertyOp56
 70
     1
102
RTVSPropertyOp57
 70
     1
102
RTVSPost2010Prop28
280
     1
102
RTVSPost2010PropOp28
 70
     1
102
RTVSPost2010Prop29
280
     1
102
RTVSPost2010PropOp29
 70
     1
102
RTVSPost2010Prop30
280
     0
102
RTVSPost2010PropOp30
 70
     1
102
RTVSPost2010Prop31
280
     0
102
RTVSPost2010PropOp31
 70
     1
102
RTVSPost2010Prop32
280
     0
102
RTVSPost2010PropOp32
 70
     1
102
RTVSPost2010Prop33
280
     0
102
RTVSPost2010PropOp33
 70
     1
102
RTVSPost2010Prop34
280
     0
102
RTVSPost2010PropOp34
 70
     1
102
RTVSPost2010Prop35
280
     0
102
RTVSPost2010PropOp35
 70
     1
102
RTVSPost2010Prop36
280
     0
102
RTVSPost2010PropOp36
 70
     1
102
RTVSPost2010Prop37
 90
       50
102
RTVSPost2010PropOp37
 70
     1
102
RTVSPost2010Prop38
140
0.0
102
RTVSPost2010PropOp38
 70
     1
102
RTVSPost2010Prop39
140
1.0
102
RTVSPost2010PropOp39
 70
     1
102
RTVSPost2010Prop40
 90
        0
102
RTVSPost2010PropOp40
 70
     1
102
RTVSPost2010Prop41ColorIndex
 90
      178
102
RTVSPost2010Prop41ColorRGB
 90
        0
102
RTVSPost2010PropOp41
 70
     1
102
RTVSPost2010Prop42
 90
       50
102
RTVSPost2010PropOp42
 70
     1
102
RTVSPost2010Prop43
 90
        3
102
RTVSPost2010PropOp43
 70
     1
102
RTVSPost2010Prop44ColorIndex
 90
        5
102
RTVSPost2010Prop44ColorRGB
 90
      255
102
RTVSPost2010PropOp44
 70
     1
102
RTVSPost2010Prop45
280
     0
102
RTVSPost2010PropOp45
 70
     1
102
RTVSPost2010Prop46
 90
       50
102
RTVSPost2010PropOp46
 70
     1
102
RTVSPost2010Prop47
 90
       50
102
RTVSPost2010PropOp47
 70
     1
102
RTVSPost2010Prop48
 90
       50
102
RTVSPost2010PropOp48
 70
     1
102
RTVSPost2010Prop49
280
     0
102
RTVSPost2010PropOp49
 70
     1
102
RTVSPost2010Prop50
 90
       50
102
RTVSPost2010PropOp50
 70
     1
102
RTVSPost2010Prop51ColorIndex
 90
      256
102
RTVSPost2010Prop51ColorRGB
 90
-16777216
102
RTVSPost2010PropOp51
 70
     0
102
RTVSPost2010Prop52
140
1.0
102
RTVSPost2010PropOp52
 70
     0
102
RTVSPost2010Prop53
 90
        2
102
RTVSPost2010PropOp53
 70
     1
102
RTVSPost2010Prop54
  1
strokes_ogs.tif
102
RTVSPost2010PropOp54
 70
     1
102
RTVSPost2010Prop55
280
     0
102
RTVSPost2010PropOp55
 70
     1
102
RTVSPost2010Prop56
140
1.0
102
RTVSPost2010PropOp56
 70
     1
102
RTVSPost2010Prop57
140
1.0
102
RTVSPost2010PropOp57
 70
     1
  0
XRECORD
  5
363
102
{ACAD_REACTORS
330
362
102
}
330
362
100
AcDbXrecord
280
     1
102
RTVSPropertyOp0
 70
     1
102
RTVSPropertyOp1
 70
     1
102
RTVSPropertyOp2
 70
     1
102
RTVSPropertyOp3
 70
     1
102
RTVSPropertyOp4
 70
     1
102
RTVSPropertyOp5
 70
     1
102
RTVSPropertyOp6
 70
     1
102
RTVSPropertyOp7
 70
     1
102
RTVSPropertyOp8
 70
     1
102
RTVSPropertyOp9
 70
     1
102
RTVSPropertyOp10
 70
     1
102
RTVSPropertyOp11
 70
     1
102
RTVSPropertyOp12
 70
     1
102
RTVSPropertyOp13
 70
     1
102
RTVSPropertyOp14
 70
     1
102
RTVSPropertyOp15
 70
     1
102
RTVSPropertyOp16
 70
     1
102
RTVSPropertyOp17
 70
     1
102
RTVSPropertyOp18
 70
     1
102
RTVSPropertyOp19
 70
     1
102
RTVSPropertyOp20
 70
     1
102
RTVSPropertyOp21
 70
     1
102
RTVSPropertyOp22
 70
     1
102
RTVSPropertyOp23
 70
     1
102
RTVSPropertyOp24
 70
     1
102
RTVSPropertyOp25
 70
     1
102
RTVSPropertyOp26
 70
     1
102
RTVSPropertyOp27
 70
     1
102
RTVSPropertyOp28
 70
     1
102
RTVSPropertyOp29
 70
     1
102
RTVSPropertyOp30
 70
     1
102
RTVSPropertyOp31
 70
     1
102
RTVSPropertyOp32
 70
     1
102
RTVSPropertyOp33
 70
     1
102
RTVSPropertyOp34
 70
     1
102
RTVSPropertyOp35
 70
     1
102
RTVSPropertyOp36
 70
     1
102
RTVSPropertyOp37
 70
     1
102
RTVSPropertyOp38
 70
     1
102
RTVSPropertyOp39
 70
     1
102
RTVSPropertyOp40
 70
     1
102
RTVSPropertyOp41
 70
     1
102
RTVSPropertyOp42
 70
     1
102
RTVSPropertyOp43
 70
     1
102
RTVSPropertyOp44
 70
     1
102
RTVSPropertyOp45
 70
     1
102
RTVSPropertyOp46
 70
     1
102
RTVSPropertyOp47
 70
     1
102
RTVSPropertyOp48
 70
     1
102
RTVSPropertyOp49
 70
     1
102
RTVSPropertyOp50
 70
     1
102
RTVSPropertyOp51
 70
     0
102
RTVSPropertyOp52
 70
     0
102
RTVSPropertyOp53
 70
     1
102
RTVSPropertyOp54
 70
     1
102
RTVSPropertyOp55
 70
     1
102
RTVSPropertyOp56
 70
     1
102
RTVSPropertyOp57
 70
     1
102
RTVSPost2010Prop28
280
     0
102
RTVSPost2010PropOp28
 70
     1
102
RTVSPost2010Prop29
280
     1
102
RTVSPost2010PropOp29
 70
     1
102
RTVSPost2010Prop30
280
     1
102
RTVSPost2010PropOp30
 70
     1
102
RTVSPost2010Prop31
280
     0
102
RTVSPost2010PropOp31
 70
     1
102
RTVSPost2010Prop32
280
     0
102
RTVSPost2010PropOp32
 70
     1
102
RTVSPost2010Prop33
280
     0
102
RTVSPost2010PropOp33
 70
     1
102
RTVSPost2010Prop34
280
     0
102
RTVSPost2010PropOp34
 70
     1
102
RTVSPost2010Prop35
280
     0
102
RTVSPost2010PropOp35
 70
     1
102
RTVSPost2010Prop36
280
     0
102
RTVSPost2010PropOp36
 70
     1
102
RTVSPost2010Prop37
 90
       50
102
RTVSPost2010PropOp37
 70
     1
102
RTVSPost2010Prop38
140
0.0
102
RTVSPost2010PropOp38
 70
     1
102
RTVSPost2010Prop39
140
1.0
102
RTVSPost2010PropOp39
 70
     1
102
RTVSPost2010Prop40
 90
        0
102
RTVSPost2010PropOp40
 70
     1
102
RTVSPost2010Prop41ColorIndex
 90
      178
102
RTVSPost2010Prop41ColorRGB
 90
        0
102
RTVSPost2010PropOp41
 70
     1
102
RTVSPost2010Prop42
 90
       50
102
RTVSPost2010PropOp42
 70
     1
102
RTVSPost2010Prop43
 90
        3
102
RTVSPost2010PropOp43
 70
     1
102
RTVSPost2010Prop44ColorIndex
 90
        5
102
RTVSPost2010Prop44ColorRGB
 90
      255
102
RTVSPost2010PropOp44
 70
     1
102
RTVSPost2010Prop45
280
     0
102
RTVSPost2010PropOp45
 70
     1
102
RTVSPost2010Prop46
 90
       50
102
RTVSPost2010PropOp46
 70
     1
102
RTVSPost2010Prop47
 90
       50
102
RTVSPost2010PropOp47
 70
     1
102
RTVSPost2010Prop48
 90
       50
102
RTVSPost2010PropOp48
 70
     1
102
RTVSPost2010Prop49
280
     0
102
RTVSPost2010PropOp49
 70
     1
102
RTVSPost2010Prop50
 90
       50
102
RTVSPost2010PropOp50
 70
     1
102
RTVSPost2010Prop51ColorIndex
 90
      256
102
RTVSPost2010Prop51ColorRGB
 90
-16777216
102
RTVSPost2010PropOp51
 70
     0
102
RTVSPost2010Prop52
140
1.0
102
RTVSPost2010PropOp52
 70
     0
102
RTVSPost2010Prop53
 90
        2
102
RTVSPost2010PropOp53
 70
     1
102
RTVSPost2010Prop54
  1
strokes_ogs.tif
102
RTVSPost2010PropOp54
 70
     1
102
RTVSPost2010Prop55
280
     0
102
RTVSPost2010PropOp55
 70
     1
102
RTVSPost2010Prop56
140
1.0
102
RTVSPost2010PropOp56
 70
     1
102
RTVSPost2010Prop57
140
1.0
102
RTVSPost2010PropOp57
 70
     1
  0
XRECORD
  5
36B
102
{ACAD_REACTORS
330
36A
102
}
330
36A
100
AcDbXrecord
280
     1
102
RTVSPropertyOp0
 70
     1
102
RTVSPropertyOp1
 70
     1
102
RTVSPropertyOp2
 70
     1
102
RTVSPropertyOp3
 70
     1
102
RTVSPropertyOp4
 70
     1
102
RTVSPropertyOp5
 70
     1
102
RTVSPropertyOp6
 70
     1
102
RTVSPropertyOp7
 70
     1
102
RTVSPropertyOp8
 70
     1
102
RTVSPropertyOp9
 70
     1
102
RTVSPropertyOp10
 70
     1
102
RTVSPropertyOp11
 70
     1
102
RTVSPropertyOp12
 70
     1
102
RTVSPropertyOp13
 70
     1
102
RTVSPropertyOp14
 70
     1
102
RTVSPropertyOp15
 70
     1
102
RTVSPropertyOp16
 70
     1
102
RTVSPropertyOp17
 70
     1
102
RTVSPropertyOp18
 70
     1
102
RTVSPropertyOp19
 70
     1
102
RTVSPropertyOp20
 70
     1
102
RTVSPropertyOp21
 70
     1
102
RTVSPropertyOp22
 70
     1
102
RTVSPropertyOp23
 70
     1
102
RTVSPropertyOp24
 70
     1
102
RTVSPropertyOp25
 70
     1
102
RTVSPropertyOp26
 70
     1
102
RTVSPropertyOp27
 70
     1
102
RTVSPropertyOp28
 70
     1
102
RTVSPropertyOp29
 70
     1
102
RTVSPropertyOp30
 70
     1
102
RTVSPropertyOp31
 70
     1
102
RTVSPropertyOp32
 70
     1
102
RTVSPropertyOp33
 70
     1
102
RTVSPropertyOp34
 70
     1
102
RTVSPropertyOp35
 70
     1
102
RTVSPropertyOp36
 70
     1
102
RTVSPropertyOp37
 70
     1
102
RTVSPropertyOp38
 70
     1
102
RTVSPropertyOp39
 70
     1
102
RTVSPropertyOp40
 70
     1
102
RTVSPropertyOp41
 70
     1
102
RTVSPropertyOp42
 70
     1
102
RTVSPropertyOp43
 70
     1
102
RTVSPropertyOp44
 70
     1
102
RTVSPropertyOp45
 70
     1
102
RTVSPropertyOp46
 70
     1
102
RTVSPropertyOp47
 70
     1
102
RTVSPropertyOp48
 70
     1
102
RTVSPropertyOp49
 70
     1
102
RTVSPropertyOp50
 70
     1
102
RTVSPropertyOp51
 70
     0
102
RTVSPropertyOp52
 70
     0
102
RTVSPropertyOp53
 70
     1
102
RTVSPropertyOp54
 70
     1
102
RTVSPropertyOp55
 70
     1
102
RTVSPropertyOp56
 70
     1
102
RTVSPropertyOp57
 70
     1
102
RTVSPost2010Prop28
280
     0
102
RTVSPost2010PropOp28
 70
     1
102
RTVSPost2010Prop29
280
     1
102
RTVSPost2010PropOp29
 70
     1
102
RTVSPost2010Prop30
280
     1
102
RTVSPost2010PropOp30
 70
     1
102
RTVSPost2010Prop31
280
     0
102
RTVSPost2010PropOp31
 70
     1
102
RTVSPost2010Prop32
280
     0
102
RTVSPost2010PropOp32
 70
     1
102
RTVSPost2010Prop33
280
     0
102
RTVSPost2010PropOp33
 70
     1
102
RTVSPost2010Prop34
280
     0
102
RTVSPost2010PropOp34
 70
     1
102
RTVSPost2010Prop35
280
     0
102
RTVSPost2010PropOp35
 70
     1
102
RTVSPost2010Prop36
280
     0
102
RTVSPost2010PropOp36
 70
     1
102
RTVSPost2010Prop37
 90
       50
102
RTVSPost2010PropOp37
 70
     1
102
RTVSPost2010Prop38
140
0.0
102
RTVSPost2010PropOp38
 70
     1
102
RTVSPost2010Prop39
140
1.0
102
RTVSPost2010PropOp39
 70
     1
102
RTVSPost2010Prop40
 90
        0
102
RTVSPost2010PropOp40
 70
     1
102
RTVSPost2010Prop41ColorIndex
 90
      178
102
RTVSPost2010Prop41ColorRGB
 90
        0
102
RTVSPost2010PropOp41
 70
     1
102
RTVSPost2010Prop42
 90
       50
102
RTVSPost2010PropOp42
 70
     1
102
RTVSPost2010Prop43
 90
        3
102
RTVSPost2010PropOp43
 70
     1
102
RTVSPost2010Prop44ColorIndex
 90
        5
102
RTVSPost2010Prop44ColorRGB
 90
      255
102
RTVSPost2010PropOp44
 70
     1
102
RTVSPost2010Prop45
280
     0
102
RTVSPost2010PropOp45
 70
     1
102
RTVSPost2010Prop46
 90
       50
102
RTVSPost2010PropOp46
 70
     1
102
RTVSPost2010Prop47
 90
       50
102
RTVSPost2010PropOp47
 70
     1
102
RTVSPost2010Prop48
 90
       50
102
RTVSPost2010PropOp48
 70
     1
102
RTVSPost2010Prop49
280
     0
102
RTVSPost2010PropOp49
 70
     1
102
RTVSPost2010Prop50
 90
       50
102
RTVSPost2010PropOp50
 70
     1
102
RTVSPost2010Prop51ColorIndex
 90
      256
102
RTVSPost2010Prop51ColorRGB
 90
-16777216
102
RTVSPost2010PropOp51
 70
     0
102
RTVSPost2010Prop52
140
1.0
102
RTVSPost2010PropOp52
 70
     0
102
RTVSPost2010Prop53
 90
        2
102
RTVSPost2010PropOp53
 70
     1
102
RTVSPost2010Prop54
  1
strokes_ogs.tif
102
RTVSPost2010PropOp54
 70
     1
102
RTVSPost2010Prop55
280
     0
102
RTVSPost2010PropOp55
 70
     1
102
RTVSPost2010Prop56
140
1.0
102
RTVSPost2010PropOp56
 70
     1
102
RTVSPost2010Prop57
140
1.0
102
RTVSPost2010PropOp57
 70
     1
  0
XRECORD
  5
373
102
{ACAD_REACTORS
330
372
102
}
330
372
100
AcDbXrecord
280
     1
102
RTVSPropertyOp0
 70
     1
102
RTVSPropertyOp1
 70
     1
102
RTVSPropertyOp2
 70
     1
102
RTVSPropertyOp3
 70
     1
102
RTVSPropertyOp4
 70
     1
102
RTVSPropertyOp5
 70
     1
102
RTVSPropertyOp6
 70
     1
102
RTVSPropertyOp7
 70
     1
102
RTVSPropertyOp8
 70
     1
102
RTVSPropertyOp9
 70
     1
102
RTVSPropertyOp10
 70
     1
102
RTVSPropertyOp11
 70
     1
102
RTVSPropertyOp12
 70
     1
102
RTVSPropertyOp13
 70
     1
102
RTVSPropertyOp14
 70
     1
102
RTVSPropertyOp15
 70
     1
102
RTVSPropertyOp16
 70
     1
102
RTVSPropertyOp17
 70
     1
102
RTVSPropertyOp18
 70
     1
102
RTVSPropertyOp19
 70
     1
102
RTVSPropertyOp20
 70
     1
102
RTVSPropertyOp21
 70
     1
102
RTVSPropertyOp22
 70
     1
102
RTVSPropertyOp23
 70
     1
102
RTVSPropertyOp24
 70
     1
102
RTVSPropertyOp25
 70
     1
102
RTVSPropertyOp26
 70
     1
102
RTVSPropertyOp27
 70
     1
102
RTVSPropertyOp28
 70
     1
102
RTVSPropertyOp29
 70
     1
102
RTVSPropertyOp30
 70
     1
102
RTVSPropertyOp31
 70
     1
102
RTVSPropertyOp32
 70
     1
102
RTVSPropertyOp33
 70
     1
102
RTVSPropertyOp34
 70
     1
102
RTVSPropertyOp35
 70
     1
102
RTVSPropertyOp36
 70
     1
102
RTVSPropertyOp37
 70
     1
102
RTVSPropertyOp38
 70
     1
102
RTVSPropertyOp39
 70
     1
102
RTVSPropertyOp40
 70
     1
102
RTVSPropertyOp41
 70
     1
102
RTVSPropertyOp42
 70
     1
102
RTVSPropertyOp43
 70
     1
102
RTVSPropertyOp44
 70
     1
102
RTVSPropertyOp45
 70
     1
102
RTVSPropertyOp46
 70
     1
102
RTVSPropertyOp47
 70
     1
102
RTVSPropertyOp48
 70
     1
102
RTVSPropertyOp49
 70
     1
102
RTVSPropertyOp50
 70
     1
102
RTVSPropertyOp51
 70
     0
102
RTVSPropertyOp52
 70
     0
102
RTVSPropertyOp53
 70
     1
102
RTVSPropertyOp54
 70
     1
102
RTVSPropertyOp55
 70
     1
102
RTVSPropertyOp56
 70
     1
102
RTVSPropertyOp57
 70
     1
102
RTVSPost2010Prop28
280
     0
102
RTVSPost2010PropOp28
 70
     1
102
RTVSPost2010Prop29
280
     1
102
RTVSPost2010PropOp29
 70
     1
102
RTVSPost2010Prop30
280
     1
102
RTVSPost2010PropOp30
 70
     1
102
RTVSPost2010Prop31
280
     0
102
RTVSPost2010PropOp31
 70
     1
102
RTVSPost2010Prop32
280
     0
102
RTVSPost2010PropOp32
 70
     1
102
RTVSPost2010Prop33
280
     0
102
RTVSPost2010PropOp33
 70
     1
102
RTVSPost2010Prop34
280
     0
102
RTVSPost2010PropOp34
 70
     1
102
RTVSPost2010Prop35
280
     0
102
RTVSPost2010PropOp35
 70
     1
102
RTVSPost2010Prop36
280
     0
102
RTVSPost2010PropOp36
 70
     1
102
RTVSPost2010Prop37
 90
       50
102
RTVSPost2010PropOp37
 70
     1
102
RTVSPost2010Prop38
140
0.0
102
RTVSPost2010PropOp38
 70
     1
102
RTVSPost2010Prop39
140
1.0
102
RTVSPost2010PropOp39
 70
     1
102
RTVSPost2010Prop40
 90
        0
102
RTVSPost2010PropOp40
 70
     1
102
RTVSPost2010Prop41ColorIndex
 90
      178
102
RTVSPost2010Prop41ColorRGB
 90
        0
102
RTVSPost2010PropOp41
 70
     1
102
RTVSPost2010Prop42
 90
       50
102
RTVSPost2010PropOp42
 70
     1
102
RTVSPost2010Prop43
 90
        3
102
RTVSPost2010PropOp43
 70
     1
102
RTVSPost2010Prop44ColorIndex
 90
        5
102
RTVSPost2010Prop44ColorRGB
 90
      255
102
RTVSPost2010PropOp44
 70
     1
102
RTVSPost2010Prop45
280
     0
102
RTVSPost2010PropOp45
 70
     1
102
RTVSPost2010Prop46
 90
       50
102
RTVSPost2010PropOp46
 70
     1
102
RTVSPost2010Prop47
 90
       50
102
RTVSPost2010PropOp47
 70
     1
102
RTVSPost2010Prop48
 90
       50
102
RTVSPost2010PropOp48
 70
     1
102
RTVSPost2010Prop49
280
     0
102
RTVSPost2010PropOp49
 70
     1
102
RTVSPost2010Prop50
 90
       50
102
RTVSPost2010PropOp50
 70
     1
102
RTVSPost2010Prop51ColorIndex
 90
      256
102
RTVSPost2010Prop51ColorRGB
 90
-16777216
102
RTVSPost2010PropOp51
 70
     0
102
RTVSPost2010Prop52
140
1.0
102
RTVSPost2010PropOp52
 70
     0
102
RTVSPost2010Prop53
 90
        2
102
RTVSPost2010PropOp53
 70
     1
102
RTVSPost2010Prop54
  1
strokes_ogs.tif
102
RTVSPost2010PropOp54
 70
     1
102
RTVSPost2010Prop55
280
     0
102
RTVSPost2010PropOp55
 70
     1
102
RTVSPost2010Prop56
140
1.0
102
RTVSPost2010PropOp56
 70
     1
102
RTVSPost2010Prop57
140
1.0
102
RTVSPost2010PropOp57
 70
     1
  0
XRECORD
  5
367
102
{ACAD_REACTORS
330
366
102
}
330
366
100
AcDbXrecord
280
     1
102
RTVSPropertyOp0
 70
     1
102
RTVSPropertyOp1
 70
     1
102
RTVSPropertyOp2
 70
     1
102
RTVSPropertyOp3
 70
     1
102
RTVSPropertyOp4
 70
     1
102
RTVSPropertyOp5
 70
     1
102
RTVSPropertyOp6
 70
     1
102
RTVSPropertyOp7
 70
     1
102
RTVSPropertyOp8
 70
     1
102
RTVSPropertyOp9
 70
     1
102
RTVSPropertyOp10
 70
     1
102
RTVSPropertyOp11
 70
     1
102
RTVSPropertyOp12
 70
     1
102
RTVSPropertyOp13
 70
     1
102
RTVSPropertyOp14
 70
     1
102
RTVSPropertyOp15
 70
     1
102
RTVSPropertyOp16
 70
     1
102
RTVSPropertyOp17
 70
     1
102
RTVSPropertyOp18
 70
     1
102
RTVSPropertyOp19
 70
     1
102
RTVSPropertyOp20
 70
     1
102
RTVSPropertyOp21
 70
     1
102
RTVSPropertyOp22
 70
     1
102
RTVSPropertyOp23
 70
     1
102
RTVSPropertyOp24
 70
     1
102
RTVSPropertyOp25
 70
     1
102
RTVSPropertyOp26
 70
     1
102
RTVSPropertyOp27
 70
     1
102
RTVSPropertyOp28
 70
     1
102
RTVSPropertyOp29
 70
     1
102
RTVSPropertyOp30
 70
     1
102
RTVSPropertyOp31
 70
     1
102
RTVSPropertyOp32
 70
     1
102
RTVSPropertyOp33
 70
     1
102
RTVSPropertyOp34
 70
     1
102
RTVSPropertyOp35
 70
     1
102
RTVSPropertyOp36
 70
     1
102
RTVSPropertyOp37
 70
     1
102
RTVSPropertyOp38
 70
     1
102
RTVSPropertyOp39
 70
     1
102
RTVSPropertyOp40
 70
     1
102
RTVSPropertyOp41
 70
     1
102
RTVSPropertyOp42
 70
     1
102
RTVSPropertyOp43
 70
     1
102
RTVSPropertyOp44
 70
     1
102
RTVSPropertyOp45
 70
     1
102
RTVSPropertyOp46
 70
     1
102
RTVSPropertyOp47
 70
     1
102
RTVSPropertyOp48
 70
     1
102
RTVSPropertyOp49
 70
     1
102
RTVSPropertyOp50
 70
     1
102
RTVSPropertyOp51
 70
     0
102
RTVSPropertyOp52
 70
     0
102
RTVSPropertyOp53
 70
     1
102
RTVSPropertyOp54
 70
     1
102
RTVSPropertyOp55
 70
     1
102
RTVSPropertyOp56
 70
     1
102
RTVSPropertyOp57
 70
     1
102
RTVSPost2010Prop28
280
     0
102
RTVSPost2010PropOp28
 70
     1
102
RTVSPost2010Prop29
280
     1
102
RTVSPost2010PropOp29
 70
     1
102
RTVSPost2010Prop30
280
     1
102
RTVSPost2010PropOp30
 70
     1
102
RTVSPost2010Prop31
280
     0
102
RTVSPost2010PropOp31
 70
     1
102
RTVSPost2010Prop32
280
     0
102
RTVSPost2010PropOp32
 70
     1
102
RTVSPost2010Prop33
280
     0
102
RTVSPost2010PropOp33
 70
     1
102
RTVSPost2010Prop34
280
     0
102
RTVSPost2010PropOp34
 70
     1
102
RTVSPost2010Prop35
280
     0
102
RTVSPost2010PropOp35
 70
     1
102
RTVSPost2010Prop36
280
     0
102
RTVSPost2010PropOp36
 70
     1
102
RTVSPost2010Prop37
 90
       50
102
RTVSPost2010PropOp37
 70
     1
102
RTVSPost2010Prop38
140
0.0
102
RTVSPost2010PropOp38
 70
     1
102
RTVSPost2010Prop39
140
1.0
102
RTVSPost2010PropOp39
 70
     1
102
RTVSPost2010Prop40
 90
        0
102
RTVSPost2010PropOp40
 70
     1
102
RTVSPost2010Prop41ColorIndex
 90
      178
102
RTVSPost2010Prop41ColorRGB
 90
        0
102
RTVSPost2010PropOp41
 70
     1
102
RTVSPost2010Prop42
 90
       50
102
RTVSPost2010PropOp42
 70
     1
102
RTVSPost2010Prop43
 90
        3
102
RTVSPost2010PropOp43
 70
     1
102
RTVSPost2010Prop44ColorIndex
 90
        5
102
RTVSPost2010Prop44ColorRGB
 90
      255
102
RTVSPost2010PropOp44
 70
     1
102
RTVSPost2010Prop45
280
     0
102
RTVSPost2010PropOp45
 70
     1
102
RTVSPost2010Prop46
 90
       50
102
RTVSPost2010PropOp46
 70
     1
102
RTVSPost2010Prop47
 90
       50
102
RTVSPost2010PropOp47
 70
     1
102
RTVSPost2010Prop48
 90
       50
102
RTVSPost2010PropOp48
 70
     1
102
RTVSPost2010Prop49
280
     0
102
RTVSPost2010PropOp49
 70
     1
102
RTVSPost2010Prop50
 90
       50
102
RTVSPost2010PropOp50
 70
     1
102
RTVSPost2010Prop51ColorIndex
 90
      256
102
RTVSPost2010Prop51ColorRGB
 90
-16777216
102
RTVSPost2010PropOp51
 70
     0
102
RTVSPost2010Prop52
140
1.0
102
RTVSPost2010PropOp52
 70
     0
102
RTVSPost2010Prop53
 90
        2
102
RTVSPost2010PropOp53
 70
     1
102
RTVSPost2010Prop54
  1
strokes_ogs.tif
102
RTVSPost2010PropOp54
 70
     1
102
RTVSPost2010Prop55
280
     0
102
RTVSPost2010PropOp55
 70
     1
102
RTVSPost2010Prop56
140
1.0
102
RTVSPost2010PropOp56
 70
     1
102
RTVSPost2010Prop57
140
1.0
102
RTVSPost2010PropOp57
 70
     1
  0
XRECORD
  5
369
102
{ACAD_REACTORS
330
368
102
}
330
368
100
AcDbXrecord
280
     1
102
RTVSPropertyOp0
 70
     1
102
RTVSPropertyOp1
 70
     1
102
RTVSPropertyOp2
 70
     1
102
RTVSPropertyOp3
 70
     1
102
RTVSPropertyOp4
 70
     1
102
RTVSPropertyOp5
 70
     1
102
RTVSPropertyOp6
 70
     1
102
RTVSPropertyOp7
 70
     1
102
RTVSPropertyOp8
 70
     1
102
RTVSPropertyOp9
 70
     1
102
RTVSPropertyOp10
 70
     1
102
RTVSPropertyOp11
 70
     1
102
RTVSPropertyOp12
 70
     1
102
RTVSPropertyOp13
 70
     1
102
RTVSPropertyOp14
 70
     1
102
RTVSPropertyOp15
 70
     1
102
RTVSPropertyOp16
 70
     1
102
RTVSPropertyOp17
 70
     1
102
RTVSPropertyOp18
 70
     1
102
RTVSPropertyOp19
 70
     1
102
RTVSPropertyOp20
 70
     1
102
RTVSPropertyOp21
 70
     1
102
RTVSPropertyOp22
 70
     1
102
RTVSPropertyOp23
 70
     1
102
RTVSPropertyOp24
 70
     1
102
RTVSPropertyOp25
 70
     1
102
RTVSPropertyOp26
 70
     1
102
RTVSPropertyOp27
 70
     1
102
RTVSPropertyOp28
 70
     1
102
RTVSPropertyOp29
 70
     1
102
RTVSPropertyOp30
 70
     1
102
RTVSPropertyOp31
 70
     1
102
RTVSPropertyOp32
 70
     1
102
RTVSPropertyOp33
 70
     1
102
RTVSPropertyOp34
 70
     1
102
RTVSPropertyOp35
 70
     1
102
RTVSPropertyOp36
 70
     1
102
RTVSPropertyOp37
 70
     1
102
RTVSPropertyOp38
 70
     1
102
RTVSPropertyOp39
 70
     1
102
RTVSPropertyOp40
 70
     1
102
RTVSPropertyOp41
 70
     1
102
RTVSPropertyOp42
 70
     1
102
RTVSPropertyOp43
 70
     1
102
RTVSPropertyOp44
 70
     1
102
RTVSPropertyOp45
 70
     1
102
RTVSPropertyOp46
 70
     1
102
RTVSPropertyOp47
 70
     1
102
RTVSPropertyOp48
 70
     1
102
RTVSPropertyOp49
 70
     1
102
RTVSPropertyOp50
 70
     1
102
RTVSPropertyOp51
 70
     0
102
RTVSPropertyOp52
 70
     0
102
RTVSPropertyOp53
 70
     1
102
RTVSPropertyOp54
 70
     1
102
RTVSPropertyOp55
 70
     1
102
RTVSPropertyOp56
 70
     1
102
RTVSPropertyOp57
 70
     1
102
RTVSPost2010Prop28
280
     0
102
RTVSPost2010PropOp28
 70
     1
102
RTVSPost2010Prop29
280
     1
102
RTVSPost2010PropOp29
 70
     1
102
RTVSPost2010Prop30
280
     1
102
RTVSPost2010PropOp30
 70
     1
102
RTVSPost2010Prop31
280
     0
102
RTVSPost2010PropOp31
 70
     1
102
RTVSPost2010Prop32
280
     0
102
RTVSPost2010PropOp32
 70
     1
102
RTVSPost2010Prop33
280
     0
102
RTVSPost2010PropOp33
 70
     1
102
RTVSPost2010Prop34
280
     0
102
RTVSPost2010PropOp34
 70
     1
102
RTVSPost2010Prop35
280
     0
102
RTVSPost2010PropOp35
 70
     1
102
RTVSPost2010Prop36
280
     0
102
RTVSPost2010PropOp36
 70
     1
102
RTVSPost2010Prop37
 90
       50
102
RTVSPost2010PropOp37
 70
     1
102
RTVSPost2010Prop38
140
0.0
102
RTVSPost2010PropOp38
 70
     1
102
RTVSPost2010Prop39
140
1.0
102
RTVSPost2010PropOp39
 70
     1
102
RTVSPost2010Prop40
 90
        0
102
RTVSPost2010PropOp40
 70
     1
102
RTVSPost2010Prop41ColorIndex
 90
      178
102
RTVSPost2010Prop41ColorRGB
 90
        0
102
RTVSPost2010PropOp41
 70
     1
102
RTVSPost2010Prop42
 90
       50
102
RTVSPost2010PropOp42
 70
     1
102
RTVSPost2010Prop43
 90
        3
102
RTVSPost2010PropOp43
 70
     1
102
RTVSPost2010Prop44ColorIndex
 90
        5
102
RTVSPost2010Prop44ColorRGB
 90
      255
102
RTVSPost2010PropOp44
 70
     1
102
RTVSPost2010Prop45
280
     0
102
RTVSPost2010PropOp45
 70
     1
102
RTVSPost2010Prop46
 90
       50
102
RTVSPost2010PropOp46
 70
     1
102
RTVSPost2010Prop47
 90
       50
102
RTVSPost2010PropOp47
 70
     1
102
RTVSPost2010Prop48
 90
       50
102
RTVSPost2010PropOp48
 70
     1
102
RTVSPost2010Prop49
280
     0
102
RTVSPost2010PropOp49
 70
     1
102
RTVSPost2010Prop50
 90
       50
102
RTVSPost2010PropOp50
 70
     1
102
RTVSPost2010Prop51ColorIndex
 90
      256
102
RTVSPost2010Prop51ColorRGB
 90
-16777216
102
RTVSPost2010PropOp51
 70
     0
102
RTVSPost2010Prop52
140
1.0
102
RTVSPost2010PropOp52
 70
     0
102
RTVSPost2010Prop53
 90
        2
102
RTVSPost2010PropOp53
 70
     1
102
RTVSPost2010Prop54
  1
strokes_ogs.tif
102
RTVSPost2010PropOp54
 70
     1
102
RTVSPost2010Prop55
280
     0
102
RTVSPost2010PropOp55
 70
     1
102
RTVSPost2010Prop56
140
1.0
102
RTVSPost2010PropOp56
 70
     1
102
RTVSPost2010Prop57
140
1.0
102
RTVSPost2010PropOp57
 70
     1
  0
XRECORD
  5
379
102
{ACAD_REACTORS
330
378
102
}
330
378
100
AcDbXrecord
280
     1
102
RTVSPropertyOp0
 70
     0
102
RTVSPropertyOp1
 70
     0
102
RTVSPropertyOp2
 70
     0
102
RTVSPropertyOp3
 70
     0
102
RTVSPropertyOp4
 70
     0
102
RTVSPropertyOp5
 70
     0
102
RTVSPropertyOp6
 70
     0
102
RTVSPropertyOp7
 70
     0
102
RTVSPropertyOp8
 70
     0
102
RTVSPropertyOp9
 70
     0
102
RTVSPropertyOp10
 70
     0
102
RTVSPropertyOp11
 70
     0
102
RTVSPropertyOp12
 70
     0
102
RTVSPropertyOp13
 70
     0
102
RTVSPropertyOp14
 70
     2
102
RTVSPropertyOp15
 70
     0
102
RTVSPropertyOp16
 70
     0
102
RTVSPropertyOp17
 70
     0
102
RTVSPropertyOp18
 70
     0
102
RTVSPropertyOp19
 70
     0
102
RTVSPropertyOp20
 70
     0
102
RTVSPropertyOp21
 70
     0
102
RTVSPropertyOp22
 70
     0
102
RTVSPropertyOp23
 70
     0
102
RTVSPropertyOp24
 70
     0
102
RTVSPropertyOp25
 70
     0
102
RTVSPropertyOp26
 70
     0
102
RTVSPropertyOp27
 70
     0
102
RTVSPropertyOp28
 70
     0
102
RTVSPropertyOp29
 70
     0
102
RTVSPropertyOp30
 70
     0
102
RTVSPropertyOp31
 70
     0
102
RTVSPropertyOp32
 70
     0
102
RTVSPropertyOp33
 70
     0
102
RTVSPropertyOp34
 70
     0
102
RTVSPropertyOp35
 70
     0
102
RTVSPropertyOp36
 70
     0
102
RTVSPropertyOp37
 70
     0
102
RTVSPropertyOp38
 70
     0
102
RTVSPropertyOp39
 70
     0
102
RTVSPropertyOp40
 70
     0
102
RTVSPropertyOp41
 70
     0
102
RTVSPropertyOp42
 70
     0
102
RTVSPropertyOp43
 70
     0
102
RTVSPropertyOp44
 70
     0
102
RTVSPropertyOp45
 70
     0
102
RTVSPropertyOp46
 70
     0
102
RTVSPropertyOp47
 70
     0
102
RTVSPropertyOp48
 70
     0
102
RTVSPropertyOp49
 70
     0
102
RTVSPropertyOp50
 70
     0
102
RTVSPropertyOp51
 70
     0
102
RTVSPropertyOp52
 70
     0
102
RTVSPropertyOp53
 70
     0
102
RTVSPropertyOp54
 70
     0
102
RTVSPropertyOp55
 70
     0
102
RTVSPropertyOp56
 70
     0
102
RTVSPropertyOp57
 70
     0
102
RTVSPost2010Prop28
280
     0
102
RTVSPost2010PropOp28
 70
     0
102
RTVSPost2010Prop29
280
     1
102
RTVSPost2010PropOp29
 70
     0
102
RTVSPost2010Prop30
280
     1
102
RTVSPost2010PropOp30
 70
     0
102
RTVSPost2010Prop31
280
     0
102
RTVSPost2010PropOp31
 70
     0
102
RTVSPost2010Prop32
280
     0
102
RTVSPost2010PropOp32
 70
     0
102
RTVSPost2010Prop33
280
     0
102
RTVSPost2010PropOp33
 70
     0
102
RTVSPost2010Prop34
280
     0
102
RTVSPost2010PropOp34
 70
     0
102
RTVSPost2010Prop35
280
     0
102
RTVSPost2010PropOp35
 70
     0
102
RTVSPost2010Prop36
280
     0
102
RTVSPost2010PropOp36
 70
     0
102
RTVSPost2010Prop37
 90
       50
102
RTVSPost2010PropOp37
 70
     0
102
RTVSPost2010Prop38
140
0.0
102
RTVSPost2010PropOp38
 70
     0
102
RTVSPost2010Prop39
140
1.0
102
RTVSPost2010PropOp39
 70
     0
102
RTVSPost2010Prop40
 90
        0
102
RTVSPost2010PropOp40
 70
     0
102
RTVSPost2010Prop41ColorIndex
 90
      178
102
RTVSPost2010Prop41ColorRGB
 90
        0
102
RTVSPost2010PropOp41
 70
     0
102
RTVSPost2010Prop42
 90
       50
102
RTVSPost2010PropOp42
 70
     0
102
RTVSPost2010Prop43
 90
        3
102
RTVSPost2010PropOp43
 70
     0
102
RTVSPost2010Prop44ColorIndex
 90
        5
102
RTVSPost2010Prop44ColorRGB
 90
      255
102
RTVSPost2010PropOp44
 70
     0
102
RTVSPost2010Prop45
280
     0
102
RTVSPost2010PropOp45
 70
     0
102
RTVSPost2010Prop46
 90
       50
102
RTVSPost2010PropOp46
 70
     0
102
RTVSPost2010Prop47
 90
       50
102
RTVSPost2010PropOp47
 70
     0
102
RTVSPost2010Prop48
 90
       50
102
RTVSPost2010PropOp48
 70
     0
102
RTVSPost2010Prop49
280
     0
102
RTVSPost2010PropOp49
 70
     0
102
RTVSPost2010Prop50
 90
       50
102
RTVSPost2010PropOp50
 70
     0
102
RTVSPost2010Prop51ColorIndex
 90
      256
102
RTVSPost2010Prop51ColorRGB
 90
-16777216
102
RTVSPost2010PropOp51
 70
     0
102
RTVSPost2010Prop52
140
1.0
102
RTVSPost2010PropOp52
 70
     0
102
RTVSPost2010Prop53
 90
        2
102
RTVSPost2010PropOp53
 70
     0
102
RTVSPost2010Prop54
  1
strokes_ogs.tif
102
RTVSPost2010PropOp54
 70
     0
102
RTVSPost2010Prop55
280
     0
102
RTVSPost2010PropOp55
 70
     0
102
RTVSPost2010Prop56
140
1.0
102
RTVSPost2010PropOp56
 70
     0
102
RTVSPost2010Prop57
140
1.0
102
RTVSPost2010PropOp57
 70
     0
  0
XRECORD
  5
371
102
{ACAD_REACTORS
330
370
102
}
330
370
100
AcDbXrecord
280
     1
102
RTVSPropertyOp0
 70
     1
102
RTVSPropertyOp1
 70
     1
102
RTVSPropertyOp2
 70
     1
102
RTVSPropertyOp3
 70
     1
102
RTVSPropertyOp4
 70
     1
102
RTVSPropertyOp5
 70
     1
102
RTVSPropertyOp6
 70
     1
102
RTVSPropertyOp7
 70
     1
102
RTVSPropertyOp8
 70
     1
102
RTVSPropertyOp9
 70
     1
102
RTVSPropertyOp10
 70
     1
102
RTVSPropertyOp11
 70
     1
102
RTVSPropertyOp12
 70
     1
102
RTVSPropertyOp13
 70
     1
102
RTVSPropertyOp14
 70
     1
102
RTVSPropertyOp15
 70
     1
102
RTVSPropertyOp16
 70
     1
102
RTVSPropertyOp17
 70
     1
102
RTVSPropertyOp18
 70
     1
102
RTVSPropertyOp19
 70
     1
102
RTVSPropertyOp20
 70
     1
102
RTVSPropertyOp21
 70
     1
102
RTVSPropertyOp22
 70
     1
102
RTVSPropertyOp23
 70
     1
102
RTVSPropertyOp24
 70
     1
102
RTVSPropertyOp25
 70
     1
102
RTVSPropertyOp26
 70
     1
102
RTVSPropertyOp27
 70
     1
102
RTVSPropertyOp28
 70
     1
102
RTVSPropertyOp29
 70
     1
102
RTVSPropertyOp30
 70
     1
102
RTVSPropertyOp31
 70
     1
102
RTVSPropertyOp32
 70
     1
102
RTVSPropertyOp33
 70
     1
102
RTVSPropertyOp34
 70
     1
102
RTVSPropertyOp35
 70
     1
102
RTVSPropertyOp36
 70
     1
102
RTVSPropertyOp37
 70
     1
102
RTVSPropertyOp38
 70
     1
102
RTVSPropertyOp39
 70
     1
102
RTVSPropertyOp40
 70
     1
102
RTVSPropertyOp41
 70
     1
102
RTVSPropertyOp42
 70
     1
102
RTVSPropertyOp43
 70
     1
102
RTVSPropertyOp44
 70
     1
102
RTVSPropertyOp45
 70
     1
102
RTVSPropertyOp46
 70
     1
102
RTVSPropertyOp47
 70
     1
102
RTVSPropertyOp48
 70
     1
102
RTVSPropertyOp49
 70
     1
102
RTVSPropertyOp50
 70
     1
102
RTVSPropertyOp51
 70
     0
102
RTVSPropertyOp52
 70
     0
102
RTVSPropertyOp53
 70
     1
102
RTVSPropertyOp54
 70
     1
102
RTVSPropertyOp55
 70
     1
102
RTVSPropertyOp56
 70
     1
102
RTVSPropertyOp57
 70
     1
102
RTVSPost2010Prop28
280
     0
102
RTVSPost2010PropOp28
 70
     1
102
RTVSPost2010Prop29
280
     1
102
RTVSPost2010PropOp29
 70
     1
102
RTVSPost2010Prop30
280
     1
102
RTVSPost2010PropOp30
 70
     1
102
RTVSPost2010Prop31
280
     0
102
RTVSPost2010PropOp31
 70
     1
102
RTVSPost2010Prop32
280
     0
102
RTVSPost2010PropOp32
 70
     1
102
RTVSPost2010Prop33
280
     0
102
RTVSPost2010PropOp33
 70
     1
102
RTVSPost2010Prop34
280
     0
102
RTVSPost2010PropOp34
 70
     1
102
RTVSPost2010Prop35
280
     0
102
RTVSPost2010PropOp35
 70
     1
102
RTVSPost2010Prop36
280
     0
102
RTVSPost2010PropOp36
 70
     1
102
RTVSPost2010Prop37
 90
       50
102
RTVSPost2010PropOp37
 70
     1
102
RTVSPost2010Prop38
140
0.0
102
RTVSPost2010PropOp38
 70
     1
102
RTVSPost2010Prop39
140
1.0
102
RTVSPost2010PropOp39
 70
     1
102
RTVSPost2010Prop40
 90
        0
102
RTVSPost2010PropOp40
 70
     1
102
RTVSPost2010Prop41ColorIndex
 90
      178
102
RTVSPost2010Prop41ColorRGB
 90
        0
102
RTVSPost2010PropOp41
 70
     1
102
RTVSPost2010Prop42
 90
       50
102
RTVSPost2010PropOp42
 70
     1
102
RTVSPost2010Prop43
 90
        3
102
RTVSPost2010PropOp43
 70
     1
102
RTVSPost2010Prop44ColorIndex
 90
        5
102
RTVSPost2010Prop44ColorRGB
 90
      255
102
RTVSPost2010PropOp44
 70
     1
102
RTVSPost2010Prop45
280
     0
102
RTVSPost2010PropOp45
 70
     1
102
RTVSPost2010Prop46
 90
       50
102
RTVSPost2010PropOp46
 70
     1
102
RTVSPost2010Prop47
 90
       50
102
RTVSPost2010PropOp47
 70
     1
102
RTVSPost2010Prop48
 90
       50
102
RTVSPost2010PropOp48
 70
     1
102
RTVSPost2010Prop49
280
     0
102
RTVSPost2010PropOp49
 70
     1
102
RTVSPost2010Prop50
 90
       50
102
RTVSPost2010PropOp50
 70
     1
102
RTVSPost2010Prop51ColorIndex
 90
      256
102
RTVSPost2010Prop51ColorRGB
 90
-16777216
102
RTVSPost2010PropOp51
 70
     0
102
RTVSPost2010Prop52
140
1.0
102
RTVSPost2010PropOp52
 70
     0
102
RTVSPost2010Prop53
 90
        2
102
RTVSPost2010PropOp53
 70
     1
102
RTVSPost2010Prop54
  1
strokes_ogs.tif
102
RTVSPost2010PropOp54
 70
     1
102
RTVSPost2010Prop55
280
     0
102
RTVSPost2010PropOp55
 70
     1
102
RTVSPost2010Prop56
140
1.0
102
RTVSPost2010PropOp56
 70
     1
102
RTVSPost2010Prop57
140
1.0
102
RTVSPost2010PropOp57
 70
     1
  0
XRECORD
  5
355
102
{ACAD_REACTORS
330
354
102
}
330
354
100
AcDbXrecord
280
     1
102
RTVSPropertyOp0
 70
     1
102
RTVSPropertyOp1
 70
     1
102
RTVSPropertyOp2
 70
     1
102
RTVSPropertyOp3
 70
     1
102
RTVSPropertyOp4
 70
     1
102
RTVSPropertyOp5
 70
     1
102
RTVSPropertyOp6
 70
     1
102
RTVSPropertyOp7
 70
     1
102
RTVSPropertyOp8
 70
     1
102
RTVSPropertyOp9
 70
     1
102
RTVSPropertyOp10
 70
     1
102
RTVSPropertyOp11
 70
     1
102
RTVSPropertyOp12
 70
     1
102
RTVSPropertyOp13
 70
     1
102
RTVSPropertyOp14
 70
     1
102
RTVSPropertyOp15
 70
     1
102
RTVSPropertyOp16
 70
     1
102
RTVSPropertyOp17
 70
     1
102
RTVSPropertyOp18
 70
     1
102
RTVSPropertyOp19
 70
     1
102
RTVSPropertyOp20
 70
     1
102
RTVSPropertyOp21
 70
     1
102
RTVSPropertyOp22
 70
     1
102
RTVSPropertyOp23
 70
     1
102
RTVSPropertyOp24
 70
     1
102
RTVSPropertyOp25
 70
     1
102
RTVSPropertyOp26
 70
     1
102
RTVSPropertyOp27
 70
     1
102
RTVSPropertyOp28
 70
     1
102
RTVSPropertyOp29
 70
     1
102
RTVSPropertyOp30
 70
     1
102
RTVSPropertyOp31
 70
     1
102
RTVSPropertyOp32
 70
     1
102
RTVSPropertyOp33
 70
     1
102
RTVSPropertyOp34
 70
     1
102
RTVSPropertyOp35
 70
     1
102
RTVSPropertyOp36
 70
     1
102
RTVSPropertyOp37
 70
     1
102
RTVSPropertyOp38
 70
     1
102
RTVSPropertyOp39
 70
     1
102
RTVSPropertyOp40
 70
     1
102
RTVSPropertyOp41
 70
     1
102
RTVSPropertyOp42
 70
     1
102
RTVSPropertyOp43
 70
     1
102
RTVSPropertyOp44
 70
     1
102
RTVSPropertyOp45
 70
     1
102
RTVSPropertyOp46
 70
     1
102
RTVSPropertyOp47
 70
     1
102
RTVSPropertyOp48
 70
     1
102
RTVSPropertyOp49
 70
     1
102
RTVSPropertyOp50
 70
     1
102
RTVSPropertyOp51
 70
     0
102
RTVSPropertyOp52
 70
     0
102
RTVSPropertyOp53
 70
     1
102
RTVSPropertyOp54
 70
     1
102
RTVSPropertyOp55
 70
     1
102
RTVSPropertyOp56
 70
     1
102
RTVSPropertyOp57
 70
     1
102
RTVSPost2010Prop28
280
     0
102
RTVSPost2010PropOp28
 70
     1
102
RTVSPost2010Prop29
280
     1
102
RTVSPost2010PropOp29
 70
     1
102
RTVSPost2010Prop30
280
     1
102
RTVSPost2010PropOp30
 70
     1
102
RTVSPost2010Prop31
280
     0
102
RTVSPost2010PropOp31
 70
     1
102
RTVSPost2010Prop32
280
     0
102
RTVSPost2010PropOp32
 70
     1
102
RTVSPost2010Prop33
280
     0
102
RTVSPost2010PropOp33
 70
     1
102
RTVSPost2010Prop34
280
     0
102
RTVSPost2010PropOp34
 70
     1
102
RTVSPost2010Prop35
280
     0
102
RTVSPost2010PropOp35
 70
     1
102
RTVSPost2010Prop36
280
     0
102
RTVSPost2010PropOp36
 70
     1
102
RTVSPost2010Prop37
 90
       50
102
RTVSPost2010PropOp37
 70
     1
102
RTVSPost2010Prop38
140
0.0
102
RTVSPost2010PropOp38
 70
     1
102
RTVSPost2010Prop39
140
1.0
102
RTVSPost2010PropOp39
 70
     1
102
RTVSPost2010Prop40
 90
        0
102
RTVSPost2010PropOp40
 70
     1
102
RTVSPost2010Prop41ColorIndex
 90
      178
102
RTVSPost2010Prop41ColorRGB
 90
        0
102
RTVSPost2010PropOp41
 70
     1
102
RTVSPost2010Prop42
 90
       50
102
RTVSPost2010PropOp42
 70
     1
102
RTVSPost2010Prop43
 90
        3
102
RTVSPost2010PropOp43
 70
     1
102
RTVSPost2010Prop44ColorIndex
 90
        5
102
RTVSPost2010Prop44ColorRGB
 90
      255
102
RTVSPost2010PropOp44
 70
     1
102
RTVSPost2010Prop45
280
     0
102
RTVSPost2010PropOp45
 70
     1
102
RTVSPost2010Prop46
 90
       50
102
RTVSPost2010PropOp46
 70
     1
102
RTVSPost2010Prop47
 90
       50
102
RTVSPost2010PropOp47
 70
     1
102
RTVSPost2010Prop48
 90
       50
102
RTVSPost2010PropOp48
 70
     1
102
RTVSPost2010Prop49
280
     0
102
RTVSPost2010PropOp49
 70
     1
102
RTVSPost2010Prop50
 90
       50
102
RTVSPost2010PropOp50
 70
     1
102
RTVSPost2010Prop51ColorIndex
 90
      256
102
RTVSPost2010Prop51ColorRGB
 90
-16777216
102
RTVSPost2010PropOp51
 70
     0
102
RTVSPost2010Prop52
140
1.0
102
RTVSPost2010PropOp52
 70
     0
102
RTVSPost2010Prop53
 90
        2
102
RTVSPost2010PropOp53
 70
     1
102
RTVSPost2010Prop54
  1
strokes_ogs.tif
102
RTVSPost2010PropOp54
 70
     1
102
RTVSPost2010Prop55
280
     0
102
RTVSPost2010PropOp55
 70
     1
102
RTVSPost2010Prop56
140
1.0
102
RTVSPost2010PropOp56
 70
     1
102
RTVSPost2010Prop57
140
1.0
102
RTVSPost2010PropOp57
 70
     1
  0
XRECORD
  5
357
102
{ACAD_REACTORS
330
356
102
}
330
356
100
AcDbXrecord
280
     1
102
RTVSPropertyOp0
 70
     1
102
RTVSPropertyOp1
 70
     1
102
RTVSPropertyOp2
 70
     1
102
RTVSPropertyOp3
 70
     1
102
RTVSPropertyOp4
 70
     1
102
RTVSPropertyOp5
 70
     1
102
RTVSPropertyOp6
 70
     1
102
RTVSPropertyOp7
 70
     1
102
RTVSPropertyOp8
 70
     1
102
RTVSPropertyOp9
 70
     1
102
RTVSPropertyOp10
 70
     1
102
RTVSPropertyOp11
 70
     1
102
RTVSPropertyOp12
 70
     1
102
RTVSPropertyOp13
 70
     1
102
RTVSPropertyOp14
 70
     1
102
RTVSPropertyOp15
 70
     1
102
RTVSPropertyOp16
 70
     1
102
RTVSPropertyOp17
 70
     1
102
RTVSPropertyOp18
 70
     1
102
RTVSPropertyOp19
 70
     1
102
RTVSPropertyOp20
 70
     1
102
RTVSPropertyOp21
 70
     1
102
RTVSPropertyOp22
 70
     1
102
RTVSPropertyOp23
 70
     1
102
RTVSPropertyOp24
 70
     1
102
RTVSPropertyOp25
 70
     1
102
RTVSPropertyOp26
 70
     1
102
RTVSPropertyOp27
 70
     1
102
RTVSPropertyOp28
 70
     1
102
RTVSPropertyOp29
 70
     1
102
RTVSPropertyOp30
 70
     1
102
RTVSPropertyOp31
 70
     1
102
RTVSPropertyOp32
 70
     1
102
RTVSPropertyOp33
 70
     1
102
RTVSPropertyOp34
 70
     1
102
RTVSPropertyOp35
 70
     1
102
RTVSPropertyOp36
 70
     1
102
RTVSPropertyOp37
 70
     1
102
RTVSPropertyOp38
 70
     1
102
RTVSPropertyOp39
 70
     1
102
RTVSPropertyOp40
 70
     1
102
RTVSPropertyOp41
 70
     1
102
RTVSPropertyOp42
 70
     1
102
RTVSPropertyOp43
 70
     1
102
RTVSPropertyOp44
 70
     1
102
RTVSPropertyOp45
 70
     1
102
RTVSPropertyOp46
 70
     1
102
RTVSPropertyOp47
 70
     1
102
RTVSPropertyOp48
 70
     1
102
RTVSPropertyOp49
 70
     1
102
RTVSPropertyOp50
 70
     1
102
RTVSPropertyOp51
 70
     0
102
RTVSPropertyOp52
 70
     0
102
RTVSPropertyOp53
 70
     1
102
RTVSPropertyOp54
 70
     1
102
RTVSPropertyOp55
 70
     1
102
RTVSPropertyOp56
 70
     1
102
RTVSPropertyOp57
 70
     1
102
RTVSPost2010Prop28
280
     0
102
RTVSPost2010PropOp28
 70
     1
102
RTVSPost2010Prop29
280
     1
102
RTVSPost2010PropOp29
 70
     1
102
RTVSPost2010Prop30
280
     1
102
RTVSPost2010PropOp30
 70
     1
102
RTVSPost2010Prop31
280
     0
102
RTVSPost2010PropOp31
 70
     1
102
RTVSPost2010Prop32
280
     0
102
RTVSPost2010PropOp32
 70
     1
102
RTVSPost2010Prop33
280
     0
102
RTVSPost2010PropOp33
 70
     1
102
RTVSPost2010Prop34
280
     0
102
RTVSPost2010PropOp34
 70
     1
102
RTVSPost2010Prop35
280
     0
102
RTVSPost2010PropOp35
 70
     1
102
RTVSPost2010Prop36
280
     0
102
RTVSPost2010PropOp36
 70
     1
102
RTVSPost2010Prop37
 90
       50
102
RTVSPost2010PropOp37
 70
     1
102
RTVSPost2010Prop38
140
0.0
102
RTVSPost2010PropOp38
 70
     1
102
RTVSPost2010Prop39
140
1.0
102
RTVSPost2010PropOp39
 70
     1
102
RTVSPost2010Prop40
 90
        0
102
RTVSPost2010PropOp40
 70
     1
102
RTVSPost2010Prop41ColorIndex
 90
      178
102
RTVSPost2010Prop41ColorRGB
 90
        0
102
RTVSPost2010PropOp41
 70
     1
102
RTVSPost2010Prop42
 90
       50
102
RTVSPost2010PropOp42
 70
     1
102
RTVSPost2010Prop43
 90
        3
102
RTVSPost2010PropOp43
 70
     1
102
RTVSPost2010Prop44ColorIndex
 90
        5
102
RTVSPost2010Prop44ColorRGB
 90
      255
102
RTVSPost2010PropOp44
 70
     1
102
RTVSPost2010Prop45
280
     0
102
RTVSPost2010PropOp45
 70
     1
102
RTVSPost2010Prop46
 90
       50
102
RTVSPost2010PropOp46
 70
     1
102
RTVSPost2010Prop47
 90
       50
102
RTVSPost2010PropOp47
 70
     1
102
RTVSPost2010Prop48
 90
       50
102
RTVSPost2010PropOp48
 70
     1
102
RTVSPost2010Prop49
280
     0
102
RTVSPost2010PropOp49
 70
     1
102
RTVSPost2010Prop50
 90
       50
102
RTVSPost2010PropOp50
 70
     1
102
RTVSPost2010Prop51ColorIndex
 90
      256
102
RTVSPost2010Prop51ColorRGB
 90
-16777216
102
RTVSPost2010PropOp51
 70
     0
102
RTVSPost2010Prop52
140
1.0
102
RTVSPost2010PropOp52
 70
     0
102
RTVSPost2010Prop53
 90
        2
102
RTVSPost2010PropOp53
 70
     1
102
RTVSPost2010Prop54
  1
strokes_ogs.tif
102
RTVSPost2010PropOp54
 70
     1
102
RTVSPost2010Prop55
280
     0
102
RTVSPost2010PropOp55
 70
     1
102
RTVSPost2010Prop56
140
1.0
102
RTVSPost2010PropOp56
 70
     1
102
RTVSPost2010Prop57
140
1.0
102
RTVSPost2010PropOp57
 70
     1
  0
XRECORD
  5
359
102
{ACAD_REACTORS
330
358
102
}
330
358
100
AcDbXrecord
280
     1
102
RTVSPropertyOp0
 70
     1
102
RTVSPropertyOp1
 70
     1
102
RTVSPropertyOp2
 70
     1
102
RTVSPropertyOp3
 70
     1
102
RTVSPropertyOp4
 70
     1
102
RTVSPropertyOp5
 70
     1
102
RTVSPropertyOp6
 70
     1
102
RTVSPropertyOp7
 70
     1
102
RTVSPropertyOp8
 70
     1
102
RTVSPropertyOp9
 70
     1
102
RTVSPropertyOp10
 70
     1
102
RTVSPropertyOp11
 70
     1
102
RTVSPropertyOp12
 70
     1
102
RTVSPropertyOp13
 70
     1
102
RTVSPropertyOp14
 70
     1
102
RTVSPropertyOp15
 70
     1
102
RTVSPropertyOp16
 70
     1
102
RTVSPropertyOp17
 70
     1
102
RTVSPropertyOp18
 70
     1
102
RTVSPropertyOp19
 70
     1
102
RTVSPropertyOp20
 70
     1
102
RTVSPropertyOp21
 70
     1
102
RTVSPropertyOp22
 70
     1
102
RTVSPropertyOp23
 70
     1
102
RTVSPropertyOp24
 70
     1
102
RTVSPropertyOp25
 70
     1
102
RTVSPropertyOp26
 70
     1
102
RTVSPropertyOp27
 70
     1
102
RTVSPropertyOp28
 70
     1
102
RTVSPropertyOp29
 70
     1
102
RTVSPropertyOp30
 70
     1
102
RTVSPropertyOp31
 70
     1
102
RTVSPropertyOp32
 70
     1
102
RTVSPropertyOp33
 70
     1
102
RTVSPropertyOp34
 70
     1
102
RTVSPropertyOp35
 70
     1
102
RTVSPropertyOp36
 70
     1
102
RTVSPropertyOp37
 70
     1
102
RTVSPropertyOp38
 70
     1
102
RTVSPropertyOp39
 70
     1
102
RTVSPropertyOp40
 70
     1
102
RTVSPropertyOp41
 70
     1
102
RTVSPropertyOp42
 70
     1
102
RTVSPropertyOp43
 70
     1
102
RTVSPropertyOp44
 70
     1
102
RTVSPropertyOp45
 70
     1
102
RTVSPropertyOp46
 70
     1
102
RTVSPropertyOp47
 70
     1
102
RTVSPropertyOp48
 70
     1
102
RTVSPropertyOp49
 70
     1
102
RTVSPropertyOp50
 70
     1
102
RTVSPropertyOp51
 70
     0
102
RTVSPropertyOp52
 70
     0
102
RTVSPropertyOp53
 70
     1
102
RTVSPropertyOp54
 70
     1
102
RTVSPropertyOp55
 70
     1
102
RTVSPropertyOp56
 70
     1
102
RTVSPropertyOp57
 70
     1
102
RTVSPost2010Prop28
280
     0
102
RTVSPost2010PropOp28
 70
     1
102
RTVSPost2010Prop29
280
     1
102
RTVSPost2010PropOp29
 70
     1
102
RTVSPost2010Prop30
280
     1
102
RTVSPost2010PropOp30
 70
     1
102
RTVSPost2010Prop31
280
     0
102
RTVSPost2010PropOp31
 70
     1
102
RTVSPost2010Prop32
280
     0
102
RTVSPost2010PropOp32
 70
     1
102
RTVSPost2010Prop33
280
     0
102
RTVSPost2010PropOp33
 70
     1
102
RTVSPost2010Prop34
280
     0
102
RTVSPost2010PropOp34
 70
     1
102
RTVSPost2010Prop35
280
     0
102
RTVSPost2010PropOp35
 70
     1
102
RTVSPost2010Prop36
280
     0
102
RTVSPost2010PropOp36
 70
     1
102
RTVSPost2010Prop37
 90
       50
102
RTVSPost2010PropOp37
 70
     1
102
RTVSPost2010Prop38
140
0.0
102
RTVSPost2010PropOp38
 70
     1
102
RTVSPost2010Prop39
140
1.0
102
RTVSPost2010PropOp39
 70
     1
102
RTVSPost2010Prop40
 90
        0
102
RTVSPost2010PropOp40
 70
     1
102
RTVSPost2010Prop41ColorIndex
 90
      178
102
RTVSPost2010Prop41ColorRGB
 90
        0
102
RTVSPost2010PropOp41
 70
     1
102
RTVSPost2010Prop42
 90
       50
102
RTVSPost2010PropOp42
 70
     1
102
RTVSPost2010Prop43
 90
        3
102
RTVSPost2010PropOp43
 70
     1
102
RTVSPost2010Prop44ColorIndex
 90
        5
102
RTVSPost2010Prop44ColorRGB
 90
      255
102
RTVSPost2010PropOp44
 70
     1
102
RTVSPost2010Prop45
280
     0
102
RTVSPost2010PropOp45
 70
     1
102
RTVSPost2010Prop46
 90
       50
102
RTVSPost2010PropOp46
 70
     1
102
RTVSPost2010Prop47
 90
       50
102
RTVSPost2010PropOp47
 70
     1
102
RTVSPost2010Prop48
 90
       50
102
RTVSPost2010PropOp48
 70
     1
102
RTVSPost2010Prop49
280
     0
102
RTVSPost2010PropOp49
 70
     1
102
RTVSPost2010Prop50
 90
       50
102
RTVSPost2010PropOp50
 70
     1
102
RTVSPost2010Prop51ColorIndex
 90
      256
102
RTVSPost2010Prop51ColorRGB
 90
-16777216
102
RTVSPost2010PropOp51
 70
     0
102
RTVSPost2010Prop52
140
1.0
102
RTVSPost2010PropOp52
 70
     0
102
RTVSPost2010Prop53
 90
        2
102
RTVSPost2010PropOp53
 70
     1
102
RTVSPost2010Prop54
  1
strokes_ogs.tif
102
RTVSPost2010PropOp54
 70
     1
102
RTVSPost2010Prop55
280
     0
102
RTVSPost2010PropOp55
 70
     1
102
RTVSPost2010Prop56
140
1.0
102
RTVSPost2010PropOp56
 70
     1
102
RTVSPost2010Prop57
140
1.0
102
RTVSPost2010PropOp57
 70
     1
  0
XRECORD
  5
35B
102
{ACAD_REACTORS
330
35A
102
}
330
35A
100
AcDbXrecord
280
     1
102
RTVSPropertyOp0
 70
     1
102
RTVSPropertyOp1
 70
     1
102
RTVSPropertyOp2
 70
     1
102
RTVSPropertyOp3
 70
     1
102
RTVSPropertyOp4
 70
     1
102
RTVSPropertyOp5
 70
     1
102
RTVSPropertyOp6
 70
     1
102
RTVSPropertyOp7
 70
     1
102
RTVSPropertyOp8
 70
     1
102
RTVSPropertyOp9
 70
     1
102
RTVSPropertyOp10
 70
     1
102
RTVSPropertyOp11
 70
     1
102
RTVSPropertyOp12
 70
     1
102
RTVSPropertyOp13
 70
     1
102
RTVSPropertyOp14
 70
     1
102
RTVSPropertyOp15
 70
     1
102
RTVSPropertyOp16
 70
     1
102
RTVSPropertyOp17
 70
     1
102
RTVSPropertyOp18
 70
     1
102
RTVSPropertyOp19
 70
     1
102
RTVSPropertyOp20
 70
     1
102
RTVSPropertyOp21
 70
     1
102
RTVSPropertyOp22
 70
     1
102
RTVSPropertyOp23
 70
     1
102
RTVSPropertyOp24
 70
     1
102
RTVSPropertyOp25
 70
     1
102
RTVSPropertyOp26
 70
     1
102
RTVSPropertyOp27
 70
     1
102
RTVSPropertyOp28
 70
     1
102
RTVSPropertyOp29
 70
     1
102
RTVSPropertyOp30
 70
     1
102
RTVSPropertyOp31
 70
     1
102
RTVSPropertyOp32
 70
     1
102
RTVSPropertyOp33
 70
     1
102
RTVSPropertyOp34
 70
     1
102
RTVSPropertyOp35
 70
     1
102
RTVSPropertyOp36
 70
     1
102
RTVSPropertyOp37
 70
     1
102
RTVSPropertyOp38
 70
     1
102
RTVSPropertyOp39
 70
     1
102
RTVSPropertyOp40
 70
     1
102
RTVSPropertyOp41
 70
     1
102
RTVSPropertyOp42
 70
     1
102
RTVSPropertyOp43
 70
     1
102
RTVSPropertyOp44
 70
     1
102
RTVSPropertyOp45
 70
     1
102
RTVSPropertyOp46
 70
     1
102
RTVSPropertyOp47
 70
     1
102
RTVSPropertyOp48
 70
     1
102
RTVSPropertyOp49
 70
     1
102
RTVSPropertyOp50
 70
     1
102
RTVSPropertyOp51
 70
     0
102
RTVSPropertyOp52
 70
     0
102
RTVSPropertyOp53
 70
     1
102
RTVSPropertyOp54
 70
     1
102
RTVSPropertyOp55
 70
     1
102
RTVSPropertyOp56
 70
     1
102
RTVSPropertyOp57
 70
     1
102
RTVSPost2010Prop28
280
     0
102
RTVSPost2010PropOp28
 70
     1
102
RTVSPost2010Prop29
280
     1
102
RTVSPost2010PropOp29
 70
     1
102
RTVSPost2010Prop30
280
     1
102
RTVSPost2010PropOp30
 70
     1
102
RTVSPost2010Prop31
280
     0
102
RTVSPost2010PropOp31
 70
     1
102
RTVSPost2010Prop32
280
     0
102
RTVSPost2010PropOp32
 70
     1
102
RTVSPost2010Prop33
280
     0
102
RTVSPost2010PropOp33
 70
     1
102
RTVSPost2010Prop34
280
     0
102
RTVSPost2010PropOp34
 70
     1
102
RTVSPost2010Prop35
280
     0
102
RTVSPost2010PropOp35
 70
     1
102
RTVSPost2010Prop36
280
     0
102
RTVSPost2010PropOp36
 70
     1
102
RTVSPost2010Prop37
 90
       50
102
RTVSPost2010PropOp37
 70
     1
102
RTVSPost2010Prop38
140
0.0
102
RTVSPost2010PropOp38
 70
     1
102
RTVSPost2010Prop39
140
1.0
102
RTVSPost2010PropOp39
 70
     1
102
RTVSPost2010Prop40
 90
        0
102
RTVSPost2010PropOp40
 70
     1
102
RTVSPost2010Prop41ColorIndex
 90
      178
102
RTVSPost2010Prop41ColorRGB
 90
        0
102
RTVSPost2010PropOp41
 70
     1
102
RTVSPost2010Prop42
 90
       50
102
RTVSPost2010PropOp42
 70
     1
102
RTVSPost2010Prop43
 90
        3
102
RTVSPost2010PropOp43
 70
     1
102
RTVSPost2010Prop44ColorIndex
 90
        5
102
RTVSPost2010Prop44ColorRGB
 90
      255
102
RTVSPost2010PropOp44
 70
     1
102
RTVSPost2010Prop45
280
     0
102
RTVSPost2010PropOp45
 70
     1
102
RTVSPost2010Prop46
 90
       50
102
RTVSPost2010PropOp46
 70
     1
102
RTVSPost2010Prop47
 90
       50
102
RTVSPost2010PropOp47
 70
     1
102
RTVSPost2010Prop48
 90
       50
102
RTVSPost2010PropOp48
 70
     1
102
RTVSPost2010Prop49
280
     0
102
RTVSPost2010PropOp49
 70
     1
102
RTVSPost2010Prop50
 90
       50
102
RTVSPost2010PropOp50
 70
     1
102
RTVSPost2010Prop51ColorIndex
 90
      256
102
RTVSPost2010Prop51ColorRGB
 90
-16777216
102
RTVSPost2010PropOp51
 70
     0
102
RTVSPost2010Prop52
140
1.0
102
RTVSPost2010PropOp52
 70
     0
102
RTVSPost2010Prop53
 90
        2
102
RTVSPost2010PropOp53
 70
     1
102
RTVSPost2010Prop54
  1
strokes_ogs.tif
102
RTVSPost2010PropOp54
 70
     1
102
RTVSPost2010Prop55
280
     0
102
RTVSPost2010PropOp55
 70
     1
102
RTVSPost2010Prop56
140
1.0
102
RTVSPost2010PropOp56
 70
     1
102
RTVSPost2010Prop57
140
1.0
102
RTVSPost2010PropOp57
 70
     1
  0
XRECORD
  5
361
102
{ACAD_REACTORS
330
360
102
}
330
360
100
AcDbXrecord
280
     1
102
RTVSPropertyOp0
 70
     1
102
RTVSPropertyOp1
 70
     1
102
RTVSPropertyOp2
 70
     1
102
RTVSPropertyOp3
 70
     1
102
RTVSPropertyOp4
 70
     1
102
RTVSPropertyOp5
 70
     1
102
RTVSPropertyOp6
 70
     1
102
RTVSPropertyOp7
 70
     1
102
RTVSPropertyOp8
 70
     1
102
RTVSPropertyOp9
 70
     1
102
RTVSPropertyOp10
 70
     1
102
RTVSPropertyOp11
 70
     1
102
RTVSPropertyOp12
 70
     1
102
RTVSPropertyOp13
 70
     1
102
RTVSPropertyOp14
 70
     1
102
RTVSPropertyOp15
 70
     1
102
RTVSPropertyOp16
 70
     1
102
RTVSPropertyOp17
 70
     1
102
RTVSPropertyOp18
 70
     1
102
RTVSPropertyOp19
 70
     1
102
RTVSPropertyOp20
 70
     1
102
RTVSPropertyOp21
 70
     1
102
RTVSPropertyOp22
 70
     1
102
RTVSPropertyOp23
 70
     1
102
RTVSPropertyOp24
 70
     1
102
RTVSPropertyOp25
 70
     1
102
RTVSPropertyOp26
 70
     1
102
RTVSPropertyOp27
 70
     1
102
RTVSPropertyOp28
 70
     1
102
RTVSPropertyOp29
 70
     1
102
RTVSPropertyOp30
 70
     1
102
RTVSPropertyOp31
 70
     1
102
RTVSPropertyOp32
 70
     1
102
RTVSPropertyOp33
 70
     1
102
RTVSPropertyOp34
 70
     1
102
RTVSPropertyOp35
 70
     1
102
RTVSPropertyOp36
 70
     1
102
RTVSPropertyOp37
 70
     1
102
RTVSPropertyOp38
 70
     1
102
RTVSPropertyOp39
 70
     1
102
RTVSPropertyOp40
 70
     1
102
RTVSPropertyOp41
 70
     1
102
RTVSPropertyOp42
 70
     1
102
RTVSPropertyOp43
 70
     1
102
RTVSPropertyOp44
 70
     1
102
RTVSPropertyOp45
 70
     1
102
RTVSPropertyOp46
 70
     1
102
RTVSPropertyOp47
 70
     1
102
RTVSPropertyOp48
 70
     1
102
RTVSPropertyOp49
 70
     1
102
RTVSPropertyOp50
 70
     1
102
RTVSPropertyOp51
 70
     0
102
RTVSPropertyOp52
 70
     0
102
RTVSPropertyOp53
 70
     1
102
RTVSPropertyOp54
 70
     1
102
RTVSPropertyOp55
 70
     1
102
RTVSPropertyOp56
 70
     1
102
RTVSPropertyOp57
 70
     1
102
RTVSPost2010Prop28
280
     0
102
RTVSPost2010PropOp28
 70
     1
102
RTVSPost2010Prop29
280
     1
102
RTVSPost2010PropOp29
 70
     1
102
RTVSPost2010Prop30
280
     1
102
RTVSPost2010PropOp30
 70
     1
102
RTVSPost2010Prop31
280
     0
102
RTVSPost2010PropOp31
 70
     1
102
RTVSPost2010Prop32
280
     0
102
RTVSPost2010PropOp32
 70
     1
102
RTVSPost2010Prop33
280
     0
102
RTVSPost2010PropOp33
 70
     1
102
RTVSPost2010Prop34
280
     0
102
RTVSPost2010PropOp34
 70
     1
102
RTVSPost2010Prop35
280
     0
102
RTVSPost2010PropOp35
 70
     1
102
RTVSPost2010Prop36
280
     0
102
RTVSPost2010PropOp36
 70
     1
102
RTVSPost2010Prop37
 90
       50
102
RTVSPost2010PropOp37
 70
     1
102
RTVSPost2010Prop38
140
0.0
102
RTVSPost2010PropOp38
 70
     1
102
RTVSPost2010Prop39
140
1.0
102
RTVSPost2010PropOp39
 70
     1
102
RTVSPost2010Prop40
 90
        0
102
RTVSPost2010PropOp40
 70
     1
102
RTVSPost2010Prop41ColorIndex
 90
      178
102
RTVSPost2010Prop41ColorRGB
 90
        0
102
RTVSPost2010PropOp41
 70
     1
102
RTVSPost2010Prop42
 90
       50
102
RTVSPost2010PropOp42
 70
     1
102
RTVSPost2010Prop43
 90
        3
102
RTVSPost2010PropOp43
 70
     1
102
RTVSPost2010Prop44ColorIndex
 90
        5
102
RTVSPost2010Prop44ColorRGB
 90
      255
102
RTVSPost2010PropOp44
 70
     1
102
RTVSPost2010Prop45
280
     0
102
RTVSPost2010PropOp45
 70
     1
102
RTVSPost2010Prop46
 90
       50
102
RTVSPost2010PropOp46
 70
     1
102
RTVSPost2010Prop47
 90
       50
102
RTVSPost2010PropOp47
 70
     1
102
RTVSPost2010Prop48
 90
       50
102
RTVSPost2010PropOp48
 70
     1
102
RTVSPost2010Prop49
280
     0
102
RTVSPost2010PropOp49
 70
     1
102
RTVSPost2010Prop50
 90
       50
102
RTVSPost2010PropOp50
 70
     1
102
RTVSPost2010Prop51ColorIndex
 90
      256
102
RTVSPost2010Prop51ColorRGB
 90
-16777216
102
RTVSPost2010PropOp51
 70
     0
102
RTVSPost2010Prop52
140
1.0
102
RTVSPost2010PropOp52
 70
     0
102
RTVSPost2010Prop53
 90
        2
102
RTVSPost2010PropOp53
 70
     1
102
RTVSPost2010Prop54
  1
strokes_ogs.tif
102
RTVSPost2010PropOp54
 70
     1
102
RTVSPost2010Prop55
280
     0
102
RTVSPost2010PropOp55
 70
     1
102
RTVSPost2010Prop56
140
1.0
102
RTVSPost2010PropOp56
 70
     1
102
RTVSPost2010Prop57
140
1.0
102
RTVSPost2010PropOp57
 70
     1
  0
XRECORD
  5
375
102
{ACAD_REACTORS
330
374
102
}
330
374
100
AcDbXrecord
280
     1
102
RTVSPropertyOp0
 70
     0
102
RTVSPropertyOp1
 70
     0
102
RTVSPropertyOp2
 70
     0
102
RTVSPropertyOp3
 70
     0
102
RTVSPropertyOp4
 70
     0
102
RTVSPropertyOp5
 70
     0
102
RTVSPropertyOp6
 70
     0
102
RTVSPropertyOp7
 70
     0
102
RTVSPropertyOp8
 70
     0
102
RTVSPropertyOp9
 70
     0
102
RTVSPropertyOp10
 70
     0
102
RTVSPropertyOp11
 70
     0
102
RTVSPropertyOp12
 70
     0
102
RTVSPropertyOp13
 70
     0
102
RTVSPropertyOp14
 70
     2
102
RTVSPropertyOp15
 70
     0
102
RTVSPropertyOp16
 70
     0
102
RTVSPropertyOp17
 70
     0
102
RTVSPropertyOp18
 70
     0
102
RTVSPropertyOp19
 70
     0
102
RTVSPropertyOp20
 70
     0
102
RTVSPropertyOp21
 70
     0
102
RTVSPropertyOp22
 70
     0
102
RTVSPropertyOp23
 70
     0
102
RTVSPropertyOp24
 70
     0
102
RTVSPropertyOp25
 70
     0
102
RTVSPropertyOp26
 70
     0
102
RTVSPropertyOp27
 70
     0
102
RTVSPropertyOp28
 70
     0
102
RTVSPropertyOp29
 70
     0
102
RTVSPropertyOp30
 70
     0
102
RTVSPropertyOp31
 70
     0
102
RTVSPropertyOp32
 70
     0
102
RTVSPropertyOp33
 70
     0
102
RTVSPropertyOp34
 70
     0
102
RTVSPropertyOp35
 70
     0
102
RTVSPropertyOp36
 70
     0
102
RTVSPropertyOp37
 70
     0
102
RTVSPropertyOp38
 70
     0
102
RTVSPropertyOp39
 70
     0
102
RTVSPropertyOp40
 70
     0
102
RTVSPropertyOp41
 70
     0
102
RTVSPropertyOp42
 70
     0
102
RTVSPropertyOp43
 70
     0
102
RTVSPropertyOp44
 70
     0
102
RTVSPropertyOp45
 70
     0
102
RTVSPropertyOp46
 70
     0
102
RTVSPropertyOp47
 70
     0
102
RTVSPropertyOp48
 70
     0
102
RTVSPropertyOp49
 70
     0
102
RTVSPropertyOp50
 70
     0
102
RTVSPropertyOp51
 70
     0
102
RTVSPropertyOp52
 70
     0
102
RTVSPropertyOp53
 70
     0
102
RTVSPropertyOp54
 70
     0
102
RTVSPropertyOp55
 70
     0
102
RTVSPropertyOp56
 70
     0
102
RTVSPropertyOp57
 70
     0
102
RTVSPost2010Prop28
280
     0
102
RTVSPost2010PropOp28
 70
     0
102
RTVSPost2010Prop29
280
     1
102
RTVSPost2010PropOp29
 70
     0
102
RTVSPost2010Prop30
280
     1
102
RTVSPost2010PropOp30
 70
     0
102
RTVSPost2010Prop31
280
     0
102
RTVSPost2010PropOp31
 70
     0
102
RTVSPost2010Prop32
280
     0
102
RTVSPost2010PropOp32
 70
     0
102
RTVSPost2010Prop33
280
     0
102
RTVSPost2010PropOp33
 70
     0
102
RTVSPost2010Prop34
280
     0
102
RTVSPost2010PropOp34
 70
     0
102
RTVSPost2010Prop35
280
     0
102
RTVSPost2010PropOp35
 70
     0
102
RTVSPost2010Prop36
280
     0
102
RTVSPost2010PropOp36
 70
     0
102
RTVSPost2010Prop37
 90
       50
102
RTVSPost2010PropOp37
 70
     0
102
RTVSPost2010Prop38
140
0.0
102
RTVSPost2010PropOp38
 70
     0
102
RTVSPost2010Prop39
140
1.0
102
RTVSPost2010PropOp39
 70
     0
102
RTVSPost2010Prop40
 90
        0
102
RTVSPost2010PropOp40
 70
     0
102
RTVSPost2010Prop41ColorIndex
 90
      178
102
RTVSPost2010Prop41ColorRGB
 90
        0
102
RTVSPost2010PropOp41
 70
     0
102
RTVSPost2010Prop42
 90
       50
102
RTVSPost2010PropOp42
 70
     0
102
RTVSPost2010Prop43
 90
        3
102
RTVSPost2010PropOp43
 70
     0
102
RTVSPost2010Prop44ColorIndex
 90
        5
102
RTVSPost2010Prop44ColorRGB
 90
      255
102
RTVSPost2010PropOp44
 70
     0
102
RTVSPost2010Prop45
280
     0
102
RTVSPost2010PropOp45
 70
     0
102
RTVSPost2010Prop46
 90
       50
102
RTVSPost2010PropOp46
 70
     0
102
RTVSPost2010Prop47
 90
       50
102
RTVSPost2010PropOp47
 70
     0
102
RTVSPost2010Prop48
 90
       50
102
RTVSPost2010PropOp48
 70
     0
102
RTVSPost2010Prop49
280
     0
102
RTVSPost2010PropOp49
 70
     0
102
RTVSPost2010Prop50
 90
       50
102
RTVSPost2010PropOp50
 70
     0
102
RTVSPost2010Prop51ColorIndex
 90
      256
102
RTVSPost2010Prop51ColorRGB
 90
-16777216
102
RTVSPost2010PropOp51
 70
     0
102
RTVSPost2010Prop52
140
1.0
102
RTVSPost2010PropOp52
 70
     0
102
RTVSPost2010Prop53
 90
        2
102
RTVSPost2010PropOp53
 70
     0
102
RTVSPost2010Prop54
  1
strokes_ogs.tif
102
RTVSPost2010PropOp54
 70
     0
102
RTVSPost2010Prop55
280
     0
102
RTVSPost2010PropOp55
 70
     0
102
RTVSPost2010Prop56
140
1.0
102
RTVSPost2010PropOp56
 70
     0
102
RTVSPost2010Prop57
140
1.0
102
RTVSPost2010PropOp57
 70
     0
  0
XRECORD
  5
36F
102
{ACAD_REACTORS
330
36E
102
}
330
36E
100
AcDbXrecord
280
     1
102
RTVSPropertyOp0
 70
     1
102
RTVSPropertyOp1
 70
     1
102
RTVSPropertyOp2
 70
     1
102
RTVSPropertyOp3
 70
     1
102
RTVSPropertyOp4
 70
     1
102
RTVSPropertyOp5
 70
     1
102
RTVSPropertyOp6
 70
     1
102
RTVSPropertyOp7
 70
     1
102
RTVSPropertyOp8
 70
     1
102
RTVSPropertyOp9
 70
     1
102
RTVSPropertyOp10
 70
     1
102
RTVSPropertyOp11
 70
     1
102
RTVSPropertyOp12
 70
     1
102
RTVSPropertyOp13
 70
     1
102
RTVSPropertyOp14
 70
     1
102
RTVSPropertyOp15
 70
     1
102
RTVSPropertyOp16
 70
     1
102
RTVSPropertyOp17
 70
     1
102
RTVSPropertyOp18
 70
     1
102
RTVSPropertyOp19
 70
     1
102
RTVSPropertyOp20
 70
     1
102
RTVSPropertyOp21
 70
     1
102
RTVSPropertyOp22
 70
     1
102
RTVSPropertyOp23
 70
     1
102
RTVSPropertyOp24
 70
     1
102
RTVSPropertyOp25
 70
     1
102
RTVSPropertyOp26
 70
     1
102
RTVSPropertyOp27
 70
     1
102
RTVSPropertyOp28
 70
     1
102
RTVSPropertyOp29
 70
     1
102
RTVSPropertyOp30
 70
     1
102
RTVSPropertyOp31
 70
     1
102
RTVSPropertyOp32
 70
     1
102
RTVSPropertyOp33
 70
     1
102
RTVSPropertyOp34
 70
     1
102
RTVSPropertyOp35
 70
     1
102
RTVSPropertyOp36
 70
     1
102
RTVSPropertyOp37
 70
     1
102
RTVSPropertyOp38
 70
     1
102
RTVSPropertyOp39
 70
     1
102
RTVSPropertyOp40
 70
     1
102
RTVSPropertyOp41
 70
     1
102
RTVSPropertyOp42
 70
     1
102
RTVSPropertyOp43
 70
     1
102
RTVSPropertyOp44
 70
     1
102
RTVSPropertyOp45
 70
     1
102
RTVSPropertyOp46
 70
     1
102
RTVSPropertyOp47
 70
     1
102
RTVSPropertyOp48
 70
     1
102
RTVSPropertyOp49
 70
     1
102
RTVSPropertyOp50
 70
     1
102
RTVSPropertyOp51
 70
     0
102
RTVSPropertyOp52
 70
     0
102
RTVSPropertyOp53
 70
     1
102
RTVSPropertyOp54
 70
     1
102
RTVSPropertyOp55
 70
     1
102
RTVSPropertyOp56
 70
     1
102
RTVSPropertyOp57
 70
     1
102
RTVSPost2010Prop28
280
     0
102
RTVSPost2010PropOp28
 70
     1
102
RTVSPost2010Prop29
280
     1
102
RTVSPost2010PropOp29
 70
     1
102
RTVSPost2010Prop30
280
     1
102
RTVSPost2010PropOp30
 70
     1
102
RTVSPost2010Prop31
280
     0
102
RTVSPost2010PropOp31
 70
     1
102
RTVSPost2010Prop32
280
     0
102
RTVSPost2010PropOp32
 70
     1
102
RTVSPost2010Prop33
280
     0
102
RTVSPost2010PropOp33
 70
     1
102
RTVSPost2010Prop34
280
     0
102
RTVSPost2010PropOp34
 70
     1
102
RTVSPost2010Prop35
280
     0
102
RTVSPost2010PropOp35
 70
     1
102
RTVSPost2010Prop36
280
     0
102
RTVSPost2010PropOp36
 70
     1
102
RTVSPost2010Prop37
 90
       50
102
RTVSPost2010PropOp37
 70
     1
102
RTVSPost2010Prop38
140
0.0
102
RTVSPost2010PropOp38
 70
     1
102
RTVSPost2010Prop39
140
1.0
102
RTVSPost2010PropOp39
 70
     1
102
RTVSPost2010Prop40
 90
        0
102
RTVSPost2010PropOp40
 70
     1
102
RTVSPost2010Prop41ColorIndex
 90
      178
102
RTVSPost2010Prop41ColorRGB
 90
        0
102
RTVSPost2010PropOp41
 70
     1
102
RTVSPost2010Prop42
 90
       50
102
RTVSPost2010PropOp42
 70
     1
102
RTVSPost2010Prop43
 90
        3
102
RTVSPost2010PropOp43
 70
     1
102
RTVSPost2010Prop44ColorIndex
 90
        5
102
RTVSPost2010Prop44ColorRGB
 90
      255
102
RTVSPost2010PropOp44
 70
     1
102
RTVSPost2010Prop45
280
     0
102
RTVSPost2010PropOp45
 70
     1
102
RTVSPost2010Prop46
 90
       50
102
RTVSPost2010PropOp46
 70
     1
102
RTVSPost2010Prop47
 90
       50
102
RTVSPost2010PropOp47
 70
     1
102
RTVSPost2010Prop48
 90
       50
102
RTVSPost2010PropOp48
 70
     1
102
RTVSPost2010Prop49
280
     0
102
RTVSPost2010PropOp49
 70
     1
102
RTVSPost2010Prop50
 90
       50
102
RTVSPost2010PropOp50
 70
     1
102
RTVSPost2010Prop51ColorIndex
 90
      256
102
RTVSPost2010Prop51ColorRGB
 90
-16777216
102
RTVSPost2010PropOp51
 70
     0
102
RTVSPost2010Prop52
140
1.0
102
RTVSPost2010PropOp52
 70
     0
102
RTVSPost2010Prop53
 90
        2
102
RTVSPost2010PropOp53
 70
     1
102
RTVSPost2010Prop54
  1
strokes_ogs.tif
102
RTVSPost2010PropOp54
 70
     1
102
RTVSPost2010Prop55
280
     0
102
RTVSPost2010PropOp55
 70
     1
102
RTVSPost2010Prop56
140
1.0
102
RTVSPost2010PropOp56
 70
     1
102
RTVSPost2010Prop57
140
1.0
102
RTVSPost2010PropOp57
 70
     1
  0
XRECORD
  5
377
102
{ACAD_REACTORS
330
376
102
}
330
376
100
AcDbXrecord
280
     1
102
RTVSPropertyOp0
 70
     0
102
RTVSPropertyOp1
 70
     0
102
RTVSPropertyOp2
 70
     0
102
RTVSPropertyOp3
 70
     0
102
RTVSPropertyOp4
 70
     0
102
RTVSPropertyOp5
 70
     0
102
RTVSPropertyOp6
 70
     0
102
RTVSPropertyOp7
 70
     0
102
RTVSPropertyOp8
 70
     0
102
RTVSPropertyOp9
 70
     0
102
RTVSPropertyOp10
 70
     0
102
RTVSPropertyOp11
 70
     0
102
RTVSPropertyOp12
 70
     0
102
RTVSPropertyOp13
 70
     0
102
RTVSPropertyOp14
 70
     2
102
RTVSPropertyOp15
 70
     0
102
RTVSPropertyOp16
 70
     0
102
RTVSPropertyOp17
 70
     0
102
RTVSPropertyOp18
 70
     0
102
RTVSPropertyOp19
 70
     0
102
RTVSPropertyOp20
 70
     0
102
RTVSPropertyOp21
 70
     0
102
RTVSPropertyOp22
 70
     0
102
RTVSPropertyOp23
 70
     0
102
RTVSPropertyOp24
 70
     0
102
RTVSPropertyOp25
 70
     0
102
RTVSPropertyOp26
 70
     0
102
RTVSPropertyOp27
 70
     0
102
RTVSPropertyOp28
 70
     0
102
RTVSPropertyOp29
 70
     0
102
RTVSPropertyOp30
 70
     0
102
RTVSPropertyOp31
 70
     0
102
RTVSPropertyOp32
 70
     0
102
RTVSPropertyOp33
 70
     0
102
RTVSPropertyOp34
 70
     0
102
RTVSPropertyOp35
 70
     0
102
RTVSPropertyOp36
 70
     0
102
RTVSPropertyOp37
 70
     0
102
RTVSPropertyOp38
 70
     0
102
RTVSPropertyOp39
 70
     0
102
RTVSPropertyOp40
 70
     0
102
RTVSPropertyOp41
 70
     0
102
RTVSPropertyOp42
 70
     0
102
RTVSPropertyOp43
 70
     0
102
RTVSPropertyOp44
 70
     0
102
RTVSPropertyOp45
 70
     0
102
RTVSPropertyOp46
 70
     0
102
RTVSPropertyOp47
 70
     0
102
RTVSPropertyOp48
 70
     0
102
RTVSPropertyOp49
 70
     0
102
RTVSPropertyOp50
 70
     0
102
RTVSPropertyOp51
 70
     0
102
RTVSPropertyOp52
 70
     0
102
RTVSPropertyOp53
 70
     0
102
RTVSPropertyOp54
 70
     0
102
RTVSPropertyOp55
 70
     0
102
RTVSPropertyOp56
 70
     0
102
RTVSPropertyOp57
 70
     0
102
RTVSPost2010Prop28
280
     0
102
RTVSPost2010PropOp28
 70
     0
102
RTVSPost2010Prop29
280
     1
102
RTVSPost2010PropOp29
 70
     0
102
RTVSPost2010Prop30
280
     1
102
RTVSPost2010PropOp30
 70
     0
102
RTVSPost2010Prop31
280
     0
102
RTVSPost2010PropOp31
 70
     0
102
RTVSPost2010Prop32
280
     0
102
RTVSPost2010PropOp32
 70
     0
102
RTVSPost2010Prop33
280
     0
102
RTVSPost2010PropOp33
 70
     0
102
RTVSPost2010Prop34
280
     0
102
RTVSPost2010PropOp34
 70
     0
102
RTVSPost2010Prop35
280
     0
102
RTVSPost2010PropOp35
 70
     0
102
RTVSPost2010Prop36
280
     0
102
RTVSPost2010PropOp36
 70
     0
102
RTVSPost2010Prop37
 90
       50
102
RTVSPost2010PropOp37
 70
     0
102
RTVSPost2010Prop38
140
0.0
102
RTVSPost2010PropOp38
 70
     0
102
RTVSPost2010Prop39
140
1.0
102
RTVSPost2010PropOp39
 70
     0
102
RTVSPost2010Prop40
 90
        0
102
RTVSPost2010PropOp40
 70
     0
102
RTVSPost2010Prop41ColorIndex
 90
      178
102
RTVSPost2010Prop41ColorRGB
 90
        0
102
RTVSPost2010PropOp41
 70
     0
102
RTVSPost2010Prop42
 90
       50
102
RTVSPost2010PropOp42
 70
     0
102
RTVSPost2010Prop43
 90
        3
102
RTVSPost2010PropOp43
 70
     0
102
RTVSPost2010Prop44ColorIndex
 90
        5
102
RTVSPost2010Prop44ColorRGB
 90
      255
102
RTVSPost2010PropOp44
 70
     0
102
RTVSPost2010Prop45
280
     0
102
RTVSPost2010PropOp45
 70
     0
102
RTVSPost2010Prop46
 90
       50
102
RTVSPost2010PropOp46
 70
     0
102
RTVSPost2010Prop47
 90
       50
102
RTVSPost2010PropOp47
 70
     0
102
RTVSPost2010Prop48
 90
       50
102
RTVSPost2010PropOp48
 70
     0
102
RTVSPost2010Prop49
280
     0
102
RTVSPost2010PropOp49
 70
     0
102
RTVSPost2010Prop50
 90
       50
102
RTVSPost2010PropOp50
 70
     0
102
RTVSPost2010Prop51ColorIndex
 90
      256
102
RTVSPost2010Prop51ColorRGB
 90
-16777216
102
RTVSPost2010PropOp51
 70
     0
102
RTVSPost2010Prop52
140
1.0
102
RTVSPost2010PropOp52
 70
     0
102
RTVSPost2010Prop53
 90
        2
102
RTVSPost2010PropOp53
 70
     0
102
RTVSPost2010Prop54
  1
strokes_ogs.tif
102
RTVSPost2010PropOp54
 70
     0
102
RTVSPost2010Prop55
280
     0
102
RTVSPost2010PropOp55
 70
     0
102
RTVSPost2010Prop56
140
1.0
102
RTVSPost2010PropOp56
 70
     0
102
RTVSPost2010Prop57
140
1.0
102
RTVSPost2010PropOp57
 70
     0
  0
XRECORD
  5
365
102
{ACAD_REACTORS
330
364
102
}
330
364
100
AcDbXrecord
280
     1
102
RTVSPropertyOp0
 70
     1
102
RTVSPropertyOp1
 70
     1
102
RTVSPropertyOp2
 70
     1
102
RTVSPropertyOp3
 70
     1
102
RTVSPropertyOp4
 70
     1
102
RTVSPropertyOp5
 70
     1
102
RTVSPropertyOp6
 70
     1
102
RTVSPropertyOp7
 70
     1
102
RTVSPropertyOp8
 70
     1
102
RTVSPropertyOp9
 70
     1
102
RTVSPropertyOp10
 70
     1
102
RTVSPropertyOp11
 70
     1
102
RTVSPropertyOp12
 70
     1
102
RTVSPropertyOp13
 70
     1
102
RTVSPropertyOp14
 70
     1
102
RTVSPropertyOp15
 70
     1
102
RTVSPropertyOp16
 70
     1
102
RTVSPropertyOp17
 70
     1
102
RTVSPropertyOp18
 70
     1
102
RTVSPropertyOp19
 70
     1
102
RTVSPropertyOp20
 70
     1
102
RTVSPropertyOp21
 70
     1
102
RTVSPropertyOp22
 70
     1
102
RTVSPropertyOp23
 70
     1
102
RTVSPropertyOp24
 70
     1
102
RTVSPropertyOp25
 70
     1
102
RTVSPropertyOp26
 70
     1
102
RTVSPropertyOp27
 70
     1
102
RTVSPropertyOp28
 70
     1
102
RTVSPropertyOp29
 70
     1
102
RTVSPropertyOp30
 70
     1
102
RTVSPropertyOp31
 70
     1
102
RTVSPropertyOp32
 70
     1
102
RTVSPropertyOp33
 70
     1
102
RTVSPropertyOp34
 70
     1
102
RTVSPropertyOp35
 70
     1
102
RTVSPropertyOp36
 70
     1
102
RTVSPropertyOp37
 70
     1
102
RTVSPropertyOp38
 70
     1
102
RTVSPropertyOp39
 70
     1
102
RTVSPropertyOp40
 70
     1
102
RTVSPropertyOp41
 70
     1
102
RTVSPropertyOp42
 70
     1
102
RTVSPropertyOp43
 70
     1
102
RTVSPropertyOp44
 70
     1
102
RTVSPropertyOp45
 70
     1
102
RTVSPropertyOp46
 70
     1
102
RTVSPropertyOp47
 70
     1
102
RTVSPropertyOp48
 70
     1
102
RTVSPropertyOp49
 70
     1
102
RTVSPropertyOp50
 70
     1
102
RTVSPropertyOp51
 70
     0
102
RTVSPropertyOp52
 70
     0
102
RTVSPropertyOp53
 70
     1
102
RTVSPropertyOp54
 70
     1
102
RTVSPropertyOp55
 70
     1
102
RTVSPropertyOp56
 70
     1
102
RTVSPropertyOp57
 70
     1
102
RTVSPost2010Prop28
280
     0
102
RTVSPost2010PropOp28
 70
     1
102
RTVSPost2010Prop29
280
     1
102
RTVSPost2010PropOp29
 70
     1
102
RTVSPost2010Prop30
280
     1
102
RTVSPost2010PropOp30
 70
     1
102
RTVSPost2010Prop31
280
     0
102
RTVSPost2010PropOp31
 70
     1
102
RTVSPost2010Prop32
280
     0
102
RTVSPost2010PropOp32
 70
     1
102
RTVSPost2010Prop33
280
     0
102
RTVSPost2010PropOp33
 70
     1
102
RTVSPost2010Prop34
280
     0
102
RTVSPost2010PropOp34
 70
     1
102
RTVSPost2010Prop35
280
     0
102
RTVSPost2010PropOp35
 70
     1
102
RTVSPost2010Prop36
280
     0
102
RTVSPost2010PropOp36
 70
     1
102
RTVSPost2010Prop37
 90
       50
102
RTVSPost2010PropOp37
 70
     1
102
RTVSPost2010Prop38
140
0.0
102
RTVSPost2010PropOp38
 70
     1
102
RTVSPost2010Prop39
140
1.0
102
RTVSPost2010PropOp39
 70
     1
102
RTVSPost2010Prop40
 90
        0
102
RTVSPost2010PropOp40
 70
     1
102
RTVSPost2010Prop41ColorIndex
 90
      178
102
RTVSPost2010Prop41ColorRGB
 90
        0
102
RTVSPost2010PropOp41
 70
     1
102
RTVSPost2010Prop42
 90
       50
102
RTVSPost2010PropOp42
 70
     1
102
RTVSPost2010Prop43
 90
        3
102
RTVSPost2010PropOp43
 70
     1
102
RTVSPost2010Prop44ColorIndex
 90
        5
102
RTVSPost2010Prop44ColorRGB
 90
      255
102
RTVSPost2010PropOp44
 70
     1
102
RTVSPost2010Prop45
280
     0
102
RTVSPost2010PropOp45
 70
     1
102
RTVSPost2010Prop46
 90
       50
102
RTVSPost2010PropOp46
 70
     1
102
RTVSPost2010Prop47
 90
       50
102
RTVSPost2010PropOp47
 70
     1
102
RTVSPost2010Prop48
 90
       50
102
RTVSPost2010PropOp48
 70
     1
102
RTVSPost2010Prop49
280
     0
102
RTVSPost2010PropOp49
 70
     1
102
RTVSPost2010Prop50
 90
       50
102
RTVSPost2010PropOp50
 70
     1
102
RTVSPost2010Prop51ColorIndex
 90
      256
102
RTVSPost2010Prop51ColorRGB
 90
-16777216
102
RTVSPost2010PropOp51
 70
     0
102
RTVSPost2010Prop52
140
1.0
102
RTVSPost2010PropOp52
 70
     0
102
RTVSPost2010Prop53
 90
        2
102
RTVSPost2010PropOp53
 70
     1
102
RTVSPost2010Prop54
  1
strokes_ogs.tif
102
RTVSPost2010PropOp54
 70
     1
102
RTVSPost2010Prop55
280
     0
102
RTVSPost2010PropOp55
 70
     1
102
RTVSPost2010Prop56
140
1.0
102
RTVSPost2010PropOp56
 70
     1
102
RTVSPost2010Prop57
140
1.0
102
RTVSPost2010PropOp57
 70
     1
  0
XRECORD
  5
383
102
{ACAD_REACTORS
330
382
102
}
330
382
100
AcDbXrecord
280
     1
102
RTVSPropertyOp0
 70
     1
102
RTVSPropertyOp1
 70
     1
102
RTVSPropertyOp2
 70
     1
102
RTVSPropertyOp3
 70
     1
102
RTVSPropertyOp4
 70
     1
102
RTVSPropertyOp5
 70
     1
102
RTVSPropertyOp6
 70
     1
102
RTVSPropertyOp7
 70
     1
102
RTVSPropertyOp8
 70
     1
102
RTVSPropertyOp9
 70
     1
102
RTVSPropertyOp10
 70
     1
102
RTVSPropertyOp11
 70
     1
102
RTVSPropertyOp12
 70
     1
102
RTVSPropertyOp13
 70
     1
102
RTVSPropertyOp14
 70
     1
102
RTVSPropertyOp15
 70
     1
102
RTVSPropertyOp16
 70
     1
102
RTVSPropertyOp17
 70
     1
102
RTVSPropertyOp18
 70
     1
102
RTVSPropertyOp19
 70
     1
102
RTVSPropertyOp20
 70
     1
102
RTVSPropertyOp21
 70
     1
102
RTVSPropertyOp22
 70
     1
102
RTVSPropertyOp23
 70
     1
102
RTVSPropertyOp24
 70
     1
102
RTVSPropertyOp25
 70
     1
102
RTVSPropertyOp26
 70
     1
102
RTVSPropertyOp27
 70
     1
102
RTVSPropertyOp28
 70
     1
102
RTVSPropertyOp29
 70
     1
102
RTVSPropertyOp30
 70
     1
102
RTVSPropertyOp31
 70
     1
102
RTVSPropertyOp32
 70
     1
102
RTVSPropertyOp33
 70
     1
102
RTVSPropertyOp34
 70
     1
102
RTVSPropertyOp35
 70
     1
102
RTVSPropertyOp36
 70
     1
102
RTVSPropertyOp37
 70
     1
102
RTVSPropertyOp38
 70
     1
102
RTVSPropertyOp39
 70
     1
102
RTVSPropertyOp40
 70
     1
102
RTVSPropertyOp41
 70
     1
102
RTVSPropertyOp42
 70
     1
102
RTVSPropertyOp43
 70
     1
102
RTVSPropertyOp44
 70
     1
102
RTVSPropertyOp45
 70
     1
102
RTVSPropertyOp46
 70
     1
102
RTVSPropertyOp47
 70
     1
102
RTVSPropertyOp48
 70
     1
102
RTVSPropertyOp49
 70
     1
102
RTVSPropertyOp50
 70
     1
102
RTVSPropertyOp51
 70
     0
102
RTVSPropertyOp52
 70
     0
102
RTVSPropertyOp53
 70
     1
102
RTVSPropertyOp54
 70
     1
102
RTVSPropertyOp55
 70
     1
102
RTVSPropertyOp56
 70
     1
102
RTVSPropertyOp57
 70
     1
102
RTVSPost2010Prop28
280
     0
102
RTVSPost2010PropOp28
 70
     1
102
RTVSPost2010Prop29
280
     1
102
RTVSPost2010PropOp29
 70
     1
102
RTVSPost2010Prop30
280
     1
102
RTVSPost2010PropOp30
 70
     1
102
RTVSPost2010Prop31
280
     0
102
RTVSPost2010PropOp31
 70
     1
102
RTVSPost2010Prop32
280
     0
102
RTVSPost2010PropOp32
 70
     1
102
RTVSPost2010Prop33
280
     0
102
RTVSPost2010PropOp33
 70
     1
102
RTVSPost2010Prop34
280
     0
102
RTVSPost2010PropOp34
 70
     1
102
RTVSPost2010Prop35
280
     0
102
RTVSPost2010PropOp35
 70
     1
102
RTVSPost2010Prop36
280
     0
102
RTVSPost2010PropOp36
 70
     1
102
RTVSPost2010Prop37
 90
       50
102
RTVSPost2010PropOp37
 70
     1
102
RTVSPost2010Prop38
140
0.0
102
RTVSPost2010PropOp38
 70
     1
102
RTVSPost2010Prop39
140
1.0
102
RTVSPost2010PropOp39
 70
     1
102
RTVSPost2010Prop40
 90
        0
102
RTVSPost2010PropOp40
 70
     1
102
RTVSPost2010Prop41ColorIndex
 90
      178
102
RTVSPost2010Prop41ColorRGB
 90
        0
102
RTVSPost2010PropOp41
 70
     1
102
RTVSPost2010Prop42
 90
       50
102
RTVSPost2010PropOp42
 70
     1
102
RTVSPost2010Prop43
 90
        3
102
RTVSPost2010PropOp43
 70
     1
102
RTVSPost2010Prop44ColorIndex
 90
        5
102
RTVSPost2010Prop44ColorRGB
 90
      255
102
RTVSPost2010PropOp44
 70
     1
102
RTVSPost2010Prop45
280
     0
102
RTVSPost2010PropOp45
 70
     1
102
RTVSPost2010Prop46
 90
       50
102
RTVSPost2010PropOp46
 70
     1
102
RTVSPost2010Prop47
 90
       50
102
RTVSPost2010PropOp47
 70
     1
102
RTVSPost2010Prop48
 90
       50
102
RTVSPost2010PropOp48
 70
     1
102
RTVSPost2010Prop49
280
     0
102
RTVSPost2010PropOp49
 70
     1
102
RTVSPost2010Prop50
 90
       50
102
RTVSPost2010PropOp50
 70
     1
102
RTVSPost2010Prop51ColorIndex
 90
      256
102
RTVSPost2010Prop51ColorRGB
 90
-16777216
102
RTVSPost2010PropOp51
 70
     0
102
RTVSPost2010Prop52
140
1.0
102
RTVSPost2010PropOp52
 70
     0
102
RTVSPost2010Prop53
 90
        2
102
RTVSPost2010PropOp53
 70
     1
102
RTVSPost2010Prop54
  1
strokes_ogs.tif
102
RTVSPost2010PropOp54
 70
     1
102
RTVSPost2010Prop55
280
     0
102
RTVSPost2010PropOp55
 70
     1
102
RTVSPost2010Prop56
140
1.0
102
RTVSPost2010PropOp56
 70
     1
102
RTVSPost2010Prop57
140
1.0
102
RTVSPost2010PropOp57
 70
     1
  0
XRECORD
  5
381
102
{ACAD_REACTORS
330
380
102
}
330
380
100
AcDbXrecord
280
     1
102
RTVSPropertyOp0
 70
     1
102
RTVSPropertyOp1
 70
     1
102
RTVSPropertyOp2
 70
     1
102
RTVSPropertyOp3
 70
     1
102
RTVSPropertyOp4
 70
     1
102
RTVSPropertyOp5
 70
     1
102
RTVSPropertyOp6
 70
     1
102
RTVSPropertyOp7
 70
     1
102
RTVSPropertyOp8
 70
     1
102
RTVSPropertyOp9
 70
     1
102
RTVSPropertyOp10
 70
     1
102
RTVSPropertyOp11
 70
     1
102
RTVSPropertyOp12
 70
     1
102
RTVSPropertyOp13
 70
     1
102
RTVSPropertyOp14
 70
     1
102
RTVSPropertyOp15
 70
     1
102
RTVSPropertyOp16
 70
     1
102
RTVSPropertyOp17
 70
     1
102
RTVSPropertyOp18
 70
     1
102
RTVSPropertyOp19
 70
     1
102
RTVSPropertyOp20
 70
     1
102
RTVSPropertyOp21
 70
     1
102
RTVSPropertyOp22
 70
     1
102
RTVSPropertyOp23
 70
     1
102
RTVSPropertyOp24
 70
     1
102
RTVSPropertyOp25
 70
     1
102
RTVSPropertyOp26
 70
     1
102
RTVSPropertyOp27
 70
     1
102
RTVSPropertyOp28
 70
     1
102
RTVSPropertyOp29
 70
     1
102
RTVSPropertyOp30
 70
     1
102
RTVSPropertyOp31
 70
     1
102
RTVSPropertyOp32
 70
     1
102
RTVSPropertyOp33
 70
     1
102
RTVSPropertyOp34
 70
     1
102
RTVSPropertyOp35
 70
     1
102
RTVSPropertyOp36
 70
     1
102
RTVSPropertyOp37
 70
     1
102
RTVSPropertyOp38
 70
     1
102
RTVSPropertyOp39
 70
     1
102
RTVSPropertyOp40
 70
     1
102
RTVSPropertyOp41
 70
     1
102
RTVSPropertyOp42
 70
     1
102
RTVSPropertyOp43
 70
     1
102
RTVSPropertyOp44
 70
     1
102
RTVSPropertyOp45
 70
     1
102
RTVSPropertyOp46
 70
     1
102
RTVSPropertyOp47
 70
     1
102
RTVSPropertyOp48
 70
     1
102
RTVSPropertyOp49
 70
     1
102
RTVSPropertyOp50
 70
     1
102
RTVSPropertyOp51
 70
     0
102
RTVSPropertyOp52
 70
     0
102
RTVSPropertyOp53
 70
     1
102
RTVSPropertyOp54
 70
     1
102
RTVSPropertyOp55
 70
     1
102
RTVSPropertyOp56
 70
     1
102
RTVSPropertyOp57
 70
     1
102
RTVSPost2010Prop28
280
     0
102
RTVSPost2010PropOp28
 70
     1
102
RTVSPost2010Prop29
280
     1
102
RTVSPost2010PropOp29
 70
     1
102
RTVSPost2010Prop30
280
     1
102
RTVSPost2010PropOp30
 70
     1
102
RTVSPost2010Prop31
280
     0
102
RTVSPost2010PropOp31
 70
     1
102
RTVSPost2010Prop32
280
     0
102
RTVSPost2010PropOp32
 70
     1
102
RTVSPost2010Prop33
280
     0
102
RTVSPost2010PropOp33
 70
     1
102
RTVSPost2010Prop34
280
     0
102
RTVSPost2010PropOp34
 70
     1
102
RTVSPost2010Prop35
280
     0
102
RTVSPost2010PropOp35
 70
     1
102
RTVSPost2010Prop36
280
     0
102
RTVSPost2010PropOp36
 70
     1
102
RTVSPost2010Prop37
 90
       50
102
RTVSPost2010PropOp37
 70
     1
102
RTVSPost2010Prop38
140
0.0
102
RTVSPost2010PropOp38
 70
     1
102
RTVSPost2010Prop39
140
1.0
102
RTVSPost2010PropOp39
 70
     1
102
RTVSPost2010Prop40
 90
        0
102
RTVSPost2010PropOp40
 70
     1
102
RTVSPost2010Prop41ColorIndex
 90
      178
102
RTVSPost2010Prop41ColorRGB
 90
        0
102
RTVSPost2010PropOp41
 70
     1
102
RTVSPost2010Prop42
 90
       50
102
RTVSPost2010PropOp42
 70
     1
102
RTVSPost2010Prop43
 90
        3
102
RTVSPost2010PropOp43
 70
     1
102
RTVSPost2010Prop44ColorIndex
 90
        5
102
RTVSPost2010Prop44ColorRGB
 90
      255
102
RTVSPost2010PropOp44
 70
     1
102
RTVSPost2010Prop45
280
     0
102
RTVSPost2010PropOp45
 70
     1
102
RTVSPost2010Prop46
 90
       50
102
RTVSPost2010PropOp46
 70
     1
102
RTVSPost2010Prop47
 90
       50
102
RTVSPost2010PropOp47
 70
     1
102
RTVSPost2010Prop48
 90
       50
102
RTVSPost2010PropOp48
 70
     1
102
RTVSPost2010Prop49
280
     0
102
RTVSPost2010PropOp49
 70
     1
102
RTVSPost2010Prop50
 90
       50
102
RTVSPost2010PropOp50
 70
     1
102
RTVSPost2010Prop51ColorIndex
 90
      256
102
RTVSPost2010Prop51ColorRGB
 90
-16777216
102
RTVSPost2010PropOp51
 70
     0
102
RTVSPost2010Prop52
140
1.0
102
RTVSPost2010PropOp52
 70
     0
102
RTVSPost2010Prop53
 90
        2
102
RTVSPost2010PropOp53
 70
     1
102
RTVSPost2010Prop54
  1
strokes_ogs.tif
102
RTVSPost2010PropOp54
 70
     1
102
RTVSPost2010Prop55
280
     0
102
RTVSPost2010PropOp55
 70
     1
102
RTVSPost2010Prop56
140
1.0
102
RTVSPost2010PropOp56
 70
     1
102
RTVSPost2010Prop57
140
1.0
102
RTVSPost2010PropOp57
 70
     1
  0
XRECORD
  5
37B
102
{ACAD_REACTORS
330
37A
102
}
330
37A
100
AcDbXrecord
280
     1
102
RTVSPropertyOp0
 70
     1
102
RTVSPropertyOp1
 70
     1
102
RTVSPropertyOp2
 70
     1
102
RTVSPropertyOp3
 70
     1
102
RTVSPropertyOp4
 70
     1
102
RTVSPropertyOp5
 70
     1
102
RTVSPropertyOp6
 70
     1
102
RTVSPropertyOp7
 70
     1
102
RTVSPropertyOp8
 70
     1
102
RTVSPropertyOp9
 70
     1
102
RTVSPropertyOp10
 70
     1
102
RTVSPropertyOp11
 70
     1
102
RTVSPropertyOp12
 70
     1
102
RTVSPropertyOp13
 70
     1
102
RTVSPropertyOp14
 70
     1
102
RTVSPropertyOp15
 70
     1
102
RTVSPropertyOp16
 70
     1
102
RTVSPropertyOp17
 70
     1
102
RTVSPropertyOp18
 70
     1
102
RTVSPropertyOp19
 70
     1
102
RTVSPropertyOp20
 70
     1
102
RTVSPropertyOp21
 70
     1
102
RTVSPropertyOp22
 70
     1
102
RTVSPropertyOp23
 70
     1
102
RTVSPropertyOp24
 70
     1
102
RTVSPropertyOp25
 70
     1
102
RTVSPropertyOp26
 70
     1
102
RTVSPropertyOp27
 70
     1
102
RTVSPropertyOp28
 70
     1
102
RTVSPropertyOp29
 70
     1
102
RTVSPropertyOp30
 70
     1
102
RTVSPropertyOp31
 70
     1
102
RTVSPropertyOp32
 70
     1
102
RTVSPropertyOp33
 70
     1
102
RTVSPropertyOp34
 70
     1
102
RTVSPropertyOp35
 70
     1
102
RTVSPropertyOp36
 70
     1
102
RTVSPropertyOp37
 70
     1
102
RTVSPropertyOp38
 70
     1
102
RTVSPropertyOp39
 70
     1
102
RTVSPropertyOp40
 70
     1
102
RTVSPropertyOp41
 70
     1
102
RTVSPropertyOp42
 70
     1
102
RTVSPropertyOp43
 70
     1
102
RTVSPropertyOp44
 70
     1
102
RTVSPropertyOp45
 70
     1
102
RTVSPropertyOp46
 70
     1
102
RTVSPropertyOp47
 70
     1
102
RTVSPropertyOp48
 70
     1
102
RTVSPropertyOp49
 70
     1
102
RTVSPropertyOp50
 70
     1
102
RTVSPropertyOp51
 70
     0
102
RTVSPropertyOp52
 70
     0
102
RTVSPropertyOp53
 70
     1
102
RTVSPropertyOp54
 70
     1
102
RTVSPropertyOp55
 70
     1
102
RTVSPropertyOp56
 70
     1
102
RTVSPropertyOp57
 70
     1
102
RTVSPost2010Prop28
280
     0
102
RTVSPost2010PropOp28
 70
     1
102
RTVSPost2010Prop29
280
     1
102
RTVSPost2010PropOp29
 70
     1
102
RTVSPost2010Prop30
280
     1
102
RTVSPost2010PropOp30
 70
     1
102
RTVSPost2010Prop31
280
     0
102
RTVSPost2010PropOp31
 70
     1
102
RTVSPost2010Prop32
280
     0
102
RTVSPost2010PropOp32
 70
     1
102
RTVSPost2010Prop33
280
     0
102
RTVSPost2010PropOp33
 70
     1
102
RTVSPost2010Prop34
280
     0
102
RTVSPost2010PropOp34
 70
     1
102
RTVSPost2010Prop35
280
     0
102
RTVSPost2010PropOp35
 70
     1
102
RTVSPost2010Prop36
280
     0
102
RTVSPost2010PropOp36
 70
     1
102
RTVSPost2010Prop37
 90
       50
102
RTVSPost2010PropOp37
 70
     1
102
RTVSPost2010Prop38
140
0.0
102
RTVSPost2010PropOp38
 70
     1
102
RTVSPost2010Prop39
140
1.0
102
RTVSPost2010PropOp39
 70
     1
102
RTVSPost2010Prop40
 90
        0
102
RTVSPost2010PropOp40
 70
     1
102
RTVSPost2010Prop41ColorIndex
 90
      178
102
RTVSPost2010Prop41ColorRGB
 90
        0
102
RTVSPost2010PropOp41
 70
     1
102
RTVSPost2010Prop42
 90
       50
102
RTVSPost2010PropOp42
 70
     1
102
RTVSPost2010Prop43
 90
        3
102
RTVSPost2010PropOp43
 70
     1
102
RTVSPost2010Prop44ColorIndex
 90
        5
102
RTVSPost2010Prop44ColorRGB
 90
      255
102
RTVSPost2010PropOp44
 70
     1
102
RTVSPost2010Prop45
280
     0
102
RTVSPost2010PropOp45
 70
     1
102
RTVSPost2010Prop46
 90
       50
102
RTVSPost2010PropOp46
 70
     1
102
RTVSPost2010Prop47
 90
       50
102
RTVSPost2010PropOp47
 70
     1
102
RTVSPost2010Prop48
 90
       50
102
RTVSPost2010PropOp48
 70
     1
102
RTVSPost2010Prop49
280
     0
102
RTVSPost2010PropOp49
 70
     1
102
RTVSPost2010Prop50
 90
       50
102
RTVSPost2010PropOp50
 70
     1
102
RTVSPost2010Prop51ColorIndex
 90
      256
102
RTVSPost2010Prop51ColorRGB
 90
-16777216
102
RTVSPost2010PropOp51
 70
     0
102
RTVSPost2010Prop52
140
1.0
102
RTVSPost2010PropOp52
 70
     0
102
RTVSPost2010Prop53
 90
        2
102
RTVSPost2010PropOp53
 70
     1
102
RTVSPost2010Prop54
  1
strokes_ogs.tif
102
RTVSPost2010PropOp54
 70
     1
102
RTVSPost2010Prop55
280
     0
102
RTVSPost2010PropOp55
 70
     1
102
RTVSPost2010Prop56
140
1.0
102
RTVSPost2010PropOp56
 70
     1
102
RTVSPost2010Prop57
140
1.0
102
RTVSPost2010PropOp57
 70
     1
  0
XRECORD
  5
37D
102
{ACAD_REACTORS
330
37C
102
}
330
37C
100
AcDbXrecord
280
     1
102
RTVSPropertyOp0
 70
     1
102
RTVSPropertyOp1
 70
     1
102
RTVSPropertyOp2
 70
     1
102
RTVSPropertyOp3
 70
     1
102
RTVSPropertyOp4
 70
     1
102
RTVSPropertyOp5
 70
     1
102
RTVSPropertyOp6
 70
     1
102
RTVSPropertyOp7
 70
     1
102
RTVSPropertyOp8
 70
     1
102
RTVSPropertyOp9
 70
     1
102
RTVSPropertyOp10
 70
     1
102
RTVSPropertyOp11
 70
     1
102
RTVSPropertyOp12
 70
     1
102
RTVSPropertyOp13
 70
     1
102
RTVSPropertyOp14
 70
     1
102
RTVSPropertyOp15
 70
     1
102
RTVSPropertyOp16
 70
     1
102
RTVSPropertyOp17
 70
     1
102
RTVSPropertyOp18
 70
     1
102
RTVSPropertyOp19
 70
     1
102
RTVSPropertyOp20
 70
     1
102
RTVSPropertyOp21
 70
     1
102
RTVSPropertyOp22
 70
     1
102
RTVSPropertyOp23
 70
     1
102
RTVSPropertyOp24
 70
     1
102
RTVSPropertyOp25
 70
     1
102
RTVSPropertyOp26
 70
     1
102
RTVSPropertyOp27
 70
     1
102
RTVSPropertyOp28
 70
     1
102
RTVSPropertyOp29
 70
     1
102
RTVSPropertyOp30
 70
     1
102
RTVSPropertyOp31
 70
     1
102
RTVSPropertyOp32
 70
     1
102
RTVSPropertyOp33
 70
     1
102
RTVSPropertyOp34
 70
     1
102
RTVSPropertyOp35
 70
     1
102
RTVSPropertyOp36
 70
     1
102
RTVSPropertyOp37
 70
     1
102
RTVSPropertyOp38
 70
     1
102
RTVSPropertyOp39
 70
     1
102
RTVSPropertyOp40
 70
     1
102
RTVSPropertyOp41
 70
     1
102
RTVSPropertyOp42
 70
     1
102
RTVSPropertyOp43
 70
     1
102
RTVSPropertyOp44
 70
     1
102
RTVSPropertyOp45
 70
     1
102
RTVSPropertyOp46
 70
     1
102
RTVSPropertyOp47
 70
     1
102
RTVSPropertyOp48
 70
     1
102
RTVSPropertyOp49
 70
     1
102
RTVSPropertyOp50
 70
     1
102
RTVSPropertyOp51
 70
     0
102
RTVSPropertyOp52
 70
     0
102
RTVSPropertyOp53
 70
     1
102
RTVSPropertyOp54
 70
     1
102
RTVSPropertyOp55
 70
     1
102
RTVSPropertyOp56
 70
     1
102
RTVSPropertyOp57
 70
     1
102
RTVSPost2010Prop28
280
     0
102
RTVSPost2010PropOp28
 70
     1
102
RTVSPost2010Prop29
280
     1
102
RTVSPost2010PropOp29
 70
     1
102
RTVSPost2010Prop30
280
     1
102
RTVSPost2010PropOp30
 70
     1
102
RTVSPost2010Prop31
280
     0
102
RTVSPost2010PropOp31
 70
     1
102
RTVSPost2010Prop32
280
     0
102
RTVSPost2010PropOp32
 70
     1
102
RTVSPost2010Prop33
280
     0
102
RTVSPost2010PropOp33
 70
     1
102
RTVSPost2010Prop34
280
     0
102
RTVSPost2010PropOp34
 70
     1
102
RTVSPost2010Prop35
280
     0
102
RTVSPost2010PropOp35
 70
     1
102
RTVSPost2010Prop36
280
     0
102
RTVSPost2010PropOp36
 70
     1
102
RTVSPost2010Prop37
 90
       50
102
RTVSPost2010PropOp37
 70
     1
102
RTVSPost2010Prop38
140
0.0
102
RTVSPost2010PropOp38
 70
     1
102
RTVSPost2010Prop39
140
1.0
102
RTVSPost2010PropOp39
 70
     1
102
RTVSPost2010Prop40
 90
        0
102
RTVSPost2010PropOp40
 70
     1
102
RTVSPost2010Prop41ColorIndex
 90
      178
102
RTVSPost2010Prop41ColorRGB
 90
        0
102
RTVSPost2010PropOp41
 70
     1
102
RTVSPost2010Prop42
 90
       50
102
RTVSPost2010PropOp42
 70
     1
102
RTVSPost2010Prop43
 90
        3
102
RTVSPost2010PropOp43
 70
     1
102
RTVSPost2010Prop44ColorIndex
 90
        5
102
RTVSPost2010Prop44ColorRGB
 90
      255
102
RTVSPost2010PropOp44
 70
     1
102
RTVSPost2010Prop45
280
     0
102
RTVSPost2010PropOp45
 70
     1
102
RTVSPost2010Prop46
 90
       50
102
RTVSPost2010PropOp46
 70
     1
102
RTVSPost2010Prop47
 90
       50
102
RTVSPost2010PropOp47
 70
     1
102
RTVSPost2010Prop48
 90
       50
102
RTVSPost2010PropOp48
 70
     1
102
RTVSPost2010Prop49
280
     0
102
RTVSPost2010PropOp49
 70
     1
102
RTVSPost2010Prop50
 90
       50
102
RTVSPost2010PropOp50
 70
     1
102
RTVSPost2010Prop51ColorIndex
 90
      256
102
RTVSPost2010Prop51ColorRGB
 90
-16777216
102
RTVSPost2010PropOp51
 70
     0
102
RTVSPost2010Prop52
140
1.0
102
RTVSPost2010PropOp52
 70
     0
102
RTVSPost2010Prop53
 90
        2
102
RTVSPost2010PropOp53
 70
     1
102
RTVSPost2010Prop54
  1
strokes_ogs.tif
102
RTVSPost2010PropOp54
 70
     1
102
RTVSPost2010Prop55
280
     0
102
RTVSPost2010PropOp55
 70
     1
102
RTVSPost2010Prop56
140
1.0
102
RTVSPost2010PropOp56
 70
     1
102
RTVSPost2010Prop57
140
1.0
102
RTVSPost2010PropOp57
 70
     1
  0
XRECORD
  5
36D
102
{ACAD_REACTORS
330
36C
102
}
330
36C
100
AcDbXrecord
280
     1
102
RTVSPropertyOp0
 70
     1
102
RTVSPropertyOp1
 70
     1
102
RTVSPropertyOp2
 70
     1
102
RTVSPropertyOp3
 70
     1
102
RTVSPropertyOp4
 70
     1
102
RTVSPropertyOp5
 70
     1
102
RTVSPropertyOp6
 70
     1
102
RTVSPropertyOp7
 70
     1
102
RTVSPropertyOp8
 70
     1
102
RTVSPropertyOp9
 70
     1
102
RTVSPropertyOp10
 70
     1
102
RTVSPropertyOp11
 70
     1
102
RTVSPropertyOp12
 70
     1
102
RTVSPropertyOp13
 70
     1
102
RTVSPropertyOp14
 70
     1
102
RTVSPropertyOp15
 70
     1
102
RTVSPropertyOp16
 70
     1
102
RTVSPropertyOp17
 70
     1
102
RTVSPropertyOp18
 70
     1
102
RTVSPropertyOp19
 70
     1
102
RTVSPropertyOp20
 70
     1
102
RTVSPropertyOp21
 70
     1
102
RTVSPropertyOp22
 70
     1
102
RTVSPropertyOp23
 70
     1
102
RTVSPropertyOp24
 70
     1
102
RTVSPropertyOp25
 70
     1
102
RTVSPropertyOp26
 70
     1
102
RTVSPropertyOp27
 70
     1
102
RTVSPropertyOp28
 70
     1
102
RTVSPropertyOp29
 70
     1
102
RTVSPropertyOp30
 70
     1
102
RTVSPropertyOp31
 70
     1
102
RTVSPropertyOp32
 70
     1
102
RTVSPropertyOp33
 70
     1
102
RTVSPropertyOp34
 70
     1
102
RTVSPropertyOp35
 70
     1
102
RTVSPropertyOp36
 70
     1
102
RTVSPropertyOp37
 70
     1
102
RTVSPropertyOp38
 70
     1
102
RTVSPropertyOp39
 70
     1
102
RTVSPropertyOp40
 70
     1
102
RTVSPropertyOp41
 70
     1
102
RTVSPropertyOp42
 70
     1
102
RTVSPropertyOp43
 70
     1
102
RTVSPropertyOp44
 70
     1
102
RTVSPropertyOp45
 70
     1
102
RTVSPropertyOp46
 70
     1
102
RTVSPropertyOp47
 70
     1
102
RTVSPropertyOp48
 70
     1
102
RTVSPropertyOp49
 70
     1
102
RTVSPropertyOp50
 70
     1
102
RTVSPropertyOp51
 70
     0
102
RTVSPropertyOp52
 70
     0
102
RTVSPropertyOp53
 70
     1
102
RTVSPropertyOp54
 70
     1
102
RTVSPropertyOp55
 70
     1
102
RTVSPropertyOp56
 70
     1
102
RTVSPropertyOp57
 70
     1
102
RTVSPost2010Prop28
280
     0
102
RTVSPost2010PropOp28
 70
     1
102
RTVSPost2010Prop29
280
     1
102
RTVSPost2010PropOp29
 70
     1
102
RTVSPost2010Prop30
280
     1
102
RTVSPost2010PropOp30
 70
     1
102
RTVSPost2010Prop31
280
     0
102
RTVSPost2010PropOp31
 70
     1
102
RTVSPost2010Prop32
280
     0
102
RTVSPost2010PropOp32
 70
     1
102
RTVSPost2010Prop33
280
     0
102
RTVSPost2010PropOp33
 70
     1
102
RTVSPost2010Prop34
280
     0
102
RTVSPost2010PropOp34
 70
     1
102
RTVSPost2010Prop35
280
     0
102
RTVSPost2010PropOp35
 70
     1
102
RTVSPost2010Prop36
280
     0
102
RTVSPost2010PropOp36
 70
     1
102
RTVSPost2010Prop37
 90
       50
102
RTVSPost2010PropOp37
 70
     1
102
RTVSPost2010Prop38
140
0.0
102
RTVSPost2010PropOp38
 70
     1
102
RTVSPost2010Prop39
140
1.0
102
RTVSPost2010PropOp39
 70
     1
102
RTVSPost2010Prop40
 90
        0
102
RTVSPost2010PropOp40
 70
     1
102
RTVSPost2010Prop41ColorIndex
 90
      178
102
RTVSPost2010Prop41ColorRGB
 90
        0
102
RTVSPost2010PropOp41
 70
     1
102
RTVSPost2010Prop42
 90
       50
102
RTVSPost2010PropOp42
 70
     1
102
RTVSPost2010Prop43
 90
        3
102
RTVSPost2010PropOp43
 70
     1
102
RTVSPost2010Prop44ColorIndex
 90
        5
102
RTVSPost2010Prop44ColorRGB
 90
      255
102
RTVSPost2010PropOp44
 70
     1
102
RTVSPost2010Prop45
280
     0
102
RTVSPost2010PropOp45
 70
     1
102
RTVSPost2010Prop46
 90
       50
102
RTVSPost2010PropOp46
 70
     1
102
RTVSPost2010Prop47
 90
       50
102
RTVSPost2010PropOp47
 70
     1
102
RTVSPost2010Prop48
 90
       50
102
RTVSPost2010PropOp48
 70
     1
102
RTVSPost2010Prop49
280
     0
102
RTVSPost2010PropOp49
 70
     1
102
RTVSPost2010Prop50
 90
       50
102
RTVSPost2010PropOp50
 70
     1
102
RTVSPost2010Prop51ColorIndex
 90
      256
102
RTVSPost2010Prop51ColorRGB
 90
-16777216
102
RTVSPost2010PropOp51
 70
     0
102
RTVSPost2010Prop52
140
1.0
102
RTVSPost2010PropOp52
 70
     0
102
RTVSPost2010Prop53
 90
        2
102
RTVSPost2010PropOp53
 70
     1
102
RTVSPost2010Prop54
  1
strokes_ogs.tif
102
RTVSPost2010PropOp54
 70
     1
102
RTVSPost2010Prop55
280
     0
102
RTVSPost2010PropOp55
 70
     1
102
RTVSPost2010Prop56
140
1.0
102
RTVSPost2010PropOp56
 70
     1
102
RTVSPost2010Prop57
140
1.0
102
RTVSPost2010PropOp57
 70
     1
  0
XRECORD
  5
35F
102
{ACAD_REACTORS
330
35E
102
}
330
35E
100
AcDbXrecord
280
     1
102
RTVSPropertyOp0
 70
     1
102
RTVSPropertyOp1
 70
     1
102
RTVSPropertyOp2
 70
     1
102
RTVSPropertyOp3
 70
     1
102
RTVSPropertyOp4
 70
     1
102
RTVSPropertyOp5
 70
     1
102
RTVSPropertyOp6
 70
     1
102
RTVSPropertyOp7
 70
     1
102
RTVSPropertyOp8
 70
     1
102
RTVSPropertyOp9
 70
     1
102
RTVSPropertyOp10
 70
     1
102
RTVSPropertyOp11
 70
     1
102
RTVSPropertyOp12
 70
     1
102
RTVSPropertyOp13
 70
     1
102
RTVSPropertyOp14
 70
     1
102
RTVSPropertyOp15
 70
     1
102
RTVSPropertyOp16
 70
     1
102
RTVSPropertyOp17
 70
     1
102
RTVSPropertyOp18
 70
     1
102
RTVSPropertyOp19
 70
     1
102
RTVSPropertyOp20
 70
     1
102
RTVSPropertyOp21
 70
     1
102
RTVSPropertyOp22
 70
     1
102
RTVSPropertyOp23
 70
     1
102
RTVSPropertyOp24
 70
     1
102
RTVSPropertyOp25
 70
     1
102
RTVSPropertyOp26
 70
     1
102
RTVSPropertyOp27
 70
     1
102
RTVSPropertyOp28
 70
     1
102
RTVSPropertyOp29
 70
     1
102
RTVSPropertyOp30
 70
     1
102
RTVSPropertyOp31
 70
     1
102
RTVSPropertyOp32
 70
     1
102
RTVSPropertyOp33
 70
     1
102
RTVSPropertyOp34
 70
     1
102
RTVSPropertyOp35
 70
     1
102
RTVSPropertyOp36
 70
     1
102
RTVSPropertyOp37
 70
     1
102
RTVSPropertyOp38
 70
     1
102
RTVSPropertyOp39
 70
     1
102
RTVSPropertyOp40
 70
     1
102
RTVSPropertyOp41
 70
     1
102
RTVSPropertyOp42
 70
     1
102
RTVSPropertyOp43
 70
     1
102
RTVSPropertyOp44
 70
     1
102
RTVSPropertyOp45
 70
     1
102
RTVSPropertyOp46
 70
     1
102
RTVSPropertyOp47
 70
     1
102
RTVSPropertyOp48
 70
     1
102
RTVSPropertyOp49
 70
     1
102
RTVSPropertyOp50
 70
     1
102
RTVSPropertyOp51
 70
     0
102
RTVSPropertyOp52
 70
     0
102
RTVSPropertyOp53
 70
     1
102
RTVSPropertyOp54
 70
     1
102
RTVSPropertyOp55
 70
     1
102
RTVSPropertyOp56
 70
     1
102
RTVSPropertyOp57
 70
     1
102
RTVSPost2010Prop28
280
     0
102
RTVSPost2010PropOp28
 70
     1
102
RTVSPost2010Prop29
280
     1
102
RTVSPost2010PropOp29
 70
     1
102
RTVSPost2010Prop30
280
     1
102
RTVSPost2010PropOp30
 70
     1
102
RTVSPost2010Prop31
280
     0
102
RTVSPost2010PropOp31
 70
     1
102
RTVSPost2010Prop32
280
     0
102
RTVSPost2010PropOp32
 70
     1
102
RTVSPost2010Prop33
280
     0
102
RTVSPost2010PropOp33
 70
     1
102
RTVSPost2010Prop34
280
     0
102
RTVSPost2010PropOp34
 70
     1
102
RTVSPost2010Prop35
280
     0
102
RTVSPost2010PropOp35
 70
     1
102
RTVSPost2010Prop36
280
     0
102
RTVSPost2010PropOp36
 70
     1
102
RTVSPost2010Prop37
 90
       50
102
RTVSPost2010PropOp37
 70
     1
102
RTVSPost2010Prop38
140
0.0
102
RTVSPost2010PropOp38
 70
     1
102
RTVSPost2010Prop39
140
1.0
102
RTVSPost2010PropOp39
 70
     1
102
RTVSPost2010Prop40
 90
        0
102
RTVSPost2010PropOp40
 70
     1
102
RTVSPost2010Prop41ColorIndex
 90
      178
102
RTVSPost2010Prop41ColorRGB
 90
        0
102
RTVSPost2010PropOp41
 70
     1
102
RTVSPost2010Prop42
 90
       50
102
RTVSPost2010PropOp42
 70
     1
102
RTVSPost2010Prop43
 90
        3
102
RTVSPost2010PropOp43
 70
     1
102
RTVSPost2010Prop44ColorIndex
 90
        5
102
RTVSPost2010Prop44ColorRGB
 90
      255
102
RTVSPost2010PropOp44
 70
     1
102
RTVSPost2010Prop45
280
     0
102
RTVSPost2010PropOp45
 70
     1
102
RTVSPost2010Prop46
 90
       50
102
RTVSPost2010PropOp46
 70
     1
102
RTVSPost2010Prop47
 90
       50
102
RTVSPost2010PropOp47
 70
     1
102
RTVSPost2010Prop48
 90
       50
102
RTVSPost2010PropOp48
 70
     1
102
RTVSPost2010Prop49
280
     0
102
RTVSPost2010PropOp49
 70
     1
102
RTVSPost2010Prop50
 90
       50
102
RTVSPost2010PropOp50
 70
     1
102
RTVSPost2010Prop51ColorIndex
 90
      256
102
RTVSPost2010Prop51ColorRGB
 90
-16777216
102
RTVSPost2010PropOp51
 70
     0
102
RTVSPost2010Prop52
140
1.0
102
RTVSPost2010PropOp52
 70
     0
102
RTVSPost2010Prop53
 90
        2
102
RTVSPost2010PropOp53
 70
     1
102
RTVSPost2010Prop54
  1
strokes_ogs.tif
102
RTVSPost2010PropOp54
 70
     1
102
RTVSPost2010Prop55
280
     0
102
RTVSPost2010PropOp55
 70
     1
102
RTVSPost2010Prop56
140
1.0
102
RTVSPost2010PropOp56
 70
     1
102
RTVSPost2010Prop57
140
1.0
102
RTVSPost2010PropOp57
 70
     1
  0
XRECORD
  5
37F
102
{ACAD_REACTORS
330
37E
102
}
330
37E
100
AcDbXrecord
280
     1
102
RTVSPropertyOp0
 70
     1
102
RTVSPropertyOp1
 70
     1
102
RTVSPropertyOp2
 70
     1
102
RTVSPropertyOp3
 70
     1
102
RTVSPropertyOp4
 70
     1
102
RTVSPropertyOp5
 70
     1
102
RTVSPropertyOp6
 70
     1
102
RTVSPropertyOp7
 70
     1
102
RTVSPropertyOp8
 70
     1
102
RTVSPropertyOp9
 70
     1
102
RTVSPropertyOp10
 70
     1
102
RTVSPropertyOp11
 70
     1
102
RTVSPropertyOp12
 70
     1
102
RTVSPropertyOp13
 70
     1
102
RTVSPropertyOp14
 70
     1
102
RTVSPropertyOp15
 70
     1
102
RTVSPropertyOp16
 70
     1
102
RTVSPropertyOp17
 70
     1
102
RTVSPropertyOp18
 70
     1
102
RTVSPropertyOp19
 70
     1
102
RTVSPropertyOp20
 70
     1
102
RTVSPropertyOp21
 70
     1
102
RTVSPropertyOp22
 70
     1
102
RTVSPropertyOp23
 70
     1
102
RTVSPropertyOp24
 70
     1
102
RTVSPropertyOp25
 70
     1
102
RTVSPropertyOp26
 70
     1
102
RTVSPropertyOp27
 70
     1
102
RTVSPropertyOp28
 70
     1
102
RTVSPropertyOp29
 70
     1
102
RTVSPropertyOp30
 70
     1
102
RTVSPropertyOp31
 70
     1
102
RTVSPropertyOp32
 70
     1
102
RTVSPropertyOp33
 70
     1
102
RTVSPropertyOp34
 70
     1
102
RTVSPropertyOp35
 70
     1
102
RTVSPropertyOp36
 70
     1
102
RTVSPropertyOp37
 70
     1
102
RTVSPropertyOp38
 70
     1
102
RTVSPropertyOp39
 70
     1
102
RTVSPropertyOp40
 70
     1
102
RTVSPropertyOp41
 70
     1
102
RTVSPropertyOp42
 70
     1
102
RTVSPropertyOp43
 70
     1
102
RTVSPropertyOp44
 70
     1
102
RTVSPropertyOp45
 70
     1
102
RTVSPropertyOp46
 70
     1
102
RTVSPropertyOp47
 70
     1
102
RTVSPropertyOp48
 70
     1
102
RTVSPropertyOp49
 70
     1
102
RTVSPropertyOp50
 70
     1
102
RTVSPropertyOp51
 70
     0
102
RTVSPropertyOp52
 70
     0
102
RTVSPropertyOp53
 70
     1
102
RTVSPropertyOp54
 70
     1
102
RTVSPropertyOp55
 70
     1
102
RTVSPropertyOp56
 70
     1
102
RTVSPropertyOp57
 70
     1
102
RTVSPost2010Prop28
280
     0
102
RTVSPost2010PropOp28
 70
     1
102
RTVSPost2010Prop29
280
     1
102
RTVSPost2010PropOp29
 70
     1
102
RTVSPost2010Prop30
280
     1
102
RTVSPost2010PropOp30
 70
     1
102
RTVSPost2010Prop31
280
     0
102
RTVSPost2010PropOp31
 70
     1
102
RTVSPost2010Prop32
280
     0
102
RTVSPost2010PropOp32
 70
     1
102
RTVSPost2010Prop33
280
     0
102
RTVSPost2010PropOp33
 70
     1
102
RTVSPost2010Prop34
280
     0
102
RTVSPost2010PropOp34
 70
     1
102
RTVSPost2010Prop35
280
     0
102
RTVSPost2010PropOp35
 70
     1
102
RTVSPost2010Prop36
280
     0
102
RTVSPost2010PropOp36
 70
     1
102
RTVSPost2010Prop37
 90
       50
102
RTVSPost2010PropOp37
 70
     1
102
RTVSPost2010Prop38
140
0.0
102
RTVSPost2010PropOp38
 70
     1
102
RTVSPost2010Prop39
140
1.0
102
RTVSPost2010PropOp39
 70
     1
102
RTVSPost2010Prop40
 90
        0
102
RTVSPost2010PropOp40
 70
     1
102
RTVSPost2010Prop41ColorIndex
 90
      178
102
RTVSPost2010Prop41ColorRGB
 90
        0
102
RTVSPost2010PropOp41
 70
     1
102
RTVSPost2010Prop42
 90
       50
102
RTVSPost2010PropOp42
 70
     1
102
RTVSPost2010Prop43
 90
        3
102
RTVSPost2010PropOp43
 70
     1
102
RTVSPost2010Prop44ColorIndex
 90
        5
102
RTVSPost2010Prop44ColorRGB
 90
      255
102
RTVSPost2010PropOp44
 70
     1
102
RTVSPost2010Prop45
280
     0
102
RTVSPost2010PropOp45
 70
     1
102
RTVSPost2010Prop46
 90
       50
102
RTVSPost2010PropOp46
 70
     1
102
RTVSPost2010Prop47
 90
       50
102
RTVSPost2010PropOp47
 70
     1
102
RTVSPost2010Prop48
 90
       50
102
RTVSPost2010PropOp48
 70
     1
102
RTVSPost2010Prop49
280
     0
102
RTVSPost2010PropOp49
 70
     1
102
RTVSPost2010Prop50
 90
       50
102
RTVSPost2010PropOp50
 70
     1
102
RTVSPost2010Prop51ColorIndex
 90
      256
102
RTVSPost2010Prop51ColorRGB
 90
-16777216
102
RTVSPost2010PropOp51
 70
     0
102
RTVSPost2010Prop52
140
1.0
102
RTVSPost2010PropOp52
 70
     0
102
RTVSPost2010Prop53
 90
        2
102
RTVSPost2010PropOp53
 70
     1
102
RTVSPost2010Prop54
  1
strokes_ogs.tif
102
RTVSPost2010PropOp54
 70
     1
102
RTVSPost2010Prop55
280
     0
102
RTVSPost2010PropOp55
 70
     1
102
RTVSPost2010Prop56
140
1.0
102
RTVSPost2010PropOp56
 70
     1
102
RTVSPost2010Prop57
140
1.0
102
RTVSPost2010PropOp57
 70
     1
  0
ENDSEC
  0
EOF
