  0
SECTION
  2
HEADER
  9
$ACADVER
  1
AC1021
  9
$ACADMAINTVER
 70
    25
  9
$DWGCODEPAGE
  3
ANSI_1252
  9
$INSBASE
 10
0.0
 20
0.0
 30
0.0
  9
$EXTMIN
 10
1.000000000000000E+20
 20
1.000000000000000E+20
 30
1.000000000000000E+20
  9
$EXTMAX
 10
-1.000000000000000E+20
 20
-1.000000000000000E+20
 30
-1.000000000000000E+20
  9
$LIMMIN
 10
0.0
 20
0.0
  9
$LIMMAX
 10
12.0
 20
9.0
  9
$ORTHOMODE
 70
     0
  9
$REGENMODE
 70
     1
  9
$FILLMODE
 70
     1
  9
$QTEXTMODE
 70
     0
  9
$MIRRTEXT
 70
     1
  9
$LTSCALE
 40
1.0
  9
$ATTMODE
 70
     1
  9
$TEXTSIZE
 40
0.2
  9
$TRACEWID
 40
0.05
  9
$TEXTSTYLE
  7
Standard
  9
$CLAYER
  8
Graypants_Bow160
  9
$CELTYPE
  6
ByLayer
  9
$CECOLOR
 62
   256
  9
$CELTSCALE
 40
1.0
  9
$DISPSILH
 70
     0
  9
$DIMSCALE
 40
1.0
  9
$DIMASZ
 40
0.18
  9
$DIMEXO
 40
0.0625
  9
$DIMDLI
 40
0.38
  9
$DIMRND
 40
0.0
  9
$DIMDLE
 40
0.0
  9
$DIMEXE
 40
0.18
  9
$DIMTP
 40
0.0
  9
$DIMTM
 40
0.0
  9
$DIMTXT
 40
0.18
  9
$DIMCEN
 40
0.09
  9
$DIMTSZ
 40
0.0
  9
$DIMTOL
 70
     0
  9
$DIMLIM
 70
     0
  9
$DIMTIH
 70
     1
  9
$DIMTOH
 70
     1
  9
$DIMSE1
 70
     0
  9
$DIMSE2
 70
     0
  9
$DIMTAD
 70
     0
  9
$DIMZIN
 70
     0
  9
$DIMBLK
  1

  9
$DIMASO
 70
     1
  9
$DIMSHO
 70
     1
  9
$DIMPOST
  1

  9
$DIMAPOST
  1

  9
$DIMALT
 70
     0
  9
$DIMALTD
 70
     2
  9
$DIMALTF
 40
25.4
  9
$DIMLFAC
 40
1.0
  9
$DIMTOFL
 70
     0
  9
$DIMTVP
 40
0.0
  9
$DIMTIX
 70
     0
  9
$DIMSOXD
 70
     0
  9
$DIMSAH
 70
     0
  9
$DIMBLK1
  1

  9
$DIMBLK2
  1

  9
$DIMSTYLE
  2
STANDARD_ACAD
  9
$DIMCLRD
 70
     0
  9
$DIMCLRE
 70
     0
  9
$DIMCLRT
 70
     0
  9
$DIMTFAC
 40
1.0
  9
$DIMGAP
 40
0.09
  9
$DIMJUST
 70
     0
  9
$DIMSD1
 70
     0
  9
$DIMSD2
 70
     0
  9
$DIMTOLJ
 70
     1
  9
$DIMTZIN
 70
     0
  9
$DIMALTZ
 70
     0
  9
$DIMALTTZ
 70
     0
  9
$DIMUPT
 70
     0
  9
$DIMDEC
 70
     4
  9
$DIMTDEC
 70
     4
  9
$DIMALTU
 70
     2
  9
$DIMALTTD
 70
     2
  9
$DIMTXSTY
  7
Standard
  9
$DIMAUNIT
 70
     0
  9
$DIMADEC
 70
     0
  9
$DIMALTRND
 40
0.0
  9
$DIMAZIN
 70
     0
  9
$DIMDSEP
 70
    46
  9
$DIMATFIT
 70
     3
  9
$DIMFRAC
 70
     0
  9
$DIMLDRBLK
  1

  9
$DIMLUNIT
 70
     2
  9
$DIMLWD
 70
    -2
  9
$DIMLWE
 70
    -2
  9
$DIMTMOVE
 70
     2
  9
$DIMFXL
 40
1.0
  9
$DIMFXLON
 70
     0
  9
$DIMJOGANG
 40
0.7853981633974483
  9
$DIMTFILL
 70
     0
  9
$DIMTFILLCLR
 70
     0
  9
$DIMARCSYM
 70
     0
  9
$DIMLTYPE
  6

  9
$DIMLTEX1
  6

  9
$DIMLTEX2
  6

  9
$LUNITS
 70
     2
  9
$LUPREC
 70
     3
  9
$SKETCHINC
 40
0.1
  9
$FILLETRAD
 40
0.5
  9
$AUNITS
 70
     0
  9
$AUPREC
 70
     0
  9
$MENU
  1
.
  9
$ELEVATION
 40
0.0
  9
$PELEVATION
 40
0.0
  9
$THICKNESS
 40
0.0
  9
$LIMCHECK
 70
     0
  9
$CHAMFERA
 40
0.0
  9
$CHAMFERB
 40
0.0
  9
$CHAMFERC
 40
0.0
  9
$CHAMFERD
 40
0.0
  9
$SKPOLY
 70
     0
  9
$TDCREATE
 40
2460850.630709132
  9
$TDUCREATE
 40
2460850.964042465
  9
$TDUPDATE
 40
2460850.630745324
  9
$TDUUPDATE
 40
2460850.964078657
  9
$TDINDWG
 40
0.0000000116
  9
$TDUSRTIMER
 40
0.0000000116
  9
$USRTIMER
 70
     1
  9
$ANGBASE
 50
0.0
  9
$ANGDIR
 70
     0
  9
$PDMODE
 70
     0
  9
$PDSIZE
 40
0.0
  9
$PLINEWID
 40
0.0
  9
$SPLFRAME
 70
     0
  9
$SPLINETYPE
 70
     6
  9
$SPLINESEGS
 70
     8
  9
$HANDSEED
  5
3C5
  9
$SURFTAB1
 70
     6
  9
$SURFTAB2
 70
     6
  9
$SURFTYPE
 70
     6
  9
$SURFU
 70
     6
  9
$SURFV
 70
     6
  9
$UCSBASE
  2

  9
$UCSNAME
  2

  9
$UCSORG
 10
0.0
 20
0.0
 30
0.0
  9
$UCSXDIR
 10
1.0
 20
0.0
 30
0.0
  9
$UCSYDIR
 10
0.0
 20
1.0
 30
0.0
  9
$UCSORTHOREF
  2

  9
$UCSORTHOVIEW
 70
     0
  9
$UCSORGTOP
 10
0.0
 20
0.0
 30
0.0
  9
$UCSORGBOTTOM
 10
0.0
 20
0.0
 30
0.0
  9
$UCSORGLEFT
 10
0.0
 20
0.0
 30
0.0
  9
$UCSORGRIGHT
 10
0.0
 20
0.0
 30
0.0
  9
$UCSORGFRONT
 10
0.0
 20
0.0
 30
0.0
  9
$UCSORGBACK
 10
0.0
 20
0.0
 30
0.0
  9
$PUCSBASE
  2

  9
$PUCSNAME
  2

  9
$PUCSORG
 10
0.0
 20
0.0
 30
0.0
  9
$PUCSXDIR
 10
1.0
 20
0.0
 30
0.0
  9
$PUCSYDIR
 10
0.0
 20
1.0
 30
0.0
  9
$PUCSORTHOREF
  2

  9
$PUCSORTHOVIEW
 70
     0
  9
$PUCSORGTOP
 10
0.0
 20
0.0
 30
0.0
  9
$PUCSORGBOTTOM
 10
0.0
 20
0.0
 30
0.0
  9
$PUCSORGLEFT
 10
0.0
 20
0.0
 30
0.0
  9
$PUCSORGRIGHT
 10
0.0
 20
0.0
 30
0.0
  9
$PUCSORGFRONT
 10
0.0
 20
0.0
 30
0.0
  9
$PUCSORGBACK
 10
0.0
 20
0.0
 30
0.0
  9
$USERI1
 70
     0
  9
$USERI2
 70
     0
  9
$USERI3
 70
     0
  9
$USERI4
 70
     0
  9
$USERI5
 70
     0
  9
$USERR1
 40
0.0
  9
$USERR2
 40
0.0
  9
$USERR3
 40
0.0
  9
$USERR4
 40
0.0
  9
$USERR5
 40
0.0
  9
$WORLDVIEW
 70
     1
  9
$SHADEDGE
 70
     3
  9
$SHADEDIF
 70
    70
  9
$TILEMODE
 70
     1
  9
$MAXACTVP
 70
    64
  9
$PINSBASE
 10
0.0
 20
0.0
 30
0.0
  9
$PLIMCHECK
 70
     0
  9
$PEXTMIN
 10
1.000000000000000E+20
 20
1.000000000000000E+20
 30
1.000000000000000E+20
  9
$PEXTMAX
 10
-1.000000000000000E+20
 20
-1.000000000000000E+20
 30
-1.000000000000000E+20
  9
$PLIMMIN
 10
0.0
 20
0.0
  9
$PLIMMAX
 10
12.0
 20
9.0
  9
$UNITMODE
 70
     0
  9
$VISRETAIN
 70
     1
  9
$PLINEGEN
 70
     0
  9
$PSLTSCALE
 70
     1
  9
$TREEDEPTH
 70
  3020
  9
$CMLSTYLE
  2
Standard
  9
$CMLJUST
 70
     0
  9
$CMLSCALE
 40
1.0
  9
$PROXYGRAPHICS
 70
     1
  9
$MEASUREMENT
 70
     1
  9
$CELWEIGHT
370
    -1
  9
$ENDCAPS
280
     0
  9
$JOINSTYLE
280
     0
  9
$LWDISPLAY
290
     0
  9
$INSUNITS
 70
     4
  9
$HYPERLINKBASE
  1

  9
$STYLESHEET
  1

  9
$XEDIT
290
     1
  9
$CEPSNTYPE
380
     0
  9
$PSTYLEMODE
290
     1
  9
$FINGERPRINTGUID
  2
{ef71e449-2a39-2c46-b65c-c4dbc4732682}
  9
$VERSIONGUID
  2
{FAEB1C32-E019-11D5-929B-00C0DF256EC4}
  9
$EXTNAMES
290
     1
  9
$PSVPSCALE
 40
0.0
  9
$OLESTARTUP
290
     0
  9
$SORTENTS
280
   127
  9
$INDEXCTL
280
     0
  9
$HIDETEXT
280
     1
  9
$XCLIPFRAME
290
     0
  9
$HALOGAP
280
     0
  9
$OBSCOLOR
 70
   257
  9
$OBSLTYPE
280
     0
  9
$INTERSECTIONDISPLAY
280
     0
  9
$INTERSECTIONCOLOR
 70
   257
  9
$DIMASSOC
280
     2
  9
$PROJECTNAME
  1

  9
$CAMERADISPLAY
290
     0
  9
$LENSLENGTH
 40
50.0
  9
$CAMERAHEIGHT
 40
0.0
  9
$STEPSPERSEC
 40
2.0
  9
$STEPSIZE
 40
6.0
  9
$3DDWFPREC
 40
2.0
  9
$PSOLWIDTH
 40
0.25
  9
$PSOLHEIGHT
 40
4.0
  9
$LOFTANG1
 40
1.570796326794897
  9
$LOFTANG2
 40
1.570796326794897
  9
$LOFTMAG1
 40
0.0
  9
$LOFTMAG2
 40
0.0
  9
$LOFTPARAM
 70
     7
  9
$LOFTNORMALS
280
     1
  9
$LATITUDE
 40
37.795
  9
$LONGITUDE
 40
-122.394
  9
$NORTHDIRECTION
 40
0.0
  9
$TIMEZONE
 70
 -8000
  9
$LIGHTGLYPHDISPLAY
280
     1
  9
$TILEMODELIGHTSYNCH
280
     1
  9
$CMATERIAL
347
44
  9
$SOLIDHIST
280
     0
  9
$SHOWHIST
280
     1
  9
$DWFFRAME
280
     2
  9
$DGNFRAME
280
     2
  9
$REALWORLDSCALE
290
     1
  9
$INTERFERECOLOR
 62
   256
  9
$CSHADOW
280
     0
  9
$SHADOWPLANELOCATION
 40
0.0
  0
ENDSEC
  0
SECTION
  2
CLASSES
  0
CLASS
  1
ACDBDICTIONARYWDFLT
  2
AcDbDictionaryWithDefault
  3
ObjectDBX Classes
 90
        0
 91
        3
280
     0
281
     0
  0
CLASS
  1
VISUALSTYLE
  2
AcDbVisualStyle
  3
ObjectDBX Classes
 90
     4095
 91
        3
280
     0
281
     0
  0
CLASS
  1
MATERIAL
  2
AcDbMaterial
  3
ObjectDBX Classes
 90
     1153
 91
        3
280
     0
281
     0
  0
CLASS
  1
SCALE
  2
AcDbScale
  3
ObjectDBX Classes
 90
     1153
 91
        3
280
     0
281
     0
  0
CLASS
  1
TABLESTYLE
  2
AcDbTableStyle
  3
ObjectDBX Classes
 90
     4095
 91
        3
280
     0
281
     0
  0
CLASS
  1
MLEADERSTYLE
  2
AcDbMLeaderStyle
  3
ACDB_MLEADERSTYLE_CLASS
 90
     4095
 91
        3
280
     0
281
     0
  0
CLASS
  1
SUN
  2
AcDbSun
  3
SCENEOE
 90
     1153
 91
        3
280
     0
281
     0
  0
CLASS
  1
DICTIONARYVAR
  2
AcDbDictionaryVar
  3
ObjectDBX Classes
 90
        0
 91
        3
280
     0
281
     0
  0
CLASS
  1
CELLSTYLEMAP
  2
AcDbCellStyleMap
  3
ObjectDBX Classes
 90
     1152
 91
        3
280
     0
281
     0
  0
ENDSEC
  0
SECTION
  2
TABLES
  0
TABLE
  2
VPORT
  5
8
330
0
100
AcDbSymbolTable
 70
     1
  0
VPORT
  5
29
330
8
100
AcDbSymbolTableRecord
100
AcDbViewportTableRecord
  2
*Active
 70
     0
 10
0.0
 20
0.0
 11
1.0
 21
1.0
 12
10.42990654205607
 22
4.5
 13
0.0
 23
0.0
 14
0.5
 24
0.5
 15
0.5
 25
0.5
 16
0.0
 26
0.0
 36
1.0
 17
0.0
 27
0.0
 37
0.0
 40
9.0
 41
1.972972972850329
 42
50.0
 43
0.0
 44
0.0
 50
0.0
 51
0.0
 71
     0
 72
   100
 73
     1
 74
     3
 75
     0
 76
     0
 77
     0
 78
     0
281
     0
 65
     1
110
0.0
120
0.0
130
0.0
111
1.0
121
0.0
131
0.0
112
0.0
122
1.0
132
0.0
 79
     0
146
0.0
348
2F
 60
     3
 61
     5
292
     1
282
     1
141
0.0
142
0.0
 63
   250
361
6D
  0
ENDTAB
  0
TABLE
  2
LTYPE
  5
5
330
0
100
AcDbSymbolTable
 70
     2
  0
LTYPE
  5
14
330
5
100
AcDbSymbolTableRecord
100
AcDbLinetypeTableRecord
  2
ByBlock
 70
     0
  3

 72
    65
 73
     0
 40
0.0
  0
LTYPE
  5
15
330
5
100
AcDbSymbolTableRecord
100
AcDbLinetypeTableRecord
  2
ByLayer
 70
     0
  3

 72
    65
 73
     0
 40
0.0
  0
LTYPE
  5
16
330
5
100
AcDbSymbolTableRecord
100
AcDbLinetypeTableRecord
  2
Continuous
 70
     0
  3
Solid line
 72
    65
 73
     0
 40
0.0
  0
LTYPE
  5
15F
330
5
100
AcDbSymbolTableRecord
100
AcDbLinetypeTableRecord
  2
Hidden
 70
     0
  3

 72
    65
 73
     2
 40
4.0
 49
2.0
 74
     0
 49
-2.0
 74
     0
  0
ENDTAB
  0
TABLE
  2
LAYER
  5
2
330
0
100
AcDbSymbolTable
 70
     2
  0
LAYER
  5
10
330
2
100
AcDbSymbolTableRecord
100
AcDbLayerTableRecord
  2
0
 70
     0
 62
     7
  6
Continuous
370
    -3
390
F
347
46
  0
LAYER
  5
6E
330
2
100
AcDbSymbolTableRecord
100
AcDbLayerTableRecord
  2
Graypants_Bow160
 70
     0
 62
    36
420
  8866048
  6
Continuous
370
    -3
390
F
347
46
  0
ENDTAB
  0
TABLE
  2
STYLE
  5
3
330
0
100
AcDbSymbolTable
 70
     1
  0
STYLE
  5
11
330
3
100
AcDbSymbolTableRecord
100
AcDbTextStyleTableRecord
  2
Standard
 70
     0
 40
0.0
 41
1.0
 50
0.0
 71
     0
 42
0.2
  3
txt
  4

  0
ENDTAB
  0
TABLE
  2
VIEW
  5
6
330
0
100
AcDbSymbolTable
 70
     0
  0
ENDTAB
  0
TABLE
  2
UCS
  5
7
330
0
100
AcDbSymbolTable
 70
     0
  0
ENDTAB
  0
TABLE
  2
APPID
  5
9
330
0
100
AcDbSymbolTable
 70
     2
  0
APPID
  5
12
330
9
100
AcDbSymbolTableRecord
100
AcDbRegAppTableRecord
  2
ACAD
 70
     0
  0
APPID
  5
3BD
330
9
100
AcDbSymbolTableRecord
100
AcDbRegAppTableRecord
  2
ACAD_MLEADERVER
 70
     0
  0
ENDTAB
  0
TABLE
  2
DIMSTYLE
  5
A
330
0
100
AcDbSymbolTable
 70
     1
100
AcDbDimStyleTable
  0
DIMSTYLE
105
27
330
A
100
AcDbSymbolTableRecord
100
AcDbDimStyleTableRecord
  2
STANDARD_ACAD
 70
     0
178
     0
340
11
  0
ENDTAB
  0
TABLE
  2
BLOCK_RECORD
  5
1
330
0
100
AcDbSymbolTable
 70
     1
  0
BLOCK_RECORD
  5
1F
330
1
100
AcDbSymbolTableRecord
100
AcDbBlockTableRecord
  2
*Model_Space
340
22
 70
     0
280
     1
281
     0
  0
BLOCK_RECORD
  5
1B
330
1
100
AcDbSymbolTableRecord
100
AcDbBlockTableRecord
  2
*Paper_Space
340
1E
 70
     0
280
     1
281
     0
  0
BLOCK_RECORD
  5
23
330
1
100
AcDbSymbolTableRecord
100
AcDbBlockTableRecord
  2
*Paper_Space0
340
26
 70
     0
280
     1
281
     0
  0
ENDTAB
  0
ENDSEC
  0
SECTION
  2
BLOCKS
  0
BLOCK
  5
20
330
1F
100
AcDbEntity
  8
0
100
AcDbBlockBegin
  2
*Model_Space
 70
     0
 10
0.0
 20
0.0
 30
0.0
  3
*Model_Space
  1

  0
ENDBLK
  5
21
330
1F
100
AcDbEntity
  8
0
100
AcDbBlockEnd
  0
BLOCK
  5
1C
330
1B
100
AcDbEntity
 67
     1
  8
0
100
AcDbBlockBegin
  2
*Paper_Space
 70
     0
 10
0.0
 20
0.0
 30
0.0
  3
*Paper_Space
  1

  0
ENDBLK
  5
1D
330
1B
100
AcDbEntity
 67
     1
  8
0
100
AcDbBlockEnd
  0
BLOCK
  5
24
330
23
100
AcDbEntity
  8
0
100
AcDbBlockBegin
  2
*Paper_Space0
 70
     0
 10
0.0
 20
0.0
 30
0.0
  3
*Paper_Space0
  1

  0
ENDBLK
  5
25
330
23
100
AcDbEntity
  8
0
100
AcDbBlockEnd
  0
ENDSEC
  0
SECTION
  2
ENTITIES
  0
ARC
  5
6F
330
1F
100
AcDbEntity
  8
Graypants_Bow160
370
    -3
100
AcDbCircle
 10
-0.0000000000044117
 20
-2068.700104863393
 30
0.0
 40
16.00000000000237
100
AcDbArc
 50
0.0000000000097707
 51
81.43293030034907
  0
ARC
  5
70
330
1F
100
AcDbEntity
  8
Graypants_Bow160
370
    -3
100
AcDbCircle
 10
0.0000000000027449
 20
-2068.700104863391
 30
0.0
 40
15.50000000000042
210
0.0
220
0.0
230
-1.0
100
AcDbArc
 50
92.45526450912384
 51
180.0
  0
LINE
  5
71
330
1F
100
AcDbEntity
  8
Graypants_Bow160
370
    -3
100
AcDbLine
 10
1.900376178620945
 20
-2037.241938701624
 30
0.0
 11
1.900376178620945
 21
-2037.470930368261
 31
0.0
  0
LINE
  5
72
330
1F
100
AcDbEntity
  8
Graypants_Bow160
370
    -3
100
AcDbLine
 10
2.500376178759843
 20
-2037.642596611014
 30
0.0
 11
2.500376178759842
 21
-2037.642936377208
 31
0.0
  0
LINE
  5
73
330
1F
100
AcDbEntity
  8
Graypants_Bow160
370
    -3
100
AcDbLine
 10
1.500376178623355
 20
-2028.288179754037
 30
0.0
 11
2.250376178617444
 21
-2037.241938701636
 31
0.0
  0
LINE
  5
74
330
1F
100
AcDbEntity
  8
Graypants_Bow160
370
    -3
100
AcDbLine
 10
-2.249623821375735
 20
-2037.241938701636
 30
0.0
 11
-1.499623821381647
 21
-2028.288179754037
 31
0.0
  0
LINE
  5
75
330
1F
100
AcDbEntity
  8
Graypants_Bow160
370
    -3
100
AcDbLine
 10
1.000376178654051
 20
-2028.041938701615
 30
0.0
 11
1.500376178647912
 21
-2028.288179753983
 31
0.0
  0
LINE
  5
76
330
1F
100
AcDbEntity
  8
Graypants_Bow160
370
    -3
100
AcDbLine
 10
-1.499623821405976
 20
-2028.288179753983
 30
0.0
 11
-0.9996238214123423
 21
-2028.041938701615
 31
0.0
  0
LINE
  5
77
330
1F
100
AcDbEntity
  8
Graypants_Bow160
370
    -3
100
AcDbLine
 10
-0.0000562368113606
 20
-2037.241938692175
 30
0.0
 11
0.0003481236094558
 21
-2037.241938699531
 31
0.0
  0
ARC
  5
78
330
1F
100
AcDbEntity
  8
Graypants_Bow160
370
    -3
100
AcDbCircle
 10
0.000000030972231
 20
-2045.240860583802
 30
0.0
 40
7.9989218910232
100
AcDbArc
 50
89.9975066725899
 51
90.00000022186626
  0
LINE
  5
79
330
1F
100
AcDbEntity
  8
Graypants_Bow160
370
    -3
100
AcDbLine
 10
-1.899623821379009
 20
-2037.470372430956
 30
0.0
 11
-1.899623821379009
 21
-2037.241938701624
 31
0.0
  0
LINE
  5
7A
330
1F
100
AcDbEntity
  8
Graypants_Bow160
370
    -3
100
AcDbLine
 10
-2.499623821522307
 20
-2037.642873794125
 30
0.0
 11
-2.499623821522307
 21
-2037.642596611013
 31
0.0
  0
LINE
  5
7B
330
1F
100
AcDbEntity
  8
Graypants_Bow160
370
    -3
100
AcDbLine
 10
-0.0000562368109058
 20
-2037.241938692175
 30
0.0
 11
0.0003481236094558
 21
-2037.241938699531
 31
0.0
  0
CIRCLE
  5
7C
330
1F
100
AcDbEntity
  8
Graypants_Bow160
370
    -3
100
AcDbCircle
 10
-0.0000000000022509
 20
-2045.241938692778
 30
0.0
 40
7.75
  0
LINE
  5
7D
330
1F
100
AcDbEntity
  8
Graypants_Bow160
370
    -3
100
AcDbLine
 10
1.500376178620855
 20
-2028.288179754038
 30
0.0
 11
-1.499623821379146
 21
-2028.288179754038
 31
0.0
  0
ARC
  5
7E
330
1F
100
AcDbEntity
  8
Graypants_Bow160
370
    -3
100
AcDbCircle
 10
0.0000000000015959
 20
-2162.450104863391
 30
0.0
 40
13.0
210
0.0
220
0.0
230
-1.0
100
AcDbArc
 50
179.999999999998
 51
0.0000000000020042
  0
LINE
  5
7F
330
1F
100
AcDbEntity
  8
Graypants_Bow160
370
    -3
100
AcDbLine
 10
31.0
 20
-1217.05399085379
 30
0.0
 11
30.0
 21
-1217.05399085379
 31
0.0
  0
LINE
  5
80
330
1F
100
AcDbEntity
  8
Graypants_Bow160
370
    -3
100
AcDbLine
 10
-30.0
 20
-1217.053990853791
 30
0.0
 11
30.0
 21
-1217.05399085379
 31
0.0
  0
LINE
  5
81
330
1F
100
AcDbEntity
  8
Graypants_Bow160
370
    -3
100
AcDbLine
 10
-30.0
 20
-1217.053990853791
 30
0.0
 11
-31.0
 21
-1217.053990853791
 31
0.0
  0
LINE
  5
82
330
1F
100
AcDbEntity
  8
Graypants_Bow160
370
    -3
100
AcDbLine
 10
30.0
 20
-1218.05399085379
 30
0.0
 11
31.0
 21
-1218.05399085379
 31
0.0
  0
LINE
  5
83
330
1F
100
AcDbEntity
  8
Graypants_Bow160
370
    -3
100
AcDbLine
 10
31.0
 20
-1218.05399085379
 30
0.0
 11
31.0
 21
-1217.05399085379
 31
0.0
  0
LINE
  5
84
330
1F
100
AcDbEntity
  8
Graypants_Bow160
370
    -3
100
AcDbLine
 10
-31.0
 20
-1218.053990853791
 30
0.0
 11
-30.0
 21
-1218.053990853791
 31
0.0
  0
LINE
  5
85
330
1F
100
AcDbEntity
  8
Graypants_Bow160
370
    -3
100
AcDbLine
 10
-29.99999999999909
 20
-1177.0539908538
 30
0.0
 11
-29.99999999999909
 21
-1217.05399085379
 31
0.0
  0
LINE
  5
86
330
1F
100
AcDbEntity
  8
Graypants_Bow160
370
    -3
100
AcDbLine
 10
30.000000000005
 20
-1177.0539908538
 30
0.0
 11
30.000000000005
 21
-1217.05399085379
 31
0.0
  0
LINE
  5
87
330
1F
100
AcDbEntity
  8
Graypants_Bow160
370
    -3
100
AcDbLine
 10
30.000000000005
 20
-1177.0539908538
 30
0.0
 11
-29.99999999999909
 21
-1177.0539908538
 31
0.0
  0
LINE
  5
88
330
1F
100
AcDbEntity
  8
Graypants_Bow160
370
    -3
100
AcDbLine
 10
-31.0
 20
-1218.053990853791
 30
0.0
 11
-31.0
 21
-1217.053990853791
 31
0.0
  0
LINE
  5
89
330
1F
100
AcDbEntity
  8
Graypants_Bow160
370
    -3
100
AcDbLine
 10
0.7457239337959436
 20
-1218.05399085379
 30
0.0
 11
0.7503761786208543
 21
-2028.041938701614
 31
0.0
  0
LINE
  5
8A
330
1F
100
AcDbEntity
  8
Graypants_Bow160
370
    -3
100
AcDbLine
 10
-0.7496238213791457
 20
-2028.041938701614
 30
0.0
 11
-0.7449715765542351
 21
-1218.05399085379
 31
0.0
  0
ARC
  5
8B
330
1F
100
AcDbEntity
  8
Graypants_Bow160
370
    -3
100
AcDbCircle
 10
0.0000000000022509
 20
-2045.241938692778
 30
0.0
 40
8.0
210
0.0
220
0.0
230
-1.0
100
AcDbArc
 50
270.0000000000002
 51
89.99999999999982
  0
ARC
  5
8C
330
1F
100
AcDbEntity
  8
Graypants_Bow160
370
    -3
100
AcDbCircle
 10
0.0000000000022509
 20
-2045.241938692778
 30
0.0
 40
8.0
210
0.0
220
0.0
230
-1.0
100
AcDbArc
 50
89.99999999999983
 51
270.0000000000002
  0
ARC
  5
8D
330
1F
100
AcDbEntity
  8
Graypants_Bow160
370
    -3
100
AcDbCircle
 10
0.0000000000017678
 20
-2068.700104863391
 30
0.0
 40
15.49999999999949
210
0.0
220
0.0
230
-1.0
100
AcDbArc
 50
179.9999999999983
 51
87.5447354908735
  0
ARC
  5
8E
330
1F
100
AcDbEntity
  8
Graypants_Bow160
370
    -3
100
AcDbCircle
 10
-0.0000000000020178
 20
-2068.700104863391
 30
0.0
 40
16.00000000000019
100
AcDbArc
 50
98.56706969964465
 51
0.0000000000016284
  0
LINE
  5
8F
330
1F
100
AcDbEntity
  8
Graypants_Bow160
370
    -3
100
AcDbLine
 10
-2.249623821375735
 20
-2037.241938701636
 30
0.0
 11
2.250376178617444
 21
-2037.241938701636
 31
0.0
  0
LINE
  5
90
330
1F
100
AcDbEntity
  8
Graypants_Bow160
370
    -3
100
AcDbLine
 10
1.000376178654051
 20
-2028.041938701615
 30
0.0
 11
-0.9996238214123423
 21
-2028.041938701615
 31
0.0
  0
LINE
  5
91
330
1F
100
AcDbEntity
  8
Graypants_Bow160
370
    -3
100
AcDbLine
 10
-30.0
 20
-1218.053990853791
 30
0.0
 11
30.0
 21
-1218.05399085379
 31
0.0
  0
LINE
  5
92
330
1F
100
AcDbEntity
  8
Graypants_Bow160
370
    -3
100
AcDbLine
 10
1935.803990853804
 20
-2068.700104863391
 30
0.0
 11
1935.803990853804
 21
-2084.70010486339
 31
0.0
  0
LINE
  5
93
330
1F
100
AcDbEntity
  8
Graypants_Bow160
370
    -3
100
AcDbLine
 10
1935.803990853804
 20
-2052.878630271357
 30
0.0
 11
1935.803990853804
 21
-2068.700104863391
 31
0.0
  0
LINE
  5
94
330
1F
100
AcDbEntity
  8
Graypants_Bow160
370
    -3
100
AcDbLine
 10
1935.803990853804
 20
-2052.878630271357
 30
0.0
 11
1936.053990853804
 21
-2053.047814425444
 31
0.0
  0
LINE
  5
95
330
1F
100
AcDbEntity
  8
Graypants_Bow160
370
    -3
100
AcDbLine
 10
1935.803990853804
 20
-2052.878630271357
 30
0.0
 11
1866.303990853809
 21
-2052.878630271357
 31
0.0
  0
LINE
  5
96
330
1F
100
AcDbEntity
  8
Graypants_Bow160
370
    -3
100
AcDbLine
 10
1866.303990853809
 20
-2052.878630271357
 30
0.0
 11
1866.053990853809
 21
-2053.047814425444
 31
0.0
  0
LINE
  5
97
330
1F
100
AcDbEntity
  8
Graypants_Bow160
370
    -3
100
AcDbLine
 10
1938.053990853801
 20
-2068.700104863391
 30
0.0
 11
1938.053990853801
 21
-2084.20010486339
 31
0.0
  0
LINE
  5
98
330
1F
100
AcDbEntity
  8
Graypants_Bow160
370
    -3
100
AcDbLine
 10
1937.553990853801
 20
-2068.700104863391
 30
0.0
 11
1937.553990853801
 21
-2052.878630271357
 31
0.0
  0
LINE
  5
99
330
1F
100
AcDbEntity
  8
Graypants_Bow160
370
    -3
100
AcDbLine
 10
1938.053990853801
 20
-2053.214334262143
 30
0.0
 11
1937.553990853801
 21
-2052.878630271357
 31
0.0
  0
LINE
  5
9A
330
1F
100
AcDbEntity
  8
Graypants_Bow160
370
    -3
100
AcDbLine
 10
1937.553990853801
 20
-2052.878630271357
 30
0.0
 11
1936.053990853801
 21
-2052.878630271357
 31
0.0
  0
LINE
  5
9B
330
1F
100
AcDbEntity
  8
Graypants_Bow160
370
    -3
100
AcDbLine
 10
2008.053990853801
 20
-2037.491938692778
 30
0.0
 11
2008.053990853801
 21
-2052.991938692778
 31
0.0
  0
LINE
  5
9C
330
1F
100
AcDbEntity
  8
Graypants_Bow160
370
    -3
100
AcDbLine
 10
2007.803990853801
 20
-2053.241938692778
 30
0.0
 11
2007.803990853801
 21
-2037.241938692778
 31
0.0
  0
LINE
  5
9D
330
1F
100
AcDbEntity
  8
Graypants_Bow160
370
    -3
100
AcDbLine
 10
408.3039908538008
 20
-2037.241938692778
 30
0.0
 11
408.3039908538008
 21
-2053.241938692778
 31
0.0
  0
LINE
  5
9E
330
1F
100
AcDbEntity
  8
Graypants_Bow160
370
    -3
100
AcDbLine
 10
480.3039908537976
 20
-2052.878630271357
 30
0.0
 11
480.0539908537976
 21
-2053.047814425444
 31
0.0
  0
LINE
  5
9F
330
1F
100
AcDbEntity
  8
Graypants_Bow160
370
    -3
100
AcDbLine
 10
480.3039908537976
 20
-2052.878630271357
 30
0.0
 11
549.8039908537926
 21
-2052.878630271357
 31
0.0
  0
LINE
  5
A0
330
1F
100
AcDbEntity
  8
Graypants_Bow160
370
    -3
100
AcDbLine
 10
549.8039908537926
 20
-2052.878630271357
 30
0.0
 11
550.0539908537926
 21
-2053.047814425444
 31
0.0
  0
LINE
  5
A1
330
1F
100
AcDbEntity
  8
Graypants_Bow160
370
    -3
100
AcDbLine
 10
478.0539908538008
 20
-2053.214334262143
 30
0.0
 11
478.553990853801
 21
-2052.878630271357
 31
0.0
  0
LINE
  5
A2
330
1F
100
AcDbEntity
  8
Graypants_Bow160
370
    -3
100
AcDbLine
 10
478.553990853801
 20
-2052.878630271357
 30
0.0
 11
480.0539908538008
 21
-2052.878630271357
 31
0.0
  0
LINE
  5
A3
330
1F
100
AcDbEntity
  8
Graypants_Bow160
370
    -3
100
AcDbLine
 10
480.3039908537976
 20
-2068.700104863391
 30
0.0
 11
480.3039908537975
 21
-2084.700104863391
 31
0.0
  0
LINE
  5
A4
330
1F
100
AcDbEntity
  8
Graypants_Bow160
370
    -3
100
AcDbLine
 10
480.3039908537976
 20
-2052.878630271357
 30
0.0
 11
480.3039908537976
 21
-2068.700104863391
 31
0.0
  0
LINE
  5
A5
330
1F
100
AcDbEntity
  8
Graypants_Bow160
370
    -3
100
AcDbLine
 10
478.0539908538008
 20
-2068.700104863391
 30
0.0
 11
478.0539908538008
 21
-2084.20010486339
 31
0.0
  0
LINE
  5
A6
330
1F
100
AcDbEntity
  8
Graypants_Bow160
370
    -3
100
AcDbLine
 10
478.5539908538008
 20
-2068.700104863391
 30
0.0
 11
478.553990853801
 21
-2052.878630271357
 31
0.0
  0
LINE
  5
A7
330
1F
100
AcDbEntity
  8
Graypants_Bow160
370
    -3
100
AcDbLine
 10
1559.553990882391
 20
-2028.288179754022
 30
0.0
 11
1556.553990882391
 21
-2028.288179754022
 31
0.0
  0
LINE
  5
A8
330
1F
100
AcDbEntity
  8
Graypants_Bow160
370
    -3
100
AcDbLine
 10
859.5539908823907
 20
-2028.288179754037
 30
0.0
 11
856.5539908823907
 21
-2028.288179754037
 31
0.0
  0
LINE
  5
A9
330
1F
100
AcDbEntity
  8
Graypants_Bow160
370
    -3
100
AcDbLine
 10
1936.053990853804
 20
-2084.450104863391
 30
0.0
 11
1935.803990853804
 21
-2084.700104863391
 31
0.0
  0
LINE
  5
AA
330
1F
100
AcDbEntity
  8
Graypants_Bow160
370
    -3
100
AcDbLine
 10
1935.803990853804
 20
-2084.700104863391
 30
0.0
 11
1866.303990853809
 21
-2084.700104863391
 31
0.0
  0
LINE
  5
AB
330
1F
100
AcDbEntity
  8
Graypants_Bow160
370
    -3
100
AcDbLine
 10
1866.303990853809
 20
-2084.700104863391
 30
0.0
 11
1866.053990853809
 21
-2084.450104863391
 31
0.0
  0
LINE
  5
AC
330
1F
100
AcDbEntity
  8
Graypants_Bow160
370
    -3
100
AcDbLine
 10
1938.053990853801
 20
-2084.200104863391
 30
0.0
 11
1937.553990853801
 21
-2084.700104863391
 31
0.0
  0
LINE
  5
AD
330
1F
100
AcDbEntity
  8
Graypants_Bow160
370
    -3
100
AcDbLine
 10
1937.553990853801
 20
-2084.700104863391
 30
0.0
 11
1936.053990853801
 21
-2084.700104863391
 31
0.0
  0
ARC
  5
AE
330
1F
100
AcDbEntity
  8
Graypants_Bow160
370
    -3
100
AcDbCircle
 10
-1558.053990881887
 20
-2029.642596279459
 30
0.0
 40
8.000000327482146
210
0.0
220
0.0
230
-1.0
100
AcDbArc
 50
251.7900443301521
 51
288.2099558754681
  0
ARC
  5
AF
330
1F
100
AcDbEntity
  8
Graypants_Bow160
370
    -3
100
AcDbCircle
 10
-858.0539908818862
 20
-2029.64259627947
 30
0.0
 40
8.000000327485793
210
0.0
220
0.0
230
-1.0
100
AcDbArc
 50
251.7900443301144
 51
288.2099558754543
  0
POLYLINE
  5
B0
330
1F
100
AcDbEntity
  8
Graypants_Bow160
370
    -3
100
AcDb2dPolyline
 66
     1
 10
0.0
 20
0.0
 30
0.0
  0
VERTEX
  5
B1
330
B0
100
AcDbEntity
  8
Graypants_Bow160
370
    -3
100
AcDbVertex
100
AcDb2dVertex
 10
518.5539908538012
 20
-2037.241938691978
 30
0.0
  0
VERTEX
  5
B2
330
B0
100
AcDbEntity
  8
Graypants_Bow160
370
    -3
100
AcDbVertex
100
AcDb2dVertex
 10
518.5539897880637
 20
-2037.241939161754
 30
0.0
  0
VERTEX
  5
B3
330
B0
100
AcDbEntity
  8
Graypants_Bow160
370
    -3
100
AcDbVertex
100
AcDb2dVertex
 10
518.2829595823237
 20
-2037.356747568784
 30
0.0
  0
VERTEX
  5
B4
330
B0
100
AcDbEntity
  8
Graypants_Bow160
370
    -3
100
AcDbVertex
100
AcDb2dVertex
 10
517.9599140937046
 20
-2037.483434333845
 30
0.0
  0
VERTEX
  5
B5
330
B0
100
AcDbEntity
  8
Graypants_Bow160
370
    -3
100
AcDbVertex
100
AcDb2dVertex
 10
517.7562101038784
 20
-2037.557407504253
 30
0.0
  0
VERTEX
  5
B6
330
B0
100
AcDbEntity
  8
Graypants_Bow160
370
    -3
100
AcDbVertex
100
AcDb2dVertex
 10
517.528267467537
 20
-2037.634570897563
 30
0.0
  0
VERTEX
  5
B7
330
B0
100
AcDbEntity
  8
Graypants_Bow160
370
    -3
100
AcDbVertex
100
AcDb2dVertex
 10
517.2776833134307
 20
-2037.712348799552
 30
0.0
  0
VERTEX
  5
B8
330
B0
100
AcDbEntity
  8
Graypants_Bow160
370
    -3
100
AcDbVertex
100
AcDb2dVertex
 10
517.0045552127632
 20
-2037.788436071342
 30
0.0
  0
VERTEX
  5
B9
330
B0
100
AcDbEntity
  8
Graypants_Bow160
370
    -3
100
AcDbVertex
100
AcDb2dVertex
 10
516.713044274049
 20
-2037.859368263311
 30
0.0
  0
VERTEX
  5
BA
330
B0
100
AcDbEntity
  8
Graypants_Bow160
370
    -3
100
AcDbVertex
100
AcDb2dVertex
 10
516.5615826415967
 20
-2037.891920288501
 30
0.0
  0
VERTEX
  5
BB
330
B0
100
AcDbEntity
  8
Graypants_Bow160
370
    -3
100
AcDbVertex
100
AcDb2dVertex
 10
516.4062744979864
 20
-2037.922193406058
 30
0.0
  0
VERTEX
  5
BC
330
B0
100
AcDbEntity
  8
Graypants_Bow160
370
    -3
100
AcDbVertex
100
AcDb2dVertex
 10
516.2466766302203
 20
-2037.949961189209
 30
0.0
  0
VERTEX
  5
BD
330
B0
100
AcDbEntity
  8
Graypants_Bow160
370
    -3
100
AcDbVertex
100
AcDb2dVertex
 10
516.0829986522442
 20
-2037.974914226751
 30
0.0
  0
VERTEX
  5
BE
330
B0
100
AcDbEntity
  8
Graypants_Bow160
370
    -3
100
AcDbVertex
100
AcDb2dVertex
 10
515.9161880026518
 20
-2037.996675896713
 30
0.0
  0
VERTEX
  5
BF
330
B0
100
AcDbEntity
  8
Graypants_Bow160
370
    -3
100
AcDbVertex
100
AcDb2dVertex
 10
515.747192120037
 20
-2038.014869577124
 30
0.0
  0
VERTEX
  5
C0
330
B0
100
AcDbEntity
  8
Graypants_Bow160
370
    -3
100
AcDbVertex
100
AcDb2dVertex
 10
515.5769408780577
 20
-2038.029206475167
 30
0.0
  0
VERTEX
  5
C1
330
B0
100
AcDbEntity
  8
Graypants_Bow160
370
    -3
100
AcDbVertex
100
AcDb2dVertex
 10
515.4057291333754
 20
-2038.039593741251
 30
0.0
  0
VERTEX
  5
C2
330
B0
100
AcDbEntity
  8
Graypants_Bow160
370
    -3
100
AcDbVertex
100
AcDb2dVertex
 10
515.23355179909
 20
-2038.045948668233
 30
0.0
  0
VERTEX
  5
C3
330
B0
100
AcDbEntity
  8
Graypants_Bow160
370
    -3
100
AcDbVertex
100
AcDb2dVertex
 10
515.0604037883016
 20
-2038.048188548973
 30
0.0
  0
VERTEX
  5
C4
330
B0
100
AcDbEntity
  8
Graypants_Bow160
370
    -3
100
AcDbVertex
100
AcDb2dVertex
 10
514.8863176660028
 20
-2038.046192574227
 30
0.0
  0
VERTEX
  5
C5
330
B0
100
AcDbEntity
  8
Graypants_Bow160
370
    -3
100
AcDbVertex
100
AcDb2dVertex
 10
514.7121185034962
 20
-2038.039992832301
 30
0.0
  0
VERTEX
  5
C6
330
B0
100
AcDbEntity
  8
Graypants_Bow160
370
    -3
100
AcDbVertex
100
AcDb2dVertex
 10
514.5389899733474
 20
-2038.029735962377
 30
0.0
  0
VERTEX
  5
C7
330
B0
100
AcDbEntity
  8
Graypants_Bow160
370
    -3
100
AcDbVertex
100
AcDb2dVertex
 10
514.368115748122
 20
-2038.015568603636
 30
0.0
  0
VERTEX
  5
C8
330
B0
100
AcDbEntity
  8
Graypants_Bow160
370
    -3
100
AcDbVertex
100
AcDb2dVertex
 10
514.199781141464
 20
-2037.997644717141
 30
0.0
  0
VERTEX
  5
C9
330
B0
100
AcDbEntity
  8
Graypants_Bow160
370
    -3
100
AcDbVertex
100
AcDb2dVertex
 10
514.0336493789271
 20
-2037.976175959949
 30
0.0
  0
VERTEX
  5
CA
330
B0
100
AcDbEntity
  8
Graypants_Bow160
370
    -3
100
AcDbVertex
100
AcDb2dVertex
 10
513.869971000942
 20
-2037.95139551524
 30
0.0
  0
VERTEX
  5
CB
330
B0
100
AcDbEntity
  8
Graypants_Bow160
370
    -3
100
AcDbVertex
100
AcDb2dVertex
 10
513.7089965479393
 20
-2037.923536566193
 30
0.0
  0
VERTEX
  5
CC
330
B0
100
AcDbEntity
  8
Graypants_Bow160
370
    -3
100
AcDbVertex
100
AcDb2dVertex
 10
513.5518406539759
 20
-2037.89303810295
 30
0.0
  0
VERTEX
  5
CD
330
B0
100
AcDbEntity
  8
Graypants_Bow160
370
    -3
100
AcDbVertex
100
AcDb2dVertex
 10
513.3993803448406
 20
-2037.860371736852
 30
0.0
  0
VERTEX
  5
CE
330
B0
100
AcDbEntity
  8
Graypants_Bow160
370
    -3
100
AcDbVertex
100
AcDb2dVertex
 10
513.1081229931697
 20
-2037.789663755976
 30
0.0
  0
VERTEX
  5
CF
330
B0
100
AcDbEntity
  8
Graypants_Bow160
370
    -3
100
AcDbVertex
100
AcDb2dVertex
 10
512.8346389308864
 20
-2037.713606582887
 30
0.0
  0
VERTEX
  5
D0
330
B0
100
AcDbEntity
  8
Graypants_Bow160
370
    -3
100
AcDbVertex
100
AcDb2dVertex
 10
512.5825171315068
 20
-2037.635482069502
 30
0.0
  0
VERTEX
  5
D1
330
B0
100
AcDbEntity
  8
Graypants_Bow160
370
    -3
100
AcDbVertex
100
AcDb2dVertex
 10
512.3550371964521
 20
-2037.558569639062
 30
0.0
  0
VERTEX
  5
D2
330
B0
100
AcDbEntity
  8
Graypants_Bow160
370
    -3
100
AcDbVertex
100
AcDb2dVertex
 10
512.1519098291044
 20
-2037.484872605979
 30
0.0
  0
VERTEX
  5
D3
330
B0
100
AcDbEntity
  8
Graypants_Bow160
370
    -3
100
AcDbVertex
100
AcDb2dVertex
 10
511.8269111714279
 20
-2037.357520941487
 30
0.0
  0
VERTEX
  5
D4
330
B0
100
AcDbEntity
  8
Graypants_Bow160
370
    -3
100
AcDbVertex
100
AcDb2dVertex
 10
511.5539918042064
 20
-2037.24193910858
 30
0.0
  0
SEQEND
  5
D5
330
B0
100
AcDbEntity
  8
Graypants_Bow160
370
    -3
  0
POLYLINE
  5
D6
330
1F
100
AcDbEntity
  8
Graypants_Bow160
370
    -3
100
AcDb2dPolyline
 66
     1
 10
0.0
 20
0.0
 30
0.0
  0
VERTEX
  5
D7
330
D6
100
AcDbEntity
  8
Graypants_Bow160
370
    -3
100
AcDbVertex
100
AcDb2dVertex
 10
1904.553990853801
 20
-2037.241938691977
 30
0.0
  0
VERTEX
  5
D8
330
D6
100
AcDbEntity
  8
Graypants_Bow160
370
    -3
100
AcDbVertex
100
AcDb2dVertex
 10
1904.282959582323
 20
-2037.356747568784
 30
0.0
  0
VERTEX
  5
D9
330
D6
100
AcDbEntity
  8
Graypants_Bow160
370
    -3
100
AcDbVertex
100
AcDb2dVertex
 10
1903.959914093704
 20
-2037.483434333845
 30
0.0
  0
VERTEX
  5
DA
330
D6
100
AcDbEntity
  8
Graypants_Bow160
370
    -3
100
AcDbVertex
100
AcDb2dVertex
 10
1903.756210103878
 20
-2037.557407504253
 30
0.0
  0
VERTEX
  5
DB
330
D6
100
AcDbEntity
  8
Graypants_Bow160
370
    -3
100
AcDbVertex
100
AcDb2dVertex
 10
1903.528267467537
 20
-2037.634570897563
 30
0.0
  0
VERTEX
  5
DC
330
D6
100
AcDbEntity
  8
Graypants_Bow160
370
    -3
100
AcDbVertex
100
AcDb2dVertex
 10
1903.27768331343
 20
-2037.712348799552
 30
0.0
  0
VERTEX
  5
DD
330
D6
100
AcDbEntity
  8
Graypants_Bow160
370
    -3
100
AcDbVertex
100
AcDb2dVertex
 10
1903.004555212763
 20
-2037.788436071342
 30
0.0
  0
VERTEX
  5
DE
330
D6
100
AcDbEntity
  8
Graypants_Bow160
370
    -3
100
AcDbVertex
100
AcDb2dVertex
 10
1902.713044274049
 20
-2037.859368263311
 30
0.0
  0
VERTEX
  5
DF
330
D6
100
AcDbEntity
  8
Graypants_Bow160
370
    -3
100
AcDbVertex
100
AcDb2dVertex
 10
1902.561582641596
 20
-2037.891920288502
 30
0.0
  0
VERTEX
  5
E0
330
D6
100
AcDbEntity
  8
Graypants_Bow160
370
    -3
100
AcDbVertex
100
AcDb2dVertex
 10
1902.406274497986
 20
-2037.922193406058
 30
0.0
  0
VERTEX
  5
E1
330
D6
100
AcDbEntity
  8
Graypants_Bow160
370
    -3
100
AcDbVertex
100
AcDb2dVertex
 10
1902.24667663022
 20
-2037.949961189209
 30
0.0
  0
VERTEX
  5
E2
330
D6
100
AcDbEntity
  8
Graypants_Bow160
370
    -3
100
AcDbVertex
100
AcDb2dVertex
 10
1902.082998652244
 20
-2037.974914226751
 30
0.0
  0
VERTEX
  5
E3
330
D6
100
AcDbEntity
  8
Graypants_Bow160
370
    -3
100
AcDbVertex
100
AcDb2dVertex
 10
1901.916188002652
 20
-2037.996675896714
 30
0.0
  0
VERTEX
  5
E4
330
D6
100
AcDbEntity
  8
Graypants_Bow160
370
    -3
100
AcDbVertex
100
AcDb2dVertex
 10
1901.747192120037
 20
-2038.014869577124
 30
0.0
  0
VERTEX
  5
E5
330
D6
100
AcDbEntity
  8
Graypants_Bow160
370
    -3
100
AcDbVertex
100
AcDb2dVertex
 10
1901.576940878057
 20
-2038.029206475167
 30
0.0
  0
VERTEX
  5
E6
330
D6
100
AcDbEntity
  8
Graypants_Bow160
370
    -3
100
AcDbVertex
100
AcDb2dVertex
 10
1901.405729133375
 20
-2038.039593741251
 30
0.0
  0
VERTEX
  5
E7
330
D6
100
AcDbEntity
  8
Graypants_Bow160
370
    -3
100
AcDbVertex
100
AcDb2dVertex
 10
1901.23355179909
 20
-2038.045948668233
 30
0.0
  0
VERTEX
  5
E8
330
D6
100
AcDbEntity
  8
Graypants_Bow160
370
    -3
100
AcDbVertex
100
AcDb2dVertex
 10
1901.060403788301
 20
-2038.048188548973
 30
0.0
  0
VERTEX
  5
E9
330
D6
100
AcDbEntity
  8
Graypants_Bow160
370
    -3
100
AcDbVertex
100
AcDb2dVertex
 10
1900.886317666002
 20
-2038.046192574227
 30
0.0
  0
VERTEX
  5
EA
330
D6
100
AcDbEntity
  8
Graypants_Bow160
370
    -3
100
AcDbVertex
100
AcDb2dVertex
 10
1900.712118503495
 20
-2038.039992832301
 30
0.0
  0
VERTEX
  5
EB
330
D6
100
AcDbEntity
  8
Graypants_Bow160
370
    -3
100
AcDbVertex
100
AcDb2dVertex
 10
1900.538989973347
 20
-2038.029735962377
 30
0.0
  0
VERTEX
  5
EC
330
D6
100
AcDbEntity
  8
Graypants_Bow160
370
    -3
100
AcDbVertex
100
AcDb2dVertex
 10
1900.368115748121
 20
-2038.015568603636
 30
0.0
  0
VERTEX
  5
ED
330
D6
100
AcDbEntity
  8
Graypants_Bow160
370
    -3
100
AcDbVertex
100
AcDb2dVertex
 10
1900.199781141464
 20
-2037.997644717141
 30
0.0
  0
VERTEX
  5
EE
330
D6
100
AcDbEntity
  8
Graypants_Bow160
370
    -3
100
AcDbVertex
100
AcDb2dVertex
 10
1900.033649378927
 20
-2037.976175959949
 30
0.0
  0
VERTEX
  5
EF
330
D6
100
AcDbEntity
  8
Graypants_Bow160
370
    -3
100
AcDbVertex
100
AcDb2dVertex
 10
1899.869971000941
 20
-2037.951395515241
 30
0.0
  0
VERTEX
  5
F0
330
D6
100
AcDbEntity
  8
Graypants_Bow160
370
    -3
100
AcDbVertex
100
AcDb2dVertex
 10
1899.708996547939
 20
-2037.923536566193
 30
0.0
  0
VERTEX
  5
F1
330
D6
100
AcDbEntity
  8
Graypants_Bow160
370
    -3
100
AcDbVertex
100
AcDb2dVertex
 10
1899.551840653975
 20
-2037.89303810295
 30
0.0
  0
VERTEX
  5
F2
330
D6
100
AcDbEntity
  8
Graypants_Bow160
370
    -3
100
AcDbVertex
100
AcDb2dVertex
 10
1899.39938034484
 20
-2037.860371736852
 30
0.0
  0
VERTEX
  5
F3
330
D6
100
AcDbEntity
  8
Graypants_Bow160
370
    -3
100
AcDbVertex
100
AcDb2dVertex
 10
1899.108122993169
 20
-2037.789663755976
 30
0.0
  0
VERTEX
  5
F4
330
D6
100
AcDbEntity
  8
Graypants_Bow160
370
    -3
100
AcDbVertex
100
AcDb2dVertex
 10
1898.834638930886
 20
-2037.713606582888
 30
0.0
  0
VERTEX
  5
F5
330
D6
100
AcDbEntity
  8
Graypants_Bow160
370
    -3
100
AcDbVertex
100
AcDb2dVertex
 10
1898.582517131506
 20
-2037.635482069502
 30
0.0
  0
VERTEX
  5
F6
330
D6
100
AcDbEntity
  8
Graypants_Bow160
370
    -3
100
AcDbVertex
100
AcDb2dVertex
 10
1898.355037196452
 20
-2037.558569639063
 30
0.0
  0
VERTEX
  5
F7
330
D6
100
AcDbEntity
  8
Graypants_Bow160
370
    -3
100
AcDbVertex
100
AcDb2dVertex
 10
1898.151909829104
 20
-2037.484872605979
 30
0.0
  0
VERTEX
  5
F8
330
D6
100
AcDbEntity
  8
Graypants_Bow160
370
    -3
100
AcDbVertex
100
AcDb2dVertex
 10
1897.826911171428
 20
-2037.357520941487
 30
0.0
  0
VERTEX
  5
F9
330
D6
100
AcDbEntity
  8
Graypants_Bow160
370
    -3
100
AcDbVertex
100
AcDb2dVertex
 10
1897.553991804206
 20
-2037.24193910858
 30
0.0
  0
SEQEND
  5
FA
330
D6
100
AcDbEntity
  8
Graypants_Bow160
370
    -3
  0
LINE
  5
FB
330
1F
100
AcDbEntity
  8
Graypants_Bow160
370
    -3
100
AcDbLine
 10
2007.803990853801
 20
-2037.241938692778
 30
0.0
 11
2008.053990853801
 21
-2037.491938692778
 31
0.0
  0
LINE
  5
FC
330
1F
100
AcDbEntity
  8
Graypants_Bow160
370
    -3
100
AcDbLine
 10
2008.053990853801
 20
-2052.991938692778
 30
0.0
 11
2007.803990853801
 21
-2053.241938692778
 31
0.0
  0
LINE
  5
FD
330
1F
100
AcDbEntity
  8
Graypants_Bow160
370
    -3
100
AcDbLine
 10
2007.803990853801
 20
-2053.241938692778
 30
0.0
 11
2006.053990853801
 21
-2053.241938692778
 31
0.0
  0
LINE
  5
FE
330
1F
100
AcDbEntity
  8
Graypants_Bow160
370
    -3
100
AcDbLine
 10
2006.053990853801
 20
-2037.241938692778
 30
0.0
 11
2007.803990853801
 21
-2037.241938692778
 31
0.0
  0
LINE
  5
FF
330
1F
100
AcDbEntity
  8
Graypants_Bow160
370
    -3
100
AcDbLine
 10
408.0539908538008
 20
-2037.491938692778
 30
0.0
 11
408.3039908538008
 21
-2037.241938692778
 31
0.0
  0
LINE
  5
100
330
1F
100
AcDbEntity
  8
Graypants_Bow160
370
    -3
100
AcDbLine
 10
408.3039908538008
 20
-2053.241938692778
 30
0.0
 11
408.0539908538008
 21
-2052.991938692778
 31
0.0
  0
LINE
  5
101
330
1F
100
AcDbEntity
  8
Graypants_Bow160
370
    -3
100
AcDbLine
 10
408.0539908538008
 20
-2052.991938692778
 30
0.0
 11
408.0539908538008
 21
-2037.491938692778
 31
0.0
  0
LINE
  5
102
330
1F
100
AcDbEntity
  8
Graypants_Bow160
370
    -3
100
AcDbLine
 10
410.0539908538008
 20
-2053.241938692778
 30
0.0
 11
408.3039908538008
 21
-2053.241938692778
 31
0.0
  0
LINE
  5
103
330
1F
100
AcDbEntity
  8
Graypants_Bow160
370
    -3
100
AcDbLine
 10
408.3039908538008
 20
-2037.241938692778
 30
0.0
 11
410.0539908538008
 21
-2037.241938692778
 31
0.0
  0
LINE
  5
104
330
1F
100
AcDbEntity
  8
Graypants_Bow160
370
    -3
100
AcDbLine
 10
410.0539908538008
 20
-2037.241938692778
 30
0.0
 11
511.5539908439719
 21
-2037.241938692778
 31
0.0
  0
LINE
  5
105
330
1F
100
AcDbEntity
  8
Graypants_Bow160
370
    -3
100
AcDbLine
 10
518.5539908538008
 20
-2037.241938692778
 30
0.0
 11
855.5539908815445
 21
-2037.241938692778
 31
0.0
  0
LINE
  5
106
330
1F
100
AcDbEntity
  8
Graypants_Bow160
370
    -3
100
AcDbLine
 10
860.5539908538262
 20
-2037.241938692778
 30
0.0
 11
1555.553990881545
 21
-2037.241938692778
 31
0.0
  0
LINE
  5
107
330
1F
100
AcDbEntity
  8
Graypants_Bow160
370
    -3
100
AcDbLine
 10
1560.553990853826
 20
-2037.241938692778
 30
0.0
 11
1897.553990843971
 21
-2037.241938692778
 31
0.0
  0
LINE
  5
108
330
1F
100
AcDbEntity
  8
Graypants_Bow160
370
    -3
100
AcDbLine
 10
1904.553990853801
 20
-2037.241938692778
 30
0.0
 11
2006.053990853801
 21
-2037.241938692778
 31
0.0
  0
LINE
  5
109
330
1F
100
AcDbEntity
  8
Graypants_Bow160
370
    -3
100
AcDbLine
 10
2006.053990853801
 20
-2053.241938692778
 30
0.0
 11
1938.053990853801
 21
-2053.241938692778
 31
0.0
  0
LINE
  5
10A
330
1F
100
AcDbEntity
  8
Graypants_Bow160
370
    -3
100
AcDbLine
 10
1866.053990853809
 20
-2053.241938692778
 30
0.0
 11
550.0539908537926
 21
-2053.241938692778
 31
0.0
  0
LINE
  5
10B
330
1F
100
AcDbEntity
  8
Graypants_Bow160
370
    -3
100
AcDbLine
 10
478.0539908538008
 20
-2053.241938692778
 30
0.0
 11
410.0539908538008
 21
-2053.241938692778
 31
0.0
  0
LINE
  5
10C
330
1F
100
AcDbEntity
  8
Graypants_Bow160
370
    -3
100
AcDbLine
 10
480.3039908537976
 20
-2084.700104863391
 30
0.0
 11
480.0539908537976
 21
-2084.450104863391
 31
0.0
  0
LINE
  5
10D
330
1F
100
AcDbEntity
  8
Graypants_Bow160
370
    -3
100
AcDbLine
 10
549.8039908537926
 20
-2084.700104863391
 30
0.0
 11
480.3039908537976
 21
-2084.700104863391
 31
0.0
  0
LINE
  5
10E
330
1F
100
AcDbEntity
  8
Graypants_Bow160
370
    -3
100
AcDbLine
 10
550.0539908537926
 20
-2084.450104863391
 30
0.0
 11
549.8039908537926
 21
-2084.700104863391
 31
0.0
  0
LINE
  5
10F
330
1F
100
AcDbEntity
  8
Graypants_Bow160
370
    -3
100
AcDbLine
 10
478.5539908538012
 20
-2084.700104863391
 30
0.0
 11
478.053990853801
 21
-2084.200104863391
 31
0.0
  0
LINE
  5
110
330
1F
100
AcDbEntity
  8
Graypants_Bow160
370
    -3
100
AcDbLine
 10
480.0539908538012
 20
-2084.700104863391
 30
0.0
 11
478.5539908538012
 21
-2084.700104863391
 31
0.0
  0
LINE
  5
111
330
1F
100
AcDbEntity
  8
Graypants_Bow160
370
    -3
100
AcDbLine
 10
1559.553990882393
 20
-2028.288179754022
 30
0.0
 11
1560.303990882388
 21
-2037.241938701621
 31
0.0
  0
LINE
  5
112
330
1F
100
AcDbEntity
  8
Graypants_Bow160
370
    -3
100
AcDbLine
 10
1555.803990882394
 20
-2037.24193870162
 30
0.0
 11
1556.553990882389
 21
-2028.288179754022
 31
0.0
  0
LINE
  5
113
330
1F
100
AcDbEntity
  8
Graypants_Bow160
370
    -3
100
AcDbLine
 10
1555.803990882394
 20
-2037.24193870162
 30
0.0
 11
1560.303990882388
 21
-2037.24193870162
 31
0.0
  0
LINE
  5
114
330
1F
100
AcDbEntity
  8
Graypants_Bow160
370
    -3
100
AcDbLine
 10
859.5539908823935
 20
-2028.288179754037
 30
0.0
 11
860.3039908823876
 21
-2037.241938701636
 31
0.0
  0
LINE
  5
115
330
1F
100
AcDbEntity
  8
Graypants_Bow160
370
    -3
100
AcDbLine
 10
855.8039908823944
 20
-2037.241938701635
 30
0.0
 11
856.5539908823885
 21
-2028.288179754037
 31
0.0
  0
LINE
  5
116
330
1F
100
AcDbEntity
  8
Graypants_Bow160
370
    -3
100
AcDbLine
 10
855.8039908823944
 20
-2037.241938701635
 30
0.0
 11
860.3039908823876
 21
-2037.241938701635
 31
0.0
  0
LINE
  5
117
330
1F
100
AcDbEntity
  8
Graypants_Bow160
370
    -3
100
AcDbLine
 10
1937.553990853801
 20
-2084.700104863391
 30
0.0
 11
1937.553990853801
 21
-2068.700104863391
 31
0.0
  0
LINE
  5
118
330
1F
100
AcDbEntity
  8
Graypants_Bow160
370
    -3
100
AcDbLine
 10
478.5539908538007
 20
-2084.700104863391
 30
0.0
 11
478.5539908538008
 21
-2068.700104863391
 31
0.0
  0
LINE
  5
119
330
1F
100
AcDbEntity
  8
Graypants_Bow160
370
    -3
100
AcDbLine
 10
1580.0539908538
 20
-1217.0539908538
 30
0.0
 11
1579.0539908538
 21
-1217.0539908538
 31
0.0
  0
LINE
  5
11A
330
1F
100
AcDbEntity
  8
Graypants_Bow160
370
    -3
100
AcDbLine
 10
837.0539908538003
 20
-1217.053990853789
 30
0.0
 11
1579.0539908538
 21
-1217.0539908538
 31
0.0
  0
LINE
  5
11B
330
1F
100
AcDbEntity
  8
Graypants_Bow160
370
    -3
100
AcDbLine
 10
837.0539908538003
 20
-1217.053990853789
 30
0.0
 11
836.0539908538003
 21
-1217.053990853789
 31
0.0
  0
LINE
  5
11C
330
1F
100
AcDbEntity
  8
Graypants_Bow160
370
    -3
100
AcDbLine
 10
836.0539908538003
 20
-1218.053990853789
 30
0.0
 11
836.0539908538003
 21
-1217.053990853789
 31
0.0
  0
LINE
  5
11D
330
1F
100
AcDbEntity
  8
Graypants_Bow160
370
    -3
100
AcDbLine
 10
836.0539908538003
 20
-1218.053990853789
 30
0.0
 11
837.0539908538003
 21
-1218.053990853789
 31
0.0
  0
LINE
  5
11E
330
1F
100
AcDbEntity
  8
Graypants_Bow160
370
    -3
100
AcDbLine
 10
1579.0539908538
 20
-1218.0539908538
 30
0.0
 11
1580.0539908538
 21
-1218.0539908538
 31
0.0
  0
LINE
  5
11F
330
1F
100
AcDbEntity
  8
Graypants_Bow160
370
    -3
100
AcDbLine
 10
1580.0539908538
 20
-1218.0539908538
 30
0.0
 11
1580.0539908538
 21
-1217.0539908538
 31
0.0
  0
LINE
  5
120
330
1F
100
AcDbEntity
  8
Graypants_Bow160
370
    -3
100
AcDbLine
 10
1579.0539908538
 20
-1177.0539908538
 30
0.0
 11
1579.0539908538
 21
-1217.053990853789
 31
0.0
  0
LINE
  5
121
330
1F
100
AcDbEntity
  8
Graypants_Bow160
370
    -3
100
AcDbLine
 10
1579.0539908538
 20
-1177.0539908538
 30
0.0
 11
837.0539908538012
 21
-1177.0539908538
 31
0.0
  0
LINE
  5
122
330
1F
100
AcDbEntity
  8
Graypants_Bow160
370
    -3
100
AcDbLine
 10
837.0539908538012
 20
-1177.0539908538
 30
0.0
 11
837.0539908538012
 21
-1217.053990853789
 31
0.0
  0
LINE
  5
123
330
1F
100
AcDbEntity
  8
Graypants_Bow160
370
    -3
100
AcDbLine
 10
1866.303990853809
 20
-2068.700104863391
 30
0.0
 11
1866.303990853809
 21
-2084.700104863391
 31
0.0
  0
LINE
  5
124
330
1F
100
AcDbEntity
  8
Graypants_Bow160
370
    -3
100
AcDbLine
 10
1866.303990853809
 20
-2052.878630271357
 30
0.0
 11
1866.303990853809
 21
-2068.700104863391
 31
0.0
  0
LINE
  5
125
330
1F
100
AcDbEntity
  8
Graypants_Bow160
370
    -3
100
AcDbLine
 10
1866.053990853809
 20
-2068.700104863391
 30
0.0
 11
1866.053990853809
 21
-2084.45010486339
 31
0.0
  0
LINE
  5
126
330
1F
100
AcDbEntity
  8
Graypants_Bow160
370
    -3
100
AcDbLine
 10
1866.053990853809
 20
-2053.047814425444
 30
0.0
 11
1866.053990853809
 21
-2068.700104863391
 31
0.0
  0
LINE
  5
127
330
1F
100
AcDbEntity
  8
Graypants_Bow160
370
    -3
100
AcDbLine
 10
1938.053990853801
 20
-2053.214334262143
 30
0.0
 11
1938.053990853801
 21
-2068.700104863391
 31
0.0
  0
LINE
  5
128
330
1F
100
AcDbEntity
  8
Graypants_Bow160
370
    -3
100
AcDbLine
 10
549.8039908537926
 20
-2068.700104863391
 30
0.0
 11
549.8039908537927
 21
-2084.700104863391
 31
0.0
  0
LINE
  5
129
330
1F
100
AcDbEntity
  8
Graypants_Bow160
370
    -3
100
AcDbLine
 10
549.8039908537926
 20
-2052.878630271357
 30
0.0
 11
549.8039908537926
 21
-2068.700104863391
 31
0.0
  0
LINE
  5
12A
330
1F
100
AcDbEntity
  8
Graypants_Bow160
370
    -3
100
AcDbLine
 10
550.0539908537926
 20
-2068.700104863391
 30
0.0
 11
550.0539908537926
 21
-2084.45010486339
 31
0.0
  0
LINE
  5
12B
330
1F
100
AcDbEntity
  8
Graypants_Bow160
370
    -3
100
AcDbLine
 10
550.0539908537926
 20
-2053.047814425444
 30
0.0
 11
550.0539908537926
 21
-2068.700104863391
 31
0.0
  0
LINE
  5
12C
330
1F
100
AcDbEntity
  8
Graypants_Bow160
370
    -3
100
AcDbLine
 10
478.0539908538008
 20
-2053.214334262143
 30
0.0
 11
478.053990853801
 21
-2068.700104863391
 31
0.0
  0
LINE
  5
12D
330
1F
100
AcDbEntity
  8
Graypants_Bow160
370
    -3
100
AcDbLine
 10
1936.053990853807
 20
-2084.700104863389
 30
0.0
 11
1936.053990853801
 21
-2052.878630271357
 31
0.0
  0
LINE
  5
12E
330
1F
100
AcDbEntity
  8
Graypants_Bow160
370
    -3
100
AcDbLine
 10
480.0539908537949
 20
-2084.700104863389
 30
0.0
 11
480.053990853801
 21
-2052.878630271357
 31
0.0
  0
LINE
  5
12F
330
1F
100
AcDbEntity
  8
Graypants_Bow160
370
    -3
100
AcDbLine
 10
837.0539908538003
 20
-1218.053990853789
 30
0.0
 11
1579.0539908538
 21
-1218.0539908538
 31
0.0
  0
LINE
  5
130
330
1F
100
AcDbEntity
  8
Graypants_Bow160
370
    -3
100
AcDbLine
 10
15.99999999999795
 20
729.5000000000005
 30
0.0
 11
8.00011051815309
 21
729.5000000000005
 31
0.0
  0
LINE
  5
131
330
1F
100
AcDbEntity
  8
Graypants_Bow160
370
    -3
100
AcDbLine
 10
0.0000000000031832
 20
800.0000000000005
 30
0.0
 11
7.749999999997954
 21
800.0000000000005
 31
0.0
  0
LINE
  5
132
330
1F
100
AcDbEntity
  8
Graypants_Bow160
370
    -3
100
AcDbLine
 10
0.0000000000031832
 20
799.7500000000005
 30
0.0
 11
-8.000000000002046
 21
799.7500000000005
 31
0.0
  0
LINE
  5
133
330
1F
100
AcDbEntity
  8
Graypants_Bow160
370
    -3
100
AcDbLine
 10
-0.0000000000022737
 20
-799.9999999999995
 30
0.0
 11
-7.750000000002274
 21
-799.9999999999995
 31
0.0
  0
LINE
  5
134
330
1F
100
AcDbEntity
  8
Graypants_Bow160
370
    -3
100
AcDbLine
 10
-0.0000000000022737
 20
-799.7499999999995
 30
0.0
 11
7.999999999997726
 21
-799.7499999999995
 31
0.0
  0
LINE
  5
135
330
1F
100
AcDbEntity
  8
Graypants_Bow160
370
    -3
100
AcDbLine
 10
15.99999999999795
 20
-729.4999999999995
 30
0.0
 11
8.000188587508564
 21
-729.4999999999992
 31
0.0
  0
LINE
  5
136
330
1F
100
AcDbEntity
  8
Graypants_Bow160
370
    -3
100
AcDbLine
 10
15.74999999999795
 20
728.0000000000036
 30
0.0
 11
15.99999999999795
 21
727.7500000000036
 31
0.0
  0
LINE
  5
137
330
1F
100
AcDbEntity
  8
Graypants_Bow160
370
    -3
100
AcDbLine
 10
-16.00000000000227
 20
727.7500000000036
 30
0.0
 11
-15.75000000000227
 21
728.0000000000036
 31
0.0
  0
LINE
  5
138
330
1F
100
AcDbEntity
  8
Graypants_Bow160
370
    -3
100
AcDbLine
 10
15.99999999999795
 20
727.7500000000036
 30
0.0
 11
15.99999999999795
 21
658.2500000000086
 31
0.0
  0
LINE
  5
139
330
1F
100
AcDbEntity
  8
Graypants_Bow160
370
    -3
100
AcDbLine
 10
-16.00000000000205
 20
658.2500000000086
 30
0.0
 11
-16.00000000000205
 21
727.7500000000036
 31
0.0
  0
LINE
  5
13A
330
1F
100
AcDbEntity
  8
Graypants_Bow160
370
    -3
100
AcDbLine
 10
15.99999999999795
 20
658.2500000000086
 30
0.0
 11
15.74999999999795
 21
658.0000000000086
 31
0.0
  0
LINE
  5
13B
330
1F
100
AcDbEntity
  8
Graypants_Bow160
370
    -3
100
AcDbLine
 10
-15.75000000000227
 20
658.0000000000086
 30
0.0
 11
-16.00000000000227
 21
658.2500000000086
 31
0.0
  0
LINE
  5
13C
330
1F
100
AcDbEntity
  8
Graypants_Bow160
370
    -3
100
AcDbLine
 10
15.49999999999773
 20
730.0000000000005
 30
0.0
 11
15.99999999999773
 21
729.5000000000005
 31
0.0
  0
LINE
  5
13D
330
1F
100
AcDbEntity
  8
Graypants_Bow160
370
    -3
100
AcDbLine
 10
-16.00000000000227
 20
729.5000000000005
 30
0.0
 11
-15.50000000000205
 21
730.0000000000005
 31
0.0
  0
LINE
  5
13E
330
1F
100
AcDbEntity
  8
Graypants_Bow160
370
    -3
100
AcDbLine
 10
-15.50000000000159
 20
730.0000000000005
 30
0.0
 11
-8.000000000002235
 21
730.0000000000005
 31
0.0
  0
LINE
  5
13F
330
1F
100
AcDbEntity
  8
Graypants_Bow160
370
    -3
100
AcDbLine
 10
15.99999999999773
 20
729.5000000000005
 30
0.0
 11
15.99999999999773
 21
728.0000000000005
 31
0.0
  0
LINE
  5
140
330
1F
100
AcDbEntity
  8
Graypants_Bow160
370
    -3
100
AcDbLine
 10
-16.00000000000227
 20
728.0000000000005
 30
0.0
 11
-16.00000000000227
 21
729.5000000000005
 31
0.0
  0
LINE
  5
141
330
1F
100
AcDbEntity
  8
Graypants_Bow160
370
    -3
100
AcDbLine
 10
7.749999999997954
 20
800.0000000000005
 30
0.0
 11
7.999999999997726
 21
799.7500000000005
 31
0.0
  0
LINE
  5
142
330
1F
100
AcDbEntity
  8
Graypants_Bow160
370
    -3
100
AcDbLine
 10
-8.000000000002046
 20
799.7500000000005
 30
0.0
 11
-7.750000000002046
 21
800.0000000000005
 31
0.0
  0
LINE
  5
143
330
1F
100
AcDbEntity
  8
Graypants_Bow160
370
    -3
100
AcDbLine
 10
-7.750000000002046
 20
800.0000000000005
 30
0.0
 11
0.0000000000031832
 21
800.0000000000005
 31
0.0
  0
LINE
  5
144
330
1F
100
AcDbEntity
  8
Graypants_Bow160
370
    -3
100
AcDbLine
 10
-8.000000000002046
 20
798.0000000000005
 30
0.0
 11
-8.000000000002046
 21
799.7500000000005
 31
0.0
  0
LINE
  5
145
330
1F
100
AcDbEntity
  8
Graypants_Bow160
370
    -3
100
AcDbLine
 10
7.999999999997954
 20
799.7500000000005
 30
0.0
 11
7.999999999997954
 21
798.0000000000005
 31
0.0
  0
LINE
  5
146
330
1F
100
AcDbEntity
  8
Graypants_Bow160
370
    -3
100
AcDbLine
 10
-7.750000000002274
 20
-799.9999999999995
 30
0.0
 11
-8.000000000002274
 21
-799.7499999999995
 31
0.0
  0
LINE
  5
147
330
1F
100
AcDbEntity
  8
Graypants_Bow160
370
    -3
100
AcDbLine
 10
7.999999999997726
 20
-799.7499999999995
 30
0.0
 11
7.749999999997726
 21
-799.9999999999995
 31
0.0
  0
LINE
  5
148
330
1F
100
AcDbEntity
  8
Graypants_Bow160
370
    -3
100
AcDbLine
 10
7.749999999997726
 20
-799.9999999999995
 30
0.0
 11
-0.0000000000022737
 21
-799.9999999999995
 31
0.0
  0
LINE
  5
149
330
1F
100
AcDbEntity
  8
Graypants_Bow160
370
    -3
100
AcDbLine
 10
7.999999999997726
 20
-797.9999999999995
 30
0.0
 11
7.999999999997726
 21
-799.7499999999995
 31
0.0
  0
LINE
  5
14A
330
1F
100
AcDbEntity
  8
Graypants_Bow160
370
    -3
100
AcDbLine
 10
-8.000000000002274
 20
-799.7499999999995
 30
0.0
 11
-8.000000000002274
 21
-797.9999999999995
 31
0.0
  0
LINE
  5
14B
330
1F
100
AcDbEntity
  8
Graypants_Bow160
370
    -3
100
AcDbLine
 10
15.99999999999795
 20
-727.7500000000027
 30
0.0
 11
15.74999999999795
 21
-728.0000000000027
 31
0.0
  0
LINE
  5
14C
330
1F
100
AcDbEntity
  8
Graypants_Bow160
370
    -3
100
AcDbLine
 10
-15.75000000000227
 20
-728.0000000000027
 30
0.0
 11
-16.00000000000227
 21
-727.7500000000027
 31
0.0
  0
LINE
  5
14D
330
1F
100
AcDbEntity
  8
Graypants_Bow160
370
    -3
100
AcDbLine
 10
15.99999999999795
 20
-658.2500000000077
 30
0.0
 11
15.99999999999795
 21
-727.7500000000027
 31
0.0
  0
LINE
  5
14E
330
1F
100
AcDbEntity
  8
Graypants_Bow160
370
    -3
100
AcDbLine
 10
-16.00000000000205
 20
-727.7500000000027
 30
0.0
 11
-16.00000000000205
 21
-658.2500000000077
 31
0.0
  0
LINE
  5
14F
330
1F
100
AcDbEntity
  8
Graypants_Bow160
370
    -3
100
AcDbLine
 10
15.74999999999795
 20
-658.000000000008
 30
0.0
 11
15.99999999999795
 21
-658.2500000000077
 31
0.0
  0
LINE
  5
150
330
1F
100
AcDbEntity
  8
Graypants_Bow160
370
    -3
100
AcDbLine
 10
-16.00000000000227
 20
-658.2500000000077
 30
0.0
 11
-15.75000000000227
 21
-658.000000000008
 31
0.0
  0
LINE
  5
151
330
1F
100
AcDbEntity
  8
Graypants_Bow160
370
    -3
100
AcDbLine
 10
15.99999999999773
 20
-729.4999999999995
 30
0.0
 11
15.49999999999773
 21
-729.9999999999995
 31
0.0
  0
LINE
  5
152
330
1F
100
AcDbEntity
  8
Graypants_Bow160
370
    -3
100
AcDbLine
 10
-15.50000000000227
 20
-729.9999999999995
 30
0.0
 11
-16.00000000000227
 21
-729.4999999999995
 31
0.0
  0
LINE
  5
153
330
1F
100
AcDbEntity
  8
Graypants_Bow160
370
    -3
100
AcDbLine
 10
-16.00000000000227
 20
-729.4999999999995
 30
0.0
 11
-16.00000000000227
 21
-727.9999999999995
 31
0.0
  0
LINE
  5
154
330
1F
100
AcDbEntity
  8
Graypants_Bow160
370
    -3
100
AcDbLine
 10
15.99999999999773
 20
-727.9999999999993
 30
0.0
 11
15.99999999999773
 21
-729.4999999999993
 31
0.0
  0
LINE
  5
155
330
1F
100
AcDbEntity
  8
Graypants_Bow160
370
    -3
100
AcDbLine
 10
-16.00000000000226
 20
727.7500000000038
 30
0.0
 11
-7.999559655268611
 21
727.7500000000034
 31
0.0
  0
LINE
  5
156
330
1F
100
AcDbEntity
  8
Graypants_Bow160
370
    -3
100
AcDbLine
 10
8.000381772082608
 20
727.750000000004
 30
0.0
 11
15.99999999999773
 21
727.7500000000036
 31
0.0
  0
LINE
  5
157
330
1F
100
AcDbEntity
  8
Graypants_Bow160
370
    -3
100
AcDbLine
 10
-7.999830904378439
 20
729.5000000000006
 30
0.0
 11
-16.00000000000199
 21
729.5000000000003
 31
0.0
  0
LINE
  5
158
330
1F
100
AcDbEntity
  8
Graypants_Bow160
370
    -3
100
AcDbLine
 10
8.00011318379794
 20
730.0000000000001
 30
0.0
 11
15.49999999999773
 21
730.0000000000005
 31
0.0
  0
LINE
  5
159
330
1F
100
AcDbEntity
  8
Graypants_Bow160
370
    -3
100
AcDbLine
 10
7.999999999997726
 20
799.7500000000005
 30
0.0
 11
0.0000000000031832
 21
799.7500000000005
 31
0.0
  0
LINE
  5
15A
330
1F
100
AcDbEntity
  8
Graypants_Bow160
370
    -3
100
AcDbLine
 10
-8.000000000002274
 20
-799.7499999999995
 30
0.0
 11
-0.0000000000022737
 21
-799.7499999999995
 31
0.0
  0
LINE
  5
15B
330
1F
100
AcDbEntity
  8
Graypants_Bow160
370
    -3
100
AcDbLine
 10
-16.00000000000225
 20
-727.7500000000025
 30
0.0
 11
-8.000000000002178
 21
-727.750000000003
 31
0.0
  0
LINE
  5
15C
330
1F
100
AcDbEntity
  8
Graypants_Bow160
370
    -3
100
AcDbLine
 10
8.000478501505844
 20
-727.7500000000026
 30
0.0
 11
15.99999999999773
 21
-727.7500000000027
 31
0.0
  0
LINE
  5
15D
330
1F
100
AcDbEntity
  8
Graypants_Bow160
370
    -3
100
AcDbLine
 10
-8.000000000002194
 20
-729.4999999999995
 30
0.0
 11
-16.0000000000018
 21
-729.4999999999994
 31
0.0
  0
LINE
  5
15E
330
1F
100
AcDbEntity
  8
Graypants_Bow160
370
    -3
100
AcDbLine
 10
8.000185921998867
 20
-729.9999999999995
 30
0.0
 11
15.49999999999773
 21
-729.9999999999995
 31
0.0
  0
ARC
  5
160
330
1F
100
AcDbEntity
  8
Graypants_Bow160
  6
Hidden
370
    -3
100
AcDbCircle
 10
-30.00000000000043
 20
371.0000000000005
 30
0.0
 40
0.9999999999995453
210
0.0
220
0.0
230
-1.0
100
AcDbArc
 50
89.99999999997557
 51
180.0000000000261
  0
LINE
  5
161
330
1F
100
AcDbEntity
  8
Graypants_Bow160
  6
Hidden
370
    -3
100
AcDbLine
 10
31.0
 20
-371.0
 30
0.0
 11
31.0
 21
371.0
 31
0.0
  0
ARC
  5
162
330
1F
100
AcDbEntity
  8
Graypants_Bow160
  6
Hidden
370
    -3
100
AcDbCircle
 10
-30.00000000000018
 20
-371.0000000000002
 30
0.0
 40
0.9999999999998153
210
0.0
220
0.0
230
-1.0
100
AcDbArc
 50
179.9999999999902
 51
270.0000000000106
  0
ARC
  5
163
330
1F
100
AcDbEntity
  8
Graypants_Bow160
  6
Hidden
370
    -3
100
AcDbCircle
 10
29.99999999999994
 20
-370.9999999999999
 30
0.0
 40
1.000000000000057
210
0.0
220
0.0
230
-1.0
100
AcDbArc
 50
270.0000000000032
 51
359.9999999999968
  0
LINE
  5
164
330
1F
100
AcDbEntity
  8
Graypants_Bow160
  6
Hidden
370
    -3
100
AcDbLine
 10
-31.0
 20
371.0
 30
0.0
 11
-31.0
 21
-371.0
 31
0.0
  0
ARC
  5
165
330
1F
100
AcDbEntity
  8
Graypants_Bow160
  6
Hidden
370
    -3
100
AcDbCircle
 10
30.00000000000016
 20
371.0000000000002
 30
0.0
 40
0.9999999999998437
210
0.0
220
0.0
230
-1.0
100
AcDbArc
 50
359.9999999999902
 51
90.00000000000895
  0
LINE
  5
166
330
1F
100
AcDbEntity
  8
Graypants_Bow160
370
    -3
100
AcDbLine
 10
-16.00000000000269
 20
658.250000000009
 30
0.0
 11
-7.999930170111111
 21
658.2500000000089
 31
0.0
  0
LINE
  5
167
330
1F
100
AcDbEntity
  8
Graypants_Bow160
370
    -3
100
AcDbLine
 10
8.000011251832664
 20
658.2500000000086
 30
0.0
 11
15.99999999999795
 21
658.2500000000086
 31
0.0
  0
LINE
  5
168
330
1F
100
AcDbEntity
  8
Graypants_Bow160
370
    -3
100
AcDbLine
 10
8.000290501942333
 20
658.0000000000088
 30
0.0
 11
15.74999999999795
 21
658.0000000000086
 31
0.0
  0
LINE
  5
169
330
1F
100
AcDbEntity
  8
Graypants_Bow160
370
    -3
100
AcDbLine
 10
-8.00000000000209
 20
728.0000000000009
 30
0.0
 11
-16.00000000000159
 21
728.0000000000036
 31
0.0
  0
CIRCLE
  5
16A
330
1F
100
AcDbEntity
  8
Graypants_Bow160
370
    -3
100
AcDbCircle
 10
-0.0000000356576493
 20
-692.9999999998026
 30
0.0
 40
3.500000009900201
210
0.0
220
0.0
230
-1.0
  0
CIRCLE
  5
16B
330
1F
100
AcDbEntity
  8
Graypants_Bow160
370
    -3
100
AcDbCircle
 10
-0.0000000356573082
 20
693.000000000197
 30
0.0
 40
3.500000009900315
210
0.0
220
0.0
230
-1.0
  0
LINE
  5
16C
330
1F
100
AcDbEntity
  8
Graypants_Bow160
370
    -3
100
AcDbLine
 10
-16.00000000000268
 20
-658.2500000000074
 30
0.0
 11
-7.999849830002828
 21
-658.2500000000078
 31
0.0
  0
LINE
  5
16D
330
1F
100
AcDbEntity
  8
Graypants_Bow160
370
    -3
100
AcDbLine
 10
8.00028785434686
 20
-658.2500000000076
 30
0.0
 11
15.99999999999795
 21
-658.250000000008
 31
0.0
  0
LINE
  5
16E
330
1F
100
AcDbEntity
  8
Graypants_Bow160
370
    -3
100
AcDbLine
 10
8.00000860436892
 20
-658.0000000000081
 30
0.0
 11
15.74999999999795
 21
-658.000000000008
 31
0.0
  0
LINE
  5
16F
330
1F
100
AcDbEntity
  8
Graypants_Bow160
370
    -3
100
AcDbLine
 10
-7.999744839035422
 20
-728.0
 30
0.0
 11
-16.00000000000159
 21
-728.0000000000027
 31
0.0
  0
LINE
  5
170
330
1F
100
AcDbEntity
  8
Graypants_Bow160
370
    -3
100
AcDbLine
 10
-15.75000000000136
 20
658.0000000000086
 30
0.0
 11
-7.999650923216267
 21
658.0000000000085
 31
0.0
  0
LINE
  5
171
330
1F
100
AcDbEntity
  8
Graypants_Bow160
370
    -3
100
AcDbLine
 10
15.99999999999704
 20
-728.0000000000023
 30
0.0
 11
8.000196584347965
 21
-727.9999999999994
 31
0.0
  0
LINE
  5
172
330
1F
100
AcDbEntity
  8
Graypants_Bow160
370
    -3
100
AcDbLine
 10
15.99999999999704
 20
728.0000000000032
 30
0.0
 11
8.000102521334188
 21
728.0000000000008
 31
0.0
  0
LINE
  5
173
330
1F
100
AcDbEntity
  8
Graypants_Bow160
370
    -3
100
AcDbLine
 10
-15.75000000000159
 20
-658.000000000008
 30
0.0
 11
-7.999932817561961
 21
-658.0000000000082
 31
0.0
  0
LINE
  5
174
330
1F
100
AcDbEntity
  8
Graypants_Bow160
370
    -3
100
AcDbLine
 10
-15.50000000000159
 20
-729.9999999999995
 30
0.0
 11
-7.999755501526976
 21
-729.9999999999993
 31
0.0
  0
LINE
  5
175
330
1F
100
AcDbEntity
  8
Graypants_Bow160
  6
Hidden
370
    -3
100
AcDbLine
 10
-30.0
 20
-372.0
 30
0.0
 11
30.0
 21
-372.0
 31
0.0
  0
LINE
  5
176
330
1F
100
AcDbEntity
  8
Graypants_Bow160
  6
Hidden
370
    -3
100
AcDbLine
 10
30.0
 20
372.0
 30
0.0
 11
-30.0
 21
372.0
 31
0.0
  0
LINE
  5
177
330
1F
100
AcDbEntity
  8
Graypants_Bow160
  6
Hidden
370
    -3
100
AcDbLine
 10
-29.99999999999909
 20
-370.9999999999991
 30
0.0
 11
-29.99999999999909
 21
371.0
 31
0.0
  0
LINE
  5
178
330
1F
100
AcDbEntity
  8
Graypants_Bow160
  6
Hidden
370
    -3
100
AcDbLine
 10
-29.99999999999909
 20
371.0
 30
0.0
 11
30.000000000005
 21
371.0
 31
0.0
  0
LINE
  5
179
330
1F
100
AcDbEntity
  8
Graypants_Bow160
  6
Hidden
370
    -3
100
AcDbLine
 10
30.000000000005
 20
371.0
 30
0.0
 11
30.000000000005
 21
-370.9999999999991
 31
0.0
  0
LINE
  5
17A
330
1F
100
AcDbEntity
  8
Graypants_Bow160
  6
Hidden
370
    -3
100
AcDbLine
 10
30.000000000005
 20
-370.9999999999991
 30
0.0
 11
-29.99999999999909
 21
-370.9999999999991
 31
0.0
  0
LINE
  5
17B
330
1F
100
AcDbEntity
  8
Graypants_Bow160
100
AcDbLine
 10
410.0539908538008
 20
-2037.241938692778
 30
0.0
 11
410.0539908538008
 21
-2053.241938692778
 31
0.0
  0
LINE
  5
17C
330
1F
100
AcDbEntity
  8
Graypants_Bow160
100
AcDbLine
 10
2006.053990853801
 20
-2037.241938692778
 30
0.0
 11
2006.053990853801
 21
-2053.241938692778
 31
0.0
  0
POLYLINE
  5
17D
330
1F
100
AcDbEntity
  8
Graypants_Bow160
370
    -3
100
AcDb2dPolyline
 66
     1
 10
0.0
 20
0.0
 30
0.0
  0
VERTEX
  5
17E
330
17D
100
AcDbEntity
  8
Graypants_Bow160
370
    -3
100
AcDbVertex
100
AcDb2dVertex
 10
1866.05399085381
 20
-2081.958782845275
 30
0.0
  0
VERTEX
  5
17F
330
17D
100
AcDbEntity
  8
Graypants_Bow160
370
    -3
100
AcDbVertex
100
AcDb2dVertex
 10
1862.831578132352
 20
-2082.066151563367
 30
0.0
  0
VERTEX
  5
180
330
17D
100
AcDbEntity
  8
Graypants_Bow160
370
    -3
100
AcDbVertex
100
AcDb2dVertex
 10
1859.625222698524
 20
-2082.19141795298
 30
0.0
  0
VERTEX
  5
181
330
17D
100
AcDbEntity
  8
Graypants_Bow160
370
    -3
100
AcDbVertex
100
AcDb2dVertex
 10
1856.434760134637
 20
-2082.334294345836
 30
0.0
  0
VERTEX
  5
182
330
17D
100
AcDbEntity
  8
Graypants_Bow160
370
    -3
100
AcDbVertex
100
AcDb2dVertex
 10
1853.260026023001
 20
-2082.494493073656
 30
0.0
  0
VERTEX
  5
183
330
17D
100
AcDbEntity
  8
Graypants_Bow160
370
    -3
100
AcDbVertex
100
AcDb2dVertex
 10
1850.100855945926
 20
-2082.671726468162
 30
0.0
  0
VERTEX
  5
184
330
17D
100
AcDbEntity
  8
Graypants_Bow160
370
    -3
100
AcDbVertex
100
AcDb2dVertex
 10
1846.957085485722
 20
-2082.865706861074
 30
0.0
  0
VERTEX
  5
185
330
17D
100
AcDbEntity
  8
Graypants_Bow160
370
    -3
100
AcDbVertex
100
AcDb2dVertex
 10
1843.828550224699
 20
-2083.076146584113
 30
0.0
  0
VERTEX
  5
186
330
17D
100
AcDbEntity
  8
Graypants_Bow160
370
    -3
100
AcDbVertex
100
AcDb2dVertex
 10
1840.715085745168
 20
-2083.302757969003
 30
0.0
  0
VERTEX
  5
187
330
17D
100
AcDbEntity
  8
Graypants_Bow160
370
    -3
100
AcDbVertex
100
AcDb2dVertex
 10
1838.158991421714
 20
-2083.501559476562
 30
0.0
  0
VERTEX
  5
188
330
17D
100
AcDbEntity
  8
Graypants_Bow160
370
    -3
100
AcDbVertex
100
AcDb2dVertex
 10
1835.612954968348
 20
-2083.710931235564
 30
0.0
  0
VERTEX
  5
189
330
17D
100
AcDbEntity
  8
Graypants_Bow160
370
    -3
100
AcDbVertex
100
AcDb2dVertex
 10
1833.076854800395
 20
-2083.930673943088
 30
0.0
  0
VERTEX
  5
18A
330
17D
100
AcDbEntity
  8
Graypants_Bow160
370
    -3
100
AcDbVertex
100
AcDb2dVertex
 10
1830.550569333179
 20
-2084.160588296213
 30
0.0
  0
VERTEX
  5
18B
330
17D
100
AcDbEntity
  8
Graypants_Bow160
370
    -3
100
AcDbVertex
100
AcDb2dVertex
 10
1828.033976982022
 20
-2084.400474992018
 30
0.0
  0
VERTEX
  5
18C
330
17D
100
AcDbEntity
  8
Graypants_Bow160
370
    -3
100
AcDbVertex
100
AcDb2dVertex
 10
1825.526956162249
 20
-2084.650134727582
 30
0.0
  0
VERTEX
  5
18D
330
17D
100
AcDbEntity
  8
Graypants_Bow160
370
    -3
100
AcDbVertex
100
AcDb2dVertex
 10
1823.029385289183
 20
-2084.909368199986
 30
0.0
  0
VERTEX
  5
18E
330
17D
100
AcDbEntity
  8
Graypants_Bow160
370
    -3
100
AcDbVertex
100
AcDb2dVertex
 10
1820.541142778149
 20
-2085.177976106309
 30
0.0
  0
VERTEX
  5
18F
330
17D
100
AcDbEntity
  8
Graypants_Bow160
370
    -3
100
AcDbVertex
100
AcDb2dVertex
 10
1815.592156503467
 20
-2085.742518009027
 30
0.0
  0
VERTEX
  5
190
330
17D
100
AcDbEntity
  8
Graypants_Bow160
370
    -3
100
AcDbVertex
100
AcDb2dVertex
 10
1810.679024660793
 20
-2086.342166012374
 30
0.0
  0
VERTEX
  5
191
330
17D
100
AcDbEntity
  8
Graypants_Bow160
370
    -3
100
AcDbVertex
100
AcDb2dVertex
 10
1805.800774572717
 20
-2086.975325692983
 30
0.0
  0
VERTEX
  5
192
330
17D
100
AcDbEntity
  8
Graypants_Bow160
370
    -3
100
AcDbVertex
100
AcDb2dVertex
 10
1800.956433561828
 20
-2087.640402627491
 30
0.0
  0
VERTEX
  5
193
330
17D
100
AcDbEntity
  8
Graypants_Bow160
370
    -3
100
AcDbVertex
100
AcDb2dVertex
 10
1796.142731074523
 20
-2088.336066584367
 30
0.0
  0
VERTEX
  5
194
330
17D
100
AcDbEntity
  8
Graypants_Bow160
370
    -3
100
AcDbVertex
100
AcDb2dVertex
 10
1791.356297370607
 20
-2089.061168114786
 30
0.0
  0
VERTEX
  5
195
330
17D
100
AcDbEntity
  8
Graypants_Bow160
370
    -3
100
AcDbVertex
100
AcDb2dVertex
 10
1786.596010992786
 20
-2089.81438396944
 30
0.0
  0
VERTEX
  5
196
330
17D
100
AcDbEntity
  8
Graypants_Bow160
370
    -3
100
AcDbVertex
100
AcDb2dVertex
 10
1781.860750483765
 20
-2090.594390899022
 30
0.0
  0
VERTEX
  5
197
330
17D
100
AcDbEntity
  8
Graypants_Bow160
370
    -3
100
AcDbVertex
100
AcDb2dVertex
 10
1777.149394386247
 20
-2091.399865654224
 30
0.0
  0
VERTEX
  5
198
330
17D
100
AcDbEntity
  8
Graypants_Bow160
370
    -3
100
AcDbVertex
100
AcDb2dVertex
 10
1772.46082124294
 20
-2092.229484985739
 30
0.0
  0
VERTEX
  5
199
330
17D
100
AcDbEntity
  8
Graypants_Bow160
370
    -3
100
AcDbVertex
100
AcDb2dVertex
 10
1767.793909596547
 20
-2093.081925644259
 30
0.0
  0
VERTEX
  5
19A
330
17D
100
AcDbEntity
  8
Graypants_Bow160
370
    -3
100
AcDbVertex
100
AcDb2dVertex
 10
1763.147537989772
 20
-2093.955864380476
 30
0.0
  0
VERTEX
  5
19B
330
17D
100
AcDbEntity
  8
Graypants_Bow160
370
    -3
100
AcDbVertex
100
AcDb2dVertex
 10
1758.520578706208
 20
-2094.849964017428
 30
0.0
  0
VERTEX
  5
19C
330
17D
100
AcDbEntity
  8
Graypants_Bow160
370
    -3
100
AcDbVertex
100
AcDb2dVertex
 10
1753.911653585959
 20
-2095.763006482936
 30
0.0
  0
VERTEX
  5
19D
330
17D
100
AcDbEntity
  8
Graypants_Bow160
370
    -3
100
AcDbVertex
100
AcDb2dVertex
 10
1749.319265506505
 20
-2096.693847184868
 30
0.0
  0
VERTEX
  5
19E
330
17D
100
AcDbEntity
  8
Graypants_Bow160
370
    -3
100
AcDbVertex
100
AcDb2dVertex
 10
1744.741917345324
 20
-2097.64134153109
 30
0.0
  0
VERTEX
  5
19F
330
17D
100
AcDbEntity
  8
Graypants_Bow160
370
    -3
100
AcDbVertex
100
AcDb2dVertex
 10
1740.178111979894
 20
-2098.604344929471
 30
0.0
  0
VERTEX
  5
1A0
330
17D
100
AcDbEntity
  8
Graypants_Bow160
370
    -3
100
AcDbVertex
100
AcDb2dVertex
 10
1735.626352287694
 20
-2099.581712787877
 30
0.0
  0
VERTEX
  5
1A1
330
17D
100
AcDbEntity
  8
Graypants_Bow160
370
    -3
100
AcDbVertex
100
AcDb2dVertex
 10
1731.085141146201
 20
-2100.572300514177
 30
0.0
  0
VERTEX
  5
1A2
330
17D
100
AcDbEntity
  8
Graypants_Bow160
370
    -3
100
AcDbVertex
100
AcDb2dVertex
 10
1726.552981432895
 20
-2101.574963516236
 30
0.0
  0
VERTEX
  5
1A3
330
17D
100
AcDbEntity
  8
Graypants_Bow160
370
    -3
100
AcDbVertex
100
AcDb2dVertex
 10
1722.015284643057
 20
-2102.591525341044
 30
0.0
  0
VERTEX
  5
1A4
330
17D
100
AcDbEntity
  8
Graypants_Bow160
370
    -3
100
AcDbVertex
100
AcDb2dVertex
 10
1717.480621256538
 20
-2103.618968981396
 30
0.0
  0
VERTEX
  5
1A5
330
17D
100
AcDbEntity
  8
Graypants_Bow160
370
    -3
100
AcDbVertex
100
AcDb2dVertex
 10
1708.419718807624
 20
-2105.702639096488
 30
0.0
  0
VERTEX
  5
1A6
330
17D
100
AcDbEntity
  8
Graypants_Bow160
370
    -3
100
AcDbVertex
100
AcDb2dVertex
 10
1699.368922314491
 20
-2107.81824863701
 30
0.0
  0
VERTEX
  5
1A7
330
17D
100
AcDbEntity
  8
Graypants_Bow160
370
    -3
100
AcDbVertex
100
AcDb2dVertex
 10
1690.326880005475
 20
-2109.958072378457
 30
0.0
  0
VERTEX
  5
1A8
330
17D
100
AcDbEntity
  8
Graypants_Bow160
370
    -3
100
AcDbVertex
100
AcDb2dVertex
 10
1681.164818454948
 20
-2112.144814777998
 30
0.0
  0
VERTEX
  5
1A9
330
17D
100
AcDbEntity
  8
Graypants_Bow160
370
    -3
100
AcDbVertex
100
AcDb2dVertex
 10
1653.731640231327
 20
-2118.72365185276
 30
0.0
  0
VERTEX
  5
1AA
330
17D
100
AcDbEntity
  8
Graypants_Bow160
370
    -3
100
AcDbVertex
100
AcDb2dVertex
 10
1644.452897069368
 20
-2120.933492075917
 30
0.0
  0
VERTEX
  5
1AB
330
17D
100
AcDbEntity
  8
Graypants_Bow160
370
    -3
100
AcDbVertex
100
AcDb2dVertex
 10
1635.095878545971
 20
-2123.144470060023
 30
0.0
  0
VERTEX
  5
1AC
330
17D
100
AcDbEntity
  8
Graypants_Bow160
370
    -3
100
AcDbVertex
100
AcDb2dVertex
 10
1625.656895344441
 20
-2125.352392350516
 30
0.0
  0
VERTEX
  5
1AD
330
17D
100
AcDbEntity
  8
Graypants_Bow160
370
    -3
100
AcDbVertex
100
AcDb2dVertex
 10
1616.132258148084
 20
-2127.553065492841
 30
0.0
  0
VERTEX
  5
1AE
330
17D
100
AcDbEntity
  8
Graypants_Bow160
370
    -3
100
AcDbVertex
100
AcDb2dVertex
 10
1606.518277640208
 20
-2129.742296032437
 30
0.0
  0
VERTEX
  5
1AF
330
17D
100
AcDbEntity
  8
Graypants_Bow160
370
    -3
100
AcDbVertex
100
AcDb2dVertex
 10
1596.811264504117
 20
-2131.915890514749
 30
0.0
  0
VERTEX
  5
1B0
330
17D
100
AcDbEntity
  8
Graypants_Bow160
370
    -3
100
AcDbVertex
100
AcDb2dVertex
 10
1591.921717789025
 20
-2132.995513779873
 30
0.0
  0
VERTEX
  5
1B1
330
17D
100
AcDbEntity
  8
Graypants_Bow160
370
    -3
100
AcDbVertex
100
AcDb2dVertex
 10
1587.007529423118
 20
-2134.069655485217
 30
0.0
  0
VERTEX
  5
1B2
330
17D
100
AcDbEntity
  8
Graypants_Bow160
370
    -3
100
AcDbVertex
100
AcDb2dVertex
 10
1582.068238241812
 20
-2135.137791448961
 30
0.0
  0
VERTEX
  5
1B3
330
17D
100
AcDbEntity
  8
Graypants_Bow160
370
    -3
100
AcDbVertex
100
AcDb2dVertex
 10
1577.103383080518
 20
-2136.199397489284
 30
0.0
  0
VERTEX
  5
1B4
330
17D
100
AcDbEntity
  8
Graypants_Bow160
370
    -3
100
AcDbVertex
100
AcDb2dVertex
 10
1572.111006980845
 20
-2137.254331342361
 30
0.0
  0
VERTEX
  5
1B5
330
17D
100
AcDbEntity
  8
Graypants_Bow160
370
    -3
100
AcDbVertex
100
AcDb2dVertex
 10
1567.089527338459
 20
-2138.302513855422
 30
0.0
  0
VERTEX
  5
1B6
330
17D
100
AcDbEntity
  8
Graypants_Bow160
370
    -3
100
AcDbVertex
100
AcDb2dVertex
 10
1562.039044519859
 20
-2139.343515513231
 30
0.0
  0
VERTEX
  5
1B7
330
17D
100
AcDbEntity
  8
Graypants_Bow160
370
    -3
100
AcDbVertex
100
AcDb2dVertex
 10
1556.959658891546
 20
-2140.376906800553
 30
0.0
  0
VERTEX
  5
1B8
330
17D
100
AcDbEntity
  8
Graypants_Bow160
370
    -3
100
AcDbVertex
100
AcDb2dVertex
 10
1551.851470820022
 20
-2141.402258202153
 30
0.0
  0
VERTEX
  5
1B9
330
17D
100
AcDbEntity
  8
Graypants_Bow160
370
    -3
100
AcDbVertex
100
AcDb2dVertex
 10
1546.714580671784
 20
-2142.419140202794
 30
0.0
  0
VERTEX
  5
1BA
330
17D
100
AcDbEntity
  8
Graypants_Bow160
370
    -3
100
AcDbVertex
100
AcDb2dVertex
 10
1541.549088813335
 20
-2143.427123287242
 30
0.0
  0
VERTEX
  5
1BB
330
17D
100
AcDbEntity
  8
Graypants_Bow160
370
    -3
100
AcDbVertex
100
AcDb2dVertex
 10
1536.355095611173
 20
-2144.425777940262
 30
0.0
  0
VERTEX
  5
1BC
330
17D
100
AcDbEntity
  8
Graypants_Bow160
370
    -3
100
AcDbVertex
100
AcDb2dVertex
 10
1531.1327014318
 20
-2145.414674646619
 30
0.0
  0
VERTEX
  5
1BD
330
17D
100
AcDbEntity
  8
Graypants_Bow160
370
    -3
100
AcDbVertex
100
AcDb2dVertex
 10
1525.882006641716
 20
-2146.393383891076
 30
0.0
  0
VERTEX
  5
1BE
330
17D
100
AcDbEntity
  8
Graypants_Bow160
370
    -3
100
AcDbVertex
100
AcDb2dVertex
 10
1520.60311160742
 20
-2147.361476158399
 30
0.0
  0
VERTEX
  5
1BF
330
17D
100
AcDbEntity
  8
Graypants_Bow160
370
    -3
100
AcDbVertex
100
AcDb2dVertex
 10
1515.296116695414
 20
-2148.318521933352
 30
0.0
  0
VERTEX
  5
1C0
330
17D
100
AcDbEntity
  8
Graypants_Bow160
370
    -3
100
AcDbVertex
100
AcDb2dVertex
 10
1509.961122272197
 20
-2149.2640917007
 30
0.0
  0
VERTEX
  5
1C1
330
17D
100
AcDbEntity
  8
Graypants_Bow160
370
    -3
100
AcDbVertex
100
AcDb2dVertex
 10
1504.598228704269
 20
-2150.197755945208
 30
0.0
  0
VERTEX
  5
1C2
330
17D
100
AcDbEntity
  8
Graypants_Bow160
370
    -3
100
AcDbVertex
100
AcDb2dVertex
 10
1499.207536358132
 20
-2151.11908515164
 30
0.0
  0
VERTEX
  5
1C3
330
17D
100
AcDbEntity
  8
Graypants_Bow160
370
    -3
100
AcDbVertex
100
AcDb2dVertex
 10
1493.789145600284
 20
-2152.027649804761
 30
0.0
  0
VERTEX
  5
1C4
330
17D
100
AcDbEntity
  8
Graypants_Bow160
370
    -3
100
AcDbVertex
100
AcDb2dVertex
 10
1488.342013519919
 20
-2152.923242082352
 30
0.0
  0
VERTEX
  5
1C5
330
17D
100
AcDbEntity
  8
Graypants_Bow160
370
    -3
100
AcDbVertex
100
AcDb2dVertex
 10
1482.865367185384
 20
-2153.805722130425
 30
0.0
  0
VERTEX
  5
1C6
330
17D
100
AcDbEntity
  8
Graypants_Bow160
370
    -3
100
AcDbVertex
100
AcDb2dVertex
 10
1477.359711931918
 20
-2154.674762386094
 30
0.0
  0
VERTEX
  5
1C7
330
17D
100
AcDbEntity
  8
Graypants_Bow160
370
    -3
100
AcDbVertex
100
AcDb2dVertex
 10
1471.825553094759
 20
-2155.530035286474
 30
0.0
  0
VERTEX
  5
1C8
330
17D
100
AcDbEntity
  8
Graypants_Bow160
370
    -3
100
AcDbVertex
100
AcDb2dVertex
 10
1466.263396009142
 20
-2156.371213268676
 30
0.0
  0
VERTEX
  5
1C9
330
17D
100
AcDbEntity
  8
Graypants_Bow160
370
    -3
100
AcDbVertex
100
AcDb2dVertex
 10
1460.673746010306
 20
-2157.197968769815
 30
0.0
  0
VERTEX
  5
1CA
330
17D
100
AcDbEntity
  8
Graypants_Bow160
370
    -3
100
AcDbVertex
100
AcDb2dVertex
 10
1455.057108433487
 20
-2158.009974227003
 30
0.0
  0
VERTEX
  5
1CB
330
17D
100
AcDbEntity
  8
Graypants_Bow160
370
    -3
100
AcDbVertex
100
AcDb2dVertex
 10
1449.413988613924
 20
-2158.806902077356
 30
0.0
  0
VERTEX
  5
1CC
330
17D
100
AcDbEntity
  8
Graypants_Bow160
370
    -3
100
AcDbVertex
100
AcDb2dVertex
 10
1443.744891886853
 20
-2159.588424757985
 30
0.0
  0
VERTEX
  5
1CD
330
17D
100
AcDbEntity
  8
Graypants_Bow160
370
    -3
100
AcDbVertex
100
AcDb2dVertex
 10
1438.050323587512
 20
-2160.354214706004
 30
0.0
  0
VERTEX
  5
1CE
330
17D
100
AcDbEntity
  8
Graypants_Bow160
370
    -3
100
AcDbVertex
100
AcDb2dVertex
 10
1432.330789051137
 20
-2161.103944358526
 30
0.0
  0
VERTEX
  5
1CF
330
17D
100
AcDbEntity
  8
Graypants_Bow160
370
    -3
100
AcDbVertex
100
AcDb2dVertex
 10
1426.586793612967
 20
-2161.837286152665
 30
0.0
  0
VERTEX
  5
1D0
330
17D
100
AcDbEntity
  8
Graypants_Bow160
370
    -3
100
AcDbVertex
100
AcDb2dVertex
 10
1420.818842608238
 20
-2162.553912525535
 30
0.0
  0
VERTEX
  5
1D1
330
17D
100
AcDbEntity
  8
Graypants_Bow160
370
    -3
100
AcDbVertex
100
AcDb2dVertex
 10
1415.027441372189
 20
-2163.253495914249
 30
0.0
  0
VERTEX
  5
1D2
330
17D
100
AcDbEntity
  8
Graypants_Bow160
370
    -3
100
AcDbVertex
100
AcDb2dVertex
 10
1409.213095240055
 20
-2163.935708755919
 30
0.0
  0
VERTEX
  5
1D3
330
17D
100
AcDbEntity
  8
Graypants_Bow160
370
    -3
100
AcDbVertex
100
AcDb2dVertex
 10
1403.376309547074
 20
-2164.60022348766
 30
0.0
  0
VERTEX
  5
1D4
330
17D
100
AcDbEntity
  8
Graypants_Bow160
370
    -3
100
AcDbVertex
100
AcDb2dVertex
 10
1397.516670193451
 20
-2165.246842324359
 30
0.0
  0
VERTEX
  5
1D5
330
17D
100
AcDbEntity
  8
Graypants_Bow160
370
    -3
100
AcDbVertex
100
AcDb2dVertex
 10
1391.633932840052
 20
-2165.875449758193
 30
0.0
  0
VERTEX
  5
1D6
330
17D
100
AcDbEntity
  8
Graypants_Bow160
370
    -3
100
AcDbVertex
100
AcDb2dVertex
 10
1385.728857463112
 20
-2166.485841642207
 30
0.0
  0
VERTEX
  5
1D7
330
17D
100
AcDbEntity
  8
Graypants_Bow160
370
    -3
100
AcDbVertex
100
AcDb2dVertex
 10
1379.802204038862
 20
-2167.077813829446
 30
0.0
  0
VERTEX
  5
1D8
330
17D
100
AcDbEntity
  8
Graypants_Bow160
370
    -3
100
AcDbVertex
100
AcDb2dVertex
 10
1373.854732543537
 20
-2167.651162172957
 30
0.0
  0
VERTEX
  5
1D9
330
17D
100
AcDbEntity
  8
Graypants_Bow160
370
    -3
100
AcDbVertex
100
AcDb2dVertex
 10
1367.887202953369
 20
-2168.205682525786
 30
0.0
  0
VERTEX
  5
1DA
330
17D
100
AcDbEntity
  8
Graypants_Bow160
370
    -3
100
AcDbVertex
100
AcDb2dVertex
 10
1361.900375244591
 20
-2168.741170740979
 30
0.0
  0
VERTEX
  5
1DB
330
17D
100
AcDbEntity
  8
Graypants_Bow160
370
    -3
100
AcDbVertex
100
AcDb2dVertex
 10
1355.895009393437
 20
-2169.257422671581
 30
0.0
  0
VERTEX
  5
1DC
330
17D
100
AcDbEntity
  8
Graypants_Bow160
370
    -3
100
AcDbVertex
100
AcDb2dVertex
 10
1349.87186537614
 20
-2169.754234170637
 30
0.0
  0
VERTEX
  5
1DD
330
17D
100
AcDbEntity
  8
Graypants_Bow160
370
    -3
100
AcDbVertex
100
AcDb2dVertex
 10
1343.831703168931
 20
-2170.231401091195
 30
0.0
  0
VERTEX
  5
1DE
330
17D
100
AcDbEntity
  8
Graypants_Bow160
370
    -3
100
AcDbVertex
100
AcDb2dVertex
 10
1337.775282748046
 20
-2170.6887192863
 30
0.0
  0
VERTEX
  5
1DF
330
17D
100
AcDbEntity
  8
Graypants_Bow160
370
    -3
100
AcDbVertex
100
AcDb2dVertex
 10
1331.703364089717
 20
-2171.125984608997
 30
0.0
  0
VERTEX
  5
1E0
330
17D
100
AcDbEntity
  8
Graypants_Bow160
370
    -3
100
AcDbVertex
100
AcDb2dVertex
 10
1325.616707170177
 20
-2171.542992912333
 30
0.0
  0
VERTEX
  5
1E1
330
17D
100
AcDbEntity
  8
Graypants_Bow160
370
    -3
100
AcDbVertex
100
AcDb2dVertex
 10
1319.516071965658
 20
-2171.939540049353
 30
0.0
  0
VERTEX
  5
1E2
330
17D
100
AcDbEntity
  8
Graypants_Bow160
370
    -3
100
AcDbVertex
100
AcDb2dVertex
 10
1313.402218452395
 20
-2172.315421873103
 30
0.0
  0
VERTEX
  5
1E3
330
17D
100
AcDbEntity
  8
Graypants_Bow160
370
    -3
100
AcDbVertex
100
AcDb2dVertex
 10
1307.275906606619
 20
-2172.670434236629
 30
0.0
  0
VERTEX
  5
1E4
330
17D
100
AcDbEntity
  8
Graypants_Bow160
370
    -3
100
AcDbVertex
100
AcDb2dVertex
 10
1301.13709556338
 20
-2173.004442867678
 30
0.0
  0
VERTEX
  5
1E5
330
17D
100
AcDbEntity
  8
Graypants_Bow160
370
    -3
100
AcDbVertex
100
AcDb2dVertex
 10
1294.985826001202
 20
-2173.317403510031
 30
0.0
  0
VERTEX
  5
1E6
330
17D
100
AcDbEntity
  8
Graypants_Bow160
370
    -3
100
AcDbVertex
100
AcDb2dVertex
 10
1288.822980211534
 20
-2173.609247040782
 30
0.0
  0
VERTEX
  5
1E7
330
17D
100
AcDbEntity
  8
Graypants_Bow160
370
    -3
100
AcDbVertex
100
AcDb2dVertex
 10
1282.649440485826
 20
-2173.879904337027
 30
0.0
  0
VERTEX
  5
1E8
330
17D
100
AcDbEntity
  8
Graypants_Bow160
370
    -3
100
AcDbVertex
100
AcDb2dVertex
 10
1276.466089115527
 20
-2174.129306275863
 30
0.0
  0
VERTEX
  5
1E9
330
17D
100
AcDbEntity
  8
Graypants_Bow160
370
    -3
100
AcDbVertex
100
AcDb2dVertex
 10
1270.273808392087
 20
-2174.357383734385
 30
0.0
  0
VERTEX
  5
1EA
330
17D
100
AcDbEntity
  8
Graypants_Bow160
370
    -3
100
AcDbVertex
100
AcDb2dVertex
 10
1264.073480606955
 20
-2174.564067589688
 30
0.0
  0
VERTEX
  5
1EB
330
17D
100
AcDbEntity
  8
Graypants_Bow160
370
    -3
100
AcDbVertex
100
AcDb2dVertex
 10
1257.865988051582
 20
-2174.749288718869
 30
0.0
  0
VERTEX
  5
1EC
330
17D
100
AcDbEntity
  8
Graypants_Bow160
370
    -3
100
AcDbVertex
100
AcDb2dVertex
 10
1251.652213017415
 20
-2174.912977999023
 30
0.0
  0
VERTEX
  5
1ED
330
17D
100
AcDbEntity
  8
Graypants_Bow160
370
    -3
100
AcDbVertex
100
AcDb2dVertex
 10
1245.433037795905
 20
-2175.055066307246
 30
0.0
  0
VERTEX
  5
1EE
330
17D
100
AcDbEntity
  8
Graypants_Bow160
370
    -3
100
AcDbVertex
100
AcDb2dVertex
 10
1239.2093446785
 20
-2175.175484520633
 30
0.0
  0
VERTEX
  5
1EF
330
17D
100
AcDbEntity
  8
Graypants_Bow160
370
    -3
100
AcDbVertex
100
AcDb2dVertex
 10
1232.982015956652
 20
-2175.274163516281
 30
0.0
  0
VERTEX
  5
1F0
330
17D
100
AcDbEntity
  8
Graypants_Bow160
370
    -3
100
AcDbVertex
100
AcDb2dVertex
 10
1226.751933921808
 20
-2175.351034171285
 30
0.0
  0
VERTEX
  5
1F1
330
17D
100
AcDbEntity
  8
Graypants_Bow160
370
    -3
100
AcDbVertex
100
AcDb2dVertex
 10
1220.519980865418
 20
-2175.406027362741
 30
0.0
  0
VERTEX
  5
1F2
330
17D
100
AcDbEntity
  8
Graypants_Bow160
370
    -3
100
AcDbVertex
100
AcDb2dVertex
 10
1214.287039078933
 20
-2175.439073967744
 30
0.0
  0
VERTEX
  5
1F3
330
17D
100
AcDbEntity
  8
Graypants_Bow160
370
    -3
100
AcDbVertex
100
AcDb2dVertex
 10
1208.0539908538
 20
-2175.450104863391
 30
0.0
  0
VERTEX
  5
1F4
330
17D
100
AcDbEntity
  8
Graypants_Bow160
370
    -3
100
AcDbVertex
100
AcDb2dVertex
 10
1201.820942628672
 20
-2175.439073967744
 30
0.0
  0
VERTEX
  5
1F5
330
17D
100
AcDbEntity
  8
Graypants_Bow160
370
    -3
100
AcDbVertex
100
AcDb2dVertex
 10
1195.588000842198
 20
-2175.406027362739
 30
0.0
  0
VERTEX
  5
1F6
330
17D
100
AcDbEntity
  8
Graypants_Bow160
370
    -3
100
AcDbVertex
100
AcDb2dVertex
 10
1189.356047785825
 20
-2175.351034171282
 30
0.0
  0
VERTEX
  5
1F7
330
17D
100
AcDbEntity
  8
Graypants_Bow160
370
    -3
100
AcDbVertex
100
AcDb2dVertex
 10
1183.125965751001
 20
-2175.274163516276
 30
0.0
  0
VERTEX
  5
1F8
330
17D
100
AcDbEntity
  8
Graypants_Bow160
370
    -3
100
AcDbVertex
100
AcDb2dVertex
 10
1176.898637029175
 20
-2175.175484520625
 30
0.0
  0
VERTEX
  5
1F9
330
17D
100
AcDbEntity
  8
Graypants_Bow160
370
    -3
100
AcDbVertex
100
AcDb2dVertex
 10
1170.674943911794
 20
-2175.055066307235
 30
0.0
  0
VERTEX
  5
1FA
330
17D
100
AcDbEntity
  8
Graypants_Bow160
370
    -3
100
AcDbVertex
100
AcDb2dVertex
 10
1164.455768690306
 20
-2174.91297799901
 30
0.0
  0
VERTEX
  5
1FB
330
17D
100
AcDbEntity
  8
Graypants_Bow160
370
    -3
100
AcDbVertex
100
AcDb2dVertex
 10
1158.241993656158
 20
-2174.749288718854
 30
0.0
  0
VERTEX
  5
1FC
330
17D
100
AcDbEntity
  8
Graypants_Bow160
370
    -3
100
AcDbVertex
100
AcDb2dVertex
 10
1152.034501100799
 20
-2174.564067589672
 30
0.0
  0
VERTEX
  5
1FD
330
17D
100
AcDbEntity
  8
Graypants_Bow160
370
    -3
100
AcDbVertex
100
AcDb2dVertex
 10
1145.834173315676
 20
-2174.357383734367
 30
0.0
  0
VERTEX
  5
1FE
330
17D
100
AcDbEntity
  8
Graypants_Bow160
370
    -3
100
AcDbVertex
100
AcDb2dVertex
 10
1139.641892592238
 20
-2174.129306275846
 30
0.0
  0
VERTEX
  5
1FF
330
17D
100
AcDbEntity
  8
Graypants_Bow160
370
    -3
100
AcDbVertex
100
AcDb2dVertex
 10
1133.458541221931
 20
-2173.879904337011
 30
0.0
  0
VERTEX
  5
200
330
17D
100
AcDbEntity
  8
Graypants_Bow160
370
    -3
100
AcDbVertex
100
AcDb2dVertex
 10
1127.285001496204
 20
-2173.609247040768
 30
0.0
  0
VERTEX
  5
201
330
17D
100
AcDbEntity
  8
Graypants_Bow160
370
    -3
100
AcDbVertex
100
AcDb2dVertex
 10
1121.122155706505
 20
-2173.31740351002
 30
0.0
  0
VERTEX
  5
202
330
17D
100
AcDbEntity
  8
Graypants_Bow160
370
    -3
100
AcDbVertex
100
AcDb2dVertex
 10
1114.970886144281
 20
-2173.004442867672
 30
0.0
  0
VERTEX
  5
203
330
17D
100
AcDbEntity
  8
Graypants_Bow160
370
    -3
100
AcDbVertex
100
AcDb2dVertex
 10
1108.832075100981
 20
-2172.67043423663
 30
0.0
  0
VERTEX
  5
204
330
17D
100
AcDbEntity
  8
Graypants_Bow160
370
    -3
100
AcDbVertex
100
AcDb2dVertex
 10
1102.70576325514
 20
-2172.31542187311
 30
0.0
  0
VERTEX
  5
205
330
17D
100
AcDbEntity
  8
Graypants_Bow160
370
    -3
100
AcDbVertex
100
AcDb2dVertex
 10
1096.591909741817
 20
-2171.939540049365
 30
0.0
  0
VERTEX
  5
206
330
17D
100
AcDbEntity
  8
Graypants_Bow160
370
    -3
100
AcDbVertex
100
AcDb2dVertex
 10
1090.491274537247
 20
-2171.542992912348
 30
0.0
  0
VERTEX
  5
207
330
17D
100
AcDbEntity
  8
Graypants_Bow160
370
    -3
100
AcDbVertex
100
AcDb2dVertex
 10
1084.404617617663
 20
-2171.125984609014
 30
0.0
  0
VERTEX
  5
208
330
17D
100
AcDbEntity
  8
Graypants_Bow160
370
    -3
100
AcDbVertex
100
AcDb2dVertex
 10
1078.332698959298
 20
-2170.688719286318
 30
0.0
  0
VERTEX
  5
209
330
17D
100
AcDbEntity
  8
Graypants_Bow160
370
    -3
100
AcDbVertex
100
AcDb2dVertex
 10
1072.276278538386
 20
-2170.231401091213
 30
0.0
  0
VERTEX
  5
20A
330
17D
100
AcDbEntity
  8
Graypants_Bow160
370
    -3
100
AcDbVertex
100
AcDb2dVertex
 10
1066.23611633116
 20
-2169.754234170654
 30
0.0
  0
VERTEX
  5
20B
330
17D
100
AcDbEntity
  8
Graypants_Bow160
370
    -3
100
AcDbVertex
100
AcDb2dVertex
 10
1060.212972313853
 20
-2169.257422671596
 30
0.0
  0
VERTEX
  5
20C
330
17D
100
AcDbEntity
  8
Graypants_Bow160
370
    -3
100
AcDbVertex
100
AcDb2dVertex
 10
1054.2076064627
 20
-2168.741170740991
 30
0.0
  0
VERTEX
  5
20D
330
17D
100
AcDbEntity
  8
Graypants_Bow160
370
    -3
100
AcDbVertex
100
AcDb2dVertex
 10
1048.220778753933
 20
-2168.205682525797
 30
0.0
  0
VERTEX
  5
20E
330
17D
100
AcDbEntity
  8
Graypants_Bow160
370
    -3
100
AcDbVertex
100
AcDb2dVertex
 10
1042.253249163787
 20
-2167.651162172966
 30
0.0
  0
VERTEX
  5
20F
330
17D
100
AcDbEntity
  8
Graypants_Bow160
370
    -3
100
AcDbVertex
100
AcDb2dVertex
 10
1036.305777668494
 20
-2167.077813829452
 30
0.0
  0
VERTEX
  5
210
330
17D
100
AcDbEntity
  8
Graypants_Bow160
370
    -3
100
AcDbVertex
100
AcDb2dVertex
 10
1030.379124244288
 20
-2166.48584164221
 30
0.0
  0
VERTEX
  5
211
330
17D
100
AcDbEntity
  8
Graypants_Bow160
370
    -3
100
AcDbVertex
100
AcDb2dVertex
 10
1024.474048867402
 20
-2165.875449758194
 30
0.0
  0
VERTEX
  5
212
330
17D
100
AcDbEntity
  8
Graypants_Bow160
370
    -3
100
AcDbVertex
100
AcDb2dVertex
 10
1018.591311514071
 20
-2165.24684232436
 30
0.0
  0
VERTEX
  5
213
330
17D
100
AcDbEntity
  8
Graypants_Bow160
370
    -3
100
AcDbVertex
100
AcDb2dVertex
 10
1012.731672160527
 20
-2164.60022348766
 30
0.0
  0
VERTEX
  5
214
330
17D
100
AcDbEntity
  8
Graypants_Bow160
370
    -3
100
AcDbVertex
100
AcDb2dVertex
 10
1006.894886467647
 20
-2163.93570875592
 30
0.0
  0
VERTEX
  5
215
330
17D
100
AcDbEntity
  8
Graypants_Bow160
370
    -3
100
AcDbVertex
100
AcDb2dVertex
 10
1001.080540335641
 20
-2163.253495914254
 30
0.0
  0
VERTEX
  5
216
330
17D
100
AcDbEntity
  8
Graypants_Bow160
370
    -3
100
AcDbVertex
100
AcDb2dVertex
 10
995.289139099735
 20
-2162.553912525547
 30
0.0
  0
VERTEX
  5
217
330
17D
100
AcDbEntity
  8
Graypants_Bow160
370
    -3
100
AcDbVertex
100
AcDb2dVertex
 10
989.5211880951597
 20
-2161.837286152685
 30
0.0
  0
VERTEX
  5
218
330
17D
100
AcDbEntity
  8
Graypants_Bow160
370
    -3
100
AcDbVertex
100
AcDb2dVertex
 10
983.7771926571435
 20
-2161.103944358554
 30
0.0
  0
VERTEX
  5
219
330
17D
100
AcDbEntity
  8
Graypants_Bow160
370
    -3
100
AcDbVertex
100
AcDb2dVertex
 10
978.057658120915
 20
-2160.354214706041
 30
0.0
  0
VERTEX
  5
21A
330
17D
100
AcDbEntity
  8
Graypants_Bow160
370
    -3
100
AcDbVertex
100
AcDb2dVertex
 10
972.3630898217034
 20
-2159.58842475803
 30
0.0
  0
VERTEX
  5
21B
330
17D
100
AcDbEntity
  8
Graypants_Bow160
370
    -3
100
AcDbVertex
100
AcDb2dVertex
 10
966.6939930947375
 20
-2158.806902077409
 30
0.0
  0
VERTEX
  5
21C
330
17D
100
AcDbEntity
  8
Graypants_Bow160
370
    -3
100
AcDbVertex
100
AcDb2dVertex
 10
961.0508732752461
 20
-2158.009974227062
 30
0.0
  0
VERTEX
  5
21D
330
17D
100
AcDbEntity
  8
Graypants_Bow160
370
    -3
100
AcDbVertex
100
AcDb2dVertex
 10
955.434235698458
 20
-2157.197968769877
 30
0.0
  0
VERTEX
  5
21E
330
17D
100
AcDbEntity
  8
Graypants_Bow160
370
    -3
100
AcDbVertex
100
AcDb2dVertex
 10
949.8445856996021
 20
-2156.371213268738
 30
0.0
  0
VERTEX
  5
21F
330
17D
100
AcDbEntity
  8
Graypants_Bow160
370
    -3
100
AcDbVertex
100
AcDb2dVertex
 10
944.2824286139073
 20
-2155.530035286533
 30
0.0
  0
VERTEX
  5
220
330
17D
100
AcDbEntity
  8
Graypants_Bow160
370
    -3
100
AcDbVertex
100
AcDb2dVertex
 10
938.7482697766025
 20
-2154.674762386146
 30
0.0
  0
VERTEX
  5
221
330
17D
100
AcDbEntity
  8
Graypants_Bow160
370
    -3
100
AcDbVertex
100
AcDb2dVertex
 10
933.2426145229165
 20
-2153.805722130465
 30
0.0
  0
VERTEX
  5
222
330
17D
100
AcDbEntity
  8
Graypants_Bow160
370
    -3
100
AcDbVertex
100
AcDb2dVertex
 10
927.765968188078
 20
-2152.923242082375
 30
0.0
  0
VERTEX
  5
223
330
17D
100
AcDbEntity
  8
Graypants_Bow160
370
    -3
100
AcDbVertex
100
AcDb2dVertex
 10
922.3188361073162
 20
-2152.027649804761
 30
0.0
  0
VERTEX
  5
224
330
17D
100
AcDbEntity
  8
Graypants_Bow160
370
    -3
100
AcDbVertex
100
AcDb2dVertex
 10
916.900445349058
 20
-2151.119085151622
 30
0.0
  0
VERTEX
  5
225
330
17D
100
AcDbEntity
  8
Graypants_Bow160
370
    -3
100
AcDbVertex
100
AcDb2dVertex
 10
911.5097530025768
 20
-2150.197755945186
 30
0.0
  0
VERTEX
  5
226
330
17D
100
AcDbEntity
  8
Graypants_Bow160
370
    -3
100
AcDbVertex
100
AcDb2dVertex
 10
906.14685943437
 20
-2149.264091700687
 30
0.0
  0
VERTEX
  5
227
330
17D
100
AcDbEntity
  8
Graypants_Bow160
370
    -3
100
AcDbVertex
100
AcDb2dVertex
 10
900.8118650109353
 20
-2148.318521933356
 30
0.0
  0
VERTEX
  5
228
330
17D
100
AcDbEntity
  8
Graypants_Bow160
370
    -3
100
AcDbVertex
100
AcDb2dVertex
 10
895.5048700987704
 20
-2147.361476158428
 30
0.0
  0
VERTEX
  5
229
330
17D
100
AcDbEntity
  8
Graypants_Bow160
370
    -3
100
AcDbVertex
100
AcDb2dVertex
 10
890.2259750643728
 20
-2146.393383891133
 30
0.0
  0
VERTEX
  5
22A
330
17D
100
AcDbEntity
  8
Graypants_Bow160
370
    -3
100
AcDbVertex
100
AcDb2dVertex
 10
884.9752802742403
 20
-2145.414674646706
 30
0.0
  0
VERTEX
  5
22B
330
17D
100
AcDbEntity
  8
Graypants_Bow160
370
    -3
100
AcDbVertex
100
AcDb2dVertex
 10
879.7528860948703
 20
-2144.425777940378
 30
0.0
  0
VERTEX
  5
22C
330
17D
100
AcDbEntity
  8
Graypants_Bow160
370
    -3
100
AcDbVertex
100
AcDb2dVertex
 10
874.5588928927607
 20
-2143.427123287383
 30
0.0
  0
VERTEX
  5
22D
330
17D
100
AcDbEntity
  8
Graypants_Bow160
370
    -3
100
AcDbVertex
100
AcDb2dVertex
 10
869.393401034409
 20
-2142.419140202954
 30
0.0
  0
VERTEX
  5
22E
330
17D
100
AcDbEntity
  8
Graypants_Bow160
370
    -3
100
AcDbVertex
100
AcDb2dVertex
 10
864.2565108863129
 20
-2141.402258202322
 30
0.0
  0
VERTEX
  5
22F
330
17D
100
AcDbEntity
  8
Graypants_Bow160
370
    -3
100
AcDbVertex
100
AcDb2dVertex
 10
859.1483228149699
 20
-2140.376906800722
 30
0.0
  0
VERTEX
  5
230
330
17D
100
AcDbEntity
  8
Graypants_Bow160
370
    -3
100
AcDbVertex
100
AcDb2dVertex
 10
854.0689371868777
 20
-2139.343515513385
 30
0.0
  0
VERTEX
  5
231
330
17D
100
AcDbEntity
  8
Graypants_Bow160
370
    -3
100
AcDbVertex
100
AcDb2dVertex
 10
849.0184543685341
 20
-2138.302513855545
 30
0.0
  0
VERTEX
  5
232
330
17D
100
AcDbEntity
  8
Graypants_Bow160
370
    -3
100
AcDbVertex
100
AcDb2dVertex
 10
843.9969747264366
 20
-2137.254331342434
 30
0.0
  0
VERTEX
  5
233
330
17D
100
AcDbEntity
  8
Graypants_Bow160
370
    -3
100
AcDbVertex
100
AcDb2dVertex
 10
839.0045986270828
 20
-2136.199397489284
 30
0.0
  0
VERTEX
  5
234
330
17D
100
AcDbEntity
  8
Graypants_Bow160
370
    -3
100
AcDbVertex
100
AcDb2dVertex
 10
834.0397434660563
 20
-2135.137791448887
 30
0.0
  0
VERTEX
  5
235
330
17D
100
AcDbEntity
  8
Graypants_Bow160
370
    -3
100
AcDbVertex
100
AcDb2dVertex
 10
829.1004522848964
 20
-2134.069655485088
 30
0.0
  0
VERTEX
  5
236
330
17D
100
AcDbEntity
  8
Graypants_Bow160
370
    -3
100
AcDbVertex
100
AcDb2dVertex
 10
824.1862639190347
 20
-2132.995513779706
 30
0.0
  0
VERTEX
  5
237
330
17D
100
AcDbEntity
  8
Graypants_Bow160
370
    -3
100
AcDbVertex
100
AcDb2dVertex
 10
819.2967172039025
 20
-2131.915890514559
 30
0.0
  0
VERTEX
  5
238
330
17D
100
AcDbEntity
  8
Graypants_Bow160
370
    -3
100
AcDbVertex
100
AcDb2dVertex
 10
809.5897040675527
 20
-2129.742296032238
 30
0.0
  0
VERTEX
  5
239
330
17D
100
AcDbEntity
  8
Graypants_Bow160
370
    -3
100
AcDbVertex
100
AcDb2dVertex
 10
799.975723559299
 20
-2127.553065492669
 30
0.0
  0
VERTEX
  5
23A
330
17D
100
AcDbEntity
  8
Graypants_Bow160
370
    -3
100
AcDbVertex
100
AcDb2dVertex
 10
790.4510863625924
 20
-2125.352392350394
 30
0.0
  0
VERTEX
  5
23B
330
17D
100
AcDbEntity
  8
Graypants_Bow160
370
    -3
100
AcDbVertex
100
AcDb2dVertex
 10
781.0121031608851
 20
-2123.144470059955
 30
0.0
  0
VERTEX
  5
23C
330
17D
100
AcDbEntity
  8
Graypants_Bow160
370
    -3
100
AcDbVertex
100
AcDb2dVertex
 10
771.6550846376284
 20
-2120.933492075896
 30
0.0
  0
VERTEX
  5
23D
330
17D
100
AcDbEntity
  8
Graypants_Bow160
370
    -3
100
AcDbVertex
100
AcDb2dVertex
 10
762.3763414762742
 20
-2118.723651852759
 30
0.0
  0
VERTEX
  5
23E
330
17D
100
AcDbEntity
  8
Graypants_Bow160
370
    -3
100
AcDbVertex
100
AcDb2dVertex
 10
734.9431658326573
 20
-2112.144815388944
 30
0.0
  0
VERTEX
  5
23F
330
17D
100
AcDbEntity
  8
Graypants_Bow160
370
    -3
100
AcDbVertex
100
AcDb2dVertex
 10
725.7811017015435
 20
-2109.958072378457
 30
0.0
  0
VERTEX
  5
240
330
17D
100
AcDbEntity
  8
Graypants_Bow160
370
    -3
100
AcDbVertex
100
AcDb2dVertex
 10
716.7387420470016
 20
-2107.81817375212
 30
0.0
  0
VERTEX
  5
241
330
17D
100
AcDbEntity
  8
Graypants_Bow160
370
    -3
100
AcDbVertex
100
AcDb2dVertex
 10
707.6879123202145
 20
-2105.702557279983
 30
0.0
  0
VERTEX
  5
242
330
17D
100
AcDbEntity
  8
Graypants_Bow160
370
    -3
100
AcDbVertex
100
AcDb2dVertex
 10
698.6271519273822
 20
-2103.618921141529
 30
0.0
  0
VERTEX
  5
243
330
17D
100
AcDbEntity
  8
Graypants_Bow160
370
    -3
100
AcDbVertex
100
AcDb2dVertex
 10
694.0925912956366
 20
-2102.59150137852
 30
0.0
  0
VERTEX
  5
244
330
17D
100
AcDbEntity
  8
Graypants_Bow160
370
    -3
100
AcDbVertex
100
AcDb2dVertex
 10
689.5550002747046
 20
-2101.574963516236
 30
0.0
  0
VERTEX
  5
245
330
17D
100
AcDbEntity
  8
Graypants_Bow160
370
    -3
100
AcDbVertex
100
AcDb2dVertex
 10
685.0228405619703
 20
-2100.572300514184
 30
0.0
  0
VERTEX
  5
246
330
17D
100
AcDbEntity
  8
Graypants_Bow160
370
    -3
100
AcDbVertex
100
AcDb2dVertex
 10
680.4816294207664
 20
-2099.581712787901
 30
0.0
  0
VERTEX
  5
247
330
17D
100
AcDbEntity
  8
Graypants_Bow160
370
    -3
100
AcDbVertex
100
AcDb2dVertex
 10
675.9298697286312
 20
-2098.604344929513
 30
0.0
  0
VERTEX
  5
248
330
17D
100
AcDbEntity
  8
Graypants_Bow160
370
    -3
100
AcDbVertex
100
AcDb2dVertex
 10
671.3660643631029
 20
-2097.641341531148
 30
0.0
  0
VERTEX
  5
249
330
17D
100
AcDbEntity
  8
Graypants_Bow160
370
    -3
100
AcDbVertex
100
AcDb2dVertex
 10
666.78871620172
 20
-2096.693847184934
 30
0.0
  0
VERTEX
  5
24A
330
17D
100
AcDbEntity
  8
Graypants_Bow160
370
    -3
100
AcDbVertex
100
AcDb2dVertex
 10
662.1963281220212
 20
-2095.763006483
 30
0.0
  0
VERTEX
  5
24B
330
17D
100
AcDbEntity
  8
Graypants_Bow160
370
    -3
100
AcDbVertex
100
AcDb2dVertex
 10
657.5874030015444
 20
-2094.849964017471
 30
0.0
  0
VERTEX
  5
24C
330
17D
100
AcDbEntity
  8
Graypants_Bow160
370
    -3
100
AcDbVertex
100
AcDb2dVertex
 10
652.9604437178283
 20
-2093.955864380476
 30
0.0
  0
VERTEX
  5
24D
330
17D
100
AcDbEntity
  8
Graypants_Bow160
370
    -3
100
AcDbVertex
100
AcDb2dVertex
 10
648.3140721109554
 20
-2093.081925644218
 30
0.0
  0
VERTEX
  5
24E
330
17D
100
AcDbEntity
  8
Graypants_Bow160
370
    -3
100
AcDbVertex
100
AcDb2dVertex
 10
643.6471604644628
 20
-2092.229484985684
 30
0.0
  0
VERTEX
  5
24F
330
17D
100
AcDbEntity
  8
Graypants_Bow160
370
    -3
100
AcDbVertex
100
AcDb2dVertex
 10
638.9585873210694
 20
-2091.399865654173
 30
0.0
  0
VERTEX
  5
250
330
17D
100
AcDbEntity
  8
Graypants_Bow160
370
    -3
100
AcDbVertex
100
AcDb2dVertex
 10
634.2472312234949
 20
-2090.594390898987
 30
0.0
  0
VERTEX
  5
251
330
17D
100
AcDbEntity
  8
Graypants_Bow160
370
    -3
100
AcDbVertex
100
AcDb2dVertex
 10
629.5119707144585
 20
-2089.814383969424
 30
0.0
  0
VERTEX
  5
252
330
17D
100
AcDbEntity
  8
Graypants_Bow160
370
    -3
100
AcDbVertex
100
AcDb2dVertex
 10
624.7516843366798
 20
-2089.061168114788
 30
0.0
  0
VERTEX
  5
253
330
17D
100
AcDbEntity
  8
Graypants_Bow160
370
    -3
100
AcDbVertex
100
AcDb2dVertex
 10
619.965250632878
 20
-2088.336066584376
 30
0.0
  0
VERTEX
  5
254
330
17D
100
AcDbEntity
  8
Graypants_Bow160
370
    -3
100
AcDbVertex
100
AcDb2dVertex
 10
615.1515481457723
 20
-2087.640402627491
 30
0.0
  0
VERTEX
  5
255
330
17D
100
AcDbEntity
  8
Graypants_Bow160
370
    -3
100
AcDbVertex
100
AcDb2dVertex
 10
610.3072071350413
 20
-2086.975325692962
 30
0.0
  0
VERTEX
  5
256
330
17D
100
AcDbEntity
  8
Graypants_Bow160
370
    -3
100
AcDbVertex
100
AcDb2dVertex
 10
605.428957046977
 20
-2086.342166012332
 30
0.0
  0
VERTEX
  5
257
330
17D
100
AcDbEntity
  8
Graypants_Bow160
370
    -3
100
AcDbVertex
100
AcDb2dVertex
 10
600.5158252042194
 20
-2085.742518008967
 30
0.0
  0
VERTEX
  5
258
330
17D
100
AcDbEntity
  8
Graypants_Bow160
370
    -3
100
AcDbVertex
100
AcDb2dVertex
 10
595.5668389294085
 20
-2085.177976106236
 30
0.0
  0
VERTEX
  5
259
330
17D
100
AcDbEntity
  8
Graypants_Bow160
370
    -3
100
AcDbVertex
100
AcDb2dVertex
 10
593.078596418308
 20
-2084.909368199911
 30
0.0
  0
VERTEX
  5
25A
330
17D
100
AcDbEntity
  8
Graypants_Bow160
370
    -3
100
AcDbVertex
100
AcDb2dVertex
 10
590.5810255451844
 20
-2084.650134727507
 30
0.0
  0
VERTEX
  5
25B
330
17D
100
AcDbEntity
  8
Graypants_Bow160
370
    -3
100
AcDbVertex
100
AcDb2dVertex
 10
588.0740047253673
 20
-2084.400474991945
 30
0.0
  0
VERTEX
  5
25C
330
17D
100
AcDbEntity
  8
Graypants_Bow160
370
    -3
100
AcDbVertex
100
AcDb2dVertex
 10
585.5574123741869
 20
-2084.160588296146
 30
0.0
  0
VERTEX
  5
25D
330
17D
100
AcDbEntity
  8
Graypants_Bow160
370
    -3
100
AcDbVertex
100
AcDb2dVertex
 10
583.0311269069732
 20
-2083.930673943032
 30
0.0
  0
VERTEX
  5
25E
330
17D
100
AcDbEntity
  8
Graypants_Bow160
370
    -3
100
AcDbVertex
100
AcDb2dVertex
 10
580.4950267390562
 20
-2083.710931235522
 30
0.0
  0
VERTEX
  5
25F
330
17D
100
AcDbEntity
  8
Graypants_Bow160
370
    -3
100
AcDbVertex
100
AcDb2dVertex
 10
577.9489902857661
 20
-2083.501559476539
 30
0.0
  0
VERTEX
  5
260
330
17D
100
AcDbEntity
  8
Graypants_Bow160
370
    -3
100
AcDbVertex
100
AcDb2dVertex
 10
575.3928959624325
 20
-2083.302757969003
 30
0.0
  0
VERTEX
  5
261
330
17D
100
AcDbEntity
  8
Graypants_Bow160
370
    -3
100
AcDbVertex
100
AcDb2dVertex
 10
572.2794314830352
 20
-2083.07614658414
 30
0.0
  0
VERTEX
  5
262
330
17D
100
AcDbEntity
  8
Graypants_Bow160
370
    -3
100
AcDbVertex
100
AcDb2dVertex
 10
569.1508962220919
 20
-2082.865706861118
 30
0.0
  0
VERTEX
  5
263
330
17D
100
AcDbEntity
  8
Graypants_Bow160
370
    -3
100
AcDbVertex
100
AcDb2dVertex
 10
566.0071257619211
 20
-2082.671726468217
 30
0.0
  0
VERTEX
  5
264
330
17D
100
AcDbEntity
  8
Graypants_Bow160
370
    -3
100
AcDbVertex
100
AcDb2dVertex
 10
562.847955684841
 20
-2082.494493073716
 30
0.0
  0
VERTEX
  5
265
330
17D
100
AcDbEntity
  8
Graypants_Bow160
370
    -3
100
AcDbVertex
100
AcDb2dVertex
 10
559.6732215731699
 20
-2082.334294345895
 30
0.0
  0
VERTEX
  5
266
330
17D
100
AcDbEntity
  8
Graypants_Bow160
370
    -3
100
AcDbVertex
100
AcDb2dVertex
 10
556.482759009226
 20
-2082.191417953034
 30
0.0
  0
VERTEX
  5
267
330
17D
100
AcDbEntity
  8
Graypants_Bow160
370
    -3
100
AcDbVertex
100
AcDb2dVertex
 10
553.2764035753275
 20
-2082.066151563414
 30
0.0
  0
VERTEX
  5
268
330
17D
100
AcDbEntity
  8
Graypants_Bow160
370
    -3
100
AcDbVertex
100
AcDb2dVertex
 10
550.0539908537926
 20
-2081.958782845312
 30
0.0
  0
SEQEND
  5
269
330
17D
100
AcDbEntity
  8
Graypants_Bow160
370
    -3
  0
POLYLINE
  5
26A
330
1F
100
AcDbEntity
  8
Graypants_Bow160
370
    -3
100
AcDb2dPolyline
 66
     1
 10
0.0
 20
0.0
 30
0.0
  0
VERTEX
  5
26B
330
26A
100
AcDbEntity
  8
Graypants_Bow160
370
    -3
100
AcDbVertex
100
AcDb2dVertex
 10
550.0539908537926
 20
-2055.947431914018
 30
0.0
  0
VERTEX
  5
26C
330
26A
100
AcDbEntity
  8
Graypants_Bow160
370
    -3
100
AcDbVertex
100
AcDb2dVertex
 10
553.5287756433813
 20
-2056.058832241158
 30
0.0
  0
VERTEX
  5
26D
330
26A
100
AcDbEntity
  8
Graypants_Bow160
370
    -3
100
AcDbVertex
100
AcDb2dVertex
 10
556.9855315596905
 20
-2056.19011767974
 30
0.0
  0
VERTEX
  5
26E
330
26A
100
AcDbEntity
  8
Graypants_Bow160
370
    -3
100
AcDbVertex
100
AcDb2dVertex
 10
560.4243245034279
 20
-2056.340952348512
 30
0.0
  0
VERTEX
  5
26F
330
26A
100
AcDbEntity
  8
Graypants_Bow160
370
    -3
100
AcDbVertex
100
AcDb2dVertex
 10
563.8452203753011
 20
-2056.511000366222
 30
0.0
  0
VERTEX
  5
270
330
26A
100
AcDbEntity
  8
Graypants_Bow160
370
    -3
100
AcDbVertex
100
AcDb2dVertex
 10
567.2482850760177
 20
-2056.699925851617
 30
0.0
  0
VERTEX
  5
271
330
26A
100
AcDbEntity
  8
Graypants_Bow160
370
    -3
100
AcDbVertex
100
AcDb2dVertex
 10
570.6335845062854
 20
-2056.907392923443
 30
0.0
  0
VERTEX
  5
272
330
26A
100
AcDbEntity
  8
Graypants_Bow160
370
    -3
100
AcDbVertex
100
AcDb2dVertex
 10
574.0011845668117
 20
-2057.13306570045
 30
0.0
  0
VERTEX
  5
273
330
26A
100
AcDbEntity
  8
Graypants_Bow160
370
    -3
100
AcDbVertex
100
AcDb2dVertex
 10
577.3511511583044
 20
-2057.376608301383
 30
0.0
  0
VERTEX
  5
274
330
26A
100
AcDbEntity
  8
Graypants_Bow160
370
    -3
100
AcDbVertex
100
AcDb2dVertex
 10
580.0224086904368
 20
-2057.584371079243
 30
0.0
  0
VERTEX
  5
275
330
26A
100
AcDbEntity
  8
Graypants_Bow160
370
    -3
100
AcDbVertex
100
AcDb2dVertex
 10
582.6824042489063
 20
-2057.803125340244
 30
0.0
  0
VERTEX
  5
276
330
26A
100
AcDbEntity
  8
Graypants_Bow160
370
    -3
100
AcDbVertex
100
AcDb2dVertex
 10
585.3312105906388
 20
-2058.032648091882
 30
0.0
  0
VERTEX
  5
277
330
26A
100
AcDbEntity
  8
Graypants_Bow160
370
    -3
100
AcDbVertex
100
AcDb2dVertex
 10
587.9689004725601
 20
-2058.272716341658
 30
0.0
  0
VERTEX
  5
278
330
26A
100
AcDbEntity
  8
Graypants_Bow160
370
    -3
100
AcDbVertex
100
AcDb2dVertex
 10
590.5955466515958
 20
-2058.523107097067
 30
0.0
  0
VERTEX
  5
279
330
26A
100
AcDbEntity
  8
Graypants_Bow160
370
    -3
100
AcDbVertex
100
AcDb2dVertex
 10
593.2112218846719
 20
-2058.783597365608
 30
0.0
  0
VERTEX
  5
27A
330
26A
100
AcDbEntity
  8
Graypants_Bow160
370
    -3
100
AcDbVertex
100
AcDb2dVertex
 10
595.8159989287141
 20
-2059.053964154778
 30
0.0
  0
VERTEX
  5
27B
330
26A
100
AcDbEntity
  8
Graypants_Bow160
370
    -3
100
AcDbVertex
100
AcDb2dVertex
 10
598.409950540648
 20
-2059.333984472076
 30
0.0
  0
VERTEX
  5
27C
330
26A
100
AcDbEntity
  8
Graypants_Bow160
370
    -3
100
AcDbVertex
100
AcDb2dVertex
 10
600.9931494773996
 20
-2059.623435324998
 30
0.0
  0
VERTEX
  5
27D
330
26A
100
AcDbEntity
  8
Graypants_Bow160
370
    -3
100
AcDbVertex
100
AcDb2dVertex
 10
603.5656684958946
 20
-2059.922093721043
 30
0.0
  0
VERTEX
  5
27E
330
26A
100
AcDbEntity
  8
Graypants_Bow160
370
    -3
100
AcDbVertex
100
AcDb2dVertex
 10
608.6789578058178
 20
-2060.546141172492
 30
0.0
  0
VERTEX
  5
27F
330
26A
100
AcDbEntity
  8
Graypants_Bow160
370
    -3
100
AcDbVertex
100
AcDb2dVertex
 10
613.7504005258238
 20
-2061.204342886405
 30
0.0
  0
VERTEX
  5
280
330
26A
100
AcDbEntity
  8
Graypants_Bow160
370
    -3
100
AcDbVertex
100
AcDb2dVertex
 10
618.7805787113189
 20
-2061.894914922762
 30
0.0
  0
VERTEX
  5
281
330
26A
100
AcDbEntity
  8
Graypants_Bow160
370
    -3
100
AcDbVertex
100
AcDb2dVertex
 10
623.7731017169426
 20
-2062.616415401387
 30
0.0
  0
VERTEX
  5
282
330
26A
100
AcDbEntity
  8
Graypants_Bow160
370
    -3
100
AcDbVertex
100
AcDb2dVertex
 10
628.7318572549603
 20
-2063.367612646102
 30
0.0
  0
VERTEX
  5
283
330
26A
100
AcDbEntity
  8
Graypants_Bow160
370
    -3
100
AcDbVertex
100
AcDb2dVertex
 10
633.6578449172166
 20
-2064.147038022896
 30
0.0
  0
VERTEX
  5
284
330
26A
100
AcDbEntity
  8
Graypants_Bow160
370
    -3
100
AcDbVertex
100
AcDb2dVertex
 10
638.5520642955562
 20
-2064.953222897756
 30
0.0
  0
VERTEX
  5
285
330
26A
100
AcDbEntity
  8
Graypants_Bow160
370
    -3
100
AcDbVertex
100
AcDb2dVertex
 10
643.4155149818237
 20
-2065.784698636669
 30
0.0
  0
VERTEX
  5
286
330
26A
100
AcDbEntity
  8
Graypants_Bow160
370
    -3
100
AcDbVertex
100
AcDb2dVertex
 10
648.2491965678637
 20
-2066.639996605624
 30
0.0
  0
VERTEX
  5
287
330
26A
100
AcDbEntity
  8
Graypants_Bow160
370
    -3
100
AcDbVertex
100
AcDb2dVertex
 10
653.054108645521
 20
-2067.517648170607
 30
0.0
  0
VERTEX
  5
288
330
26A
100
AcDbEntity
  8
Graypants_Bow160
370
    -3
100
AcDbVertex
100
AcDb2dVertex
 10
657.8312508066401
 20
-2068.416184697606
 30
0.0
  0
VERTEX
  5
289
330
26A
100
AcDbEntity
  8
Graypants_Bow160
370
    -3
100
AcDbVertex
100
AcDb2dVertex
 10
662.5816309180891
 20
-2069.334119140454
 30
0.0
  0
VERTEX
  5
28A
330
26A
100
AcDbEntity
  8
Graypants_Bow160
370
    -3
100
AcDbVertex
100
AcDb2dVertex
 10
667.3065879288347
 20
-2070.270121907291
 30
0.0
  0
VERTEX
  5
28B
330
26A
100
AcDbEntity
  8
Graypants_Bow160
370
    -3
100
AcDbVertex
100
AcDb2dVertex
 10
672.0076180538704
 20
-2071.222960545571
 30
0.0
  0
VERTEX
  5
28C
330
26A
100
AcDbEntity
  8
Graypants_Bow160
370
    -3
100
AcDbVertex
100
AcDb2dVertex
 10
676.6862175081892
 20
-2072.191402602748
 30
0.0
  0
VERTEX
  5
28D
330
26A
100
AcDbEntity
  8
Graypants_Bow160
370
    -3
100
AcDbVertex
100
AcDb2dVertex
 10
681.3438825067844
 20
-2073.174215626274
 30
0.0
  0
VERTEX
  5
28E
330
26A
100
AcDbEntity
  8
Graypants_Bow160
370
    -3
100
AcDbVertex
100
AcDb2dVertex
 10
685.9821092646494
 20
-2074.170167163602
 30
0.0
  0
VERTEX
  5
28F
330
26A
100
AcDbEntity
  8
Graypants_Bow160
370
    -3
100
AcDbVertex
100
AcDb2dVertex
 10
690.6023939967773
 20
-2075.178024762185
 30
0.0
  0
VERTEX
  5
290
330
26A
100
AcDbEntity
  8
Graypants_Bow160
370
    -3
100
AcDbVertex
100
AcDb2dVertex
 10
695.2062329181613
 20
-2076.196555969475
 30
0.0
  0
VERTEX
  5
291
330
26A
100
AcDbEntity
  8
Graypants_Bow160
370
    -3
100
AcDbVertex
100
AcDb2dVertex
 10
699.7982023504535
 20
-2077.225219532524
 30
0.0
  0
VERTEX
  5
292
330
26A
100
AcDbEntity
  8
Graypants_Bow160
370
    -3
100
AcDbVertex
100
AcDb2dVertex
 10
704.3826472660403
 20
-2078.263807009273
 30
0.0
  0
VERTEX
  5
293
330
26A
100
AcDbEntity
  8
Graypants_Bow160
370
    -3
100
AcDbVertex
100
AcDb2dVertex
 10
713.5335603114765
 20
-2080.367820759044
 30
0.0
  0
VERTEX
  5
294
330
26A
100
AcDbEntity
  8
Graypants_Bow160
370
    -3
100
AcDbVertex
100
AcDb2dVertex
 10
722.6681655832283
 20
-2082.502731329125
 30
0.0
  0
VERTEX
  5
295
330
26A
100
AcDbEntity
  8
Graypants_Bow160
370
    -3
100
AcDbVertex
100
AcDb2dVertex
 10
731.7956566100534
 20
-2084.662672829851
 30
0.0
  0
VERTEX
  5
296
330
26A
100
AcDbEntity
  8
Graypants_Bow160
370
    -3
100
AcDbVertex
100
AcDb2dVertex
 10
768.4183488432463
 20
-2093.43543034595
 30
0.0
  0
VERTEX
  5
297
330
26A
100
AcDbEntity
  8
Graypants_Bow160
370
    -3
100
AcDbVertex
100
AcDb2dVertex
 10
777.6587023551965
 20
-2095.636105947459
 30
0.0
  0
VERTEX
  5
298
330
26A
100
AcDbEntity
  8
Graypants_Bow160
370
    -3
100
AcDbVertex
100
AcDb2dVertex
 10
786.964769351618
 20
-2097.835003886177
 30
0.0
  0
VERTEX
  5
299
330
26A
100
AcDbEntity
  8
Graypants_Bow160
370
    -3
100
AcDbVertex
100
AcDb2dVertex
 10
796.3406508613787
 20
-2100.028135011749
 30
0.0
  0
VERTEX
  5
29A
330
26A
100
AcDbEntity
  8
Graypants_Bow160
370
    -3
100
AcDbVertex
100
AcDb2dVertex
 10
805.7904479133466
 20
-2102.21151017382
 30
0.0
  0
VERTEX
  5
29B
330
26A
100
AcDbEntity
  8
Graypants_Bow160
370
    -3
100
AcDbVertex
100
AcDb2dVertex
 10
815.3182615363895
 20
-2104.381140222034
 30
0.0
  0
VERTEX
  5
29C
330
26A
100
AcDbEntity
  8
Graypants_Bow160
370
    -3
100
AcDbVertex
100
AcDb2dVertex
 10
824.9281927593754
 20
-2106.533036006034
 30
0.0
  0
VERTEX
  5
29D
330
26A
100
AcDbEntity
  8
Graypants_Bow160
370
    -3
100
AcDbVertex
100
AcDb2dVertex
 10
829.7652340423681
 20
-2107.601086939469
 30
0.0
  0
VERTEX
  5
29E
330
26A
100
AcDbEntity
  8
Graypants_Bow160
370
    -3
100
AcDbVertex
100
AcDb2dVertex
 10
834.6243426111719
 20
-2108.663208375466
 30
0.0
  0
VERTEX
  5
29F
330
26A
100
AcDbEntity
  8
Graypants_Bow160
370
    -3
100
AcDbVertex
100
AcDb2dVertex
 10
839.5060310943954
 20
-2109.718901670233
 30
0.0
  0
VERTEX
  5
2A0
330
26A
100
AcDbEntity
  8
Graypants_Bow160
370
    -3
100
AcDbVertex
100
AcDb2dVertex
 10
844.410812120647
 20
-2110.767668179975
 30
0.0
  0
VERTEX
  5
2A1
330
26A
100
AcDbEntity
  8
Graypants_Bow160
370
    -3
100
AcDbVertex
100
AcDb2dVertex
 10
849.341217831128
 20
-2111.809506952521
 30
0.0
  0
VERTEX
  5
2A2
330
26A
100
AcDbEntity
  8
Graypants_Bow160
370
    -3
100
AcDbVertex
100
AcDb2dVertex
 10
854.299379036933
 20
-2112.844471679966
 30
0.0
  0
VERTEX
  5
2A3
330
26A
100
AcDbEntity
  8
Graypants_Bow160
370
    -3
100
AcDbVertex
100
AcDb2dVertex
 10
859.2852063715119
 20
-2113.872145684907
 30
0.0
  0
VERTEX
  5
2A4
330
26A
100
AcDbEntity
  8
Graypants_Bow160
370
    -3
100
AcDbVertex
100
AcDb2dVertex
 10
864.2986104683139
 20
-2114.892112289946
 30
0.0
  0
VERTEX
  5
2A5
330
26A
100
AcDbEntity
  8
Graypants_Bow160
370
    -3
100
AcDbVertex
100
AcDb2dVertex
 10
869.3395019607887
 20
-2115.90395481768
 30
0.0
  0
VERTEX
  5
2A6
330
26A
100
AcDbEntity
  8
Graypants_Bow160
370
    -3
100
AcDbVertex
100
AcDb2dVertex
 10
874.4077914823855
 20
-2116.907256590708
 30
0.0
  0
VERTEX
  5
2A7
330
26A
100
AcDbEntity
  8
Graypants_Bow160
370
    -3
100
AcDbVertex
100
AcDb2dVertex
 10
879.5033896665539
 20
-2117.90160093163
 30
0.0
  0
VERTEX
  5
2A8
330
26A
100
AcDbEntity
  8
Graypants_Bow160
370
    -3
100
AcDbVertex
100
AcDb2dVertex
 10
884.6262071467436
 20
-2118.886571163046
 30
0.0
  0
VERTEX
  5
2A9
330
26A
100
AcDbEntity
  8
Graypants_Bow160
370
    -3
100
AcDbVertex
100
AcDb2dVertex
 10
889.7761545564038
 20
-2119.861750607554
 30
0.0
  0
VERTEX
  5
2AA
330
26A
100
AcDbEntity
  8
Graypants_Bow160
370
    -3
100
AcDbVertex
100
AcDb2dVertex
 10
894.953142528984
 20
-2120.826722587755
 30
0.0
  0
VERTEX
  5
2AB
330
26A
100
AcDbEntity
  8
Graypants_Bow160
370
    -3
100
AcDbVertex
100
AcDb2dVertex
 10
900.1570816979338
 20
-2121.781070426247
 30
0.0
  0
VERTEX
  5
2AC
330
26A
100
AcDbEntity
  8
Graypants_Bow160
370
    -3
100
AcDbVertex
100
AcDb2dVertex
 10
905.3878826967025
 20
-2122.724377445628
 30
0.0
  0
VERTEX
  5
2AD
330
26A
100
AcDbEntity
  8
Graypants_Bow160
370
    -3
100
AcDbVertex
100
AcDb2dVertex
 10
910.6454561587398
 20
-2123.6562269685
 30
0.0
  0
VERTEX
  5
2AE
330
26A
100
AcDbEntity
  8
Graypants_Bow160
370
    -3
100
AcDbVertex
100
AcDb2dVertex
 10
915.929712717495
 20
-2124.57620231746
 30
0.0
  0
VERTEX
  5
2AF
330
26A
100
AcDbEntity
  8
Graypants_Bow160
370
    -3
100
AcDbVertex
100
AcDb2dVertex
 10
921.2405630064177
 20
-2125.483886815109
 30
0.0
  0
VERTEX
  5
2B0
330
26A
100
AcDbEntity
  8
Graypants_Bow160
370
    -3
100
AcDbVertex
100
AcDb2dVertex
 10
926.5779176589572
 20
-2126.378863784045
 30
0.0
  0
VERTEX
  5
2B1
330
26A
100
AcDbEntity
  8
Graypants_Bow160
370
    -3
100
AcDbVertex
100
AcDb2dVertex
 10
931.9432349533295
 20
-2127.261002424054
 30
0.0
  0
VERTEX
  5
2B2
330
26A
100
AcDbEntity
  8
Graypants_Bow160
370
    -3
100
AcDbVertex
100
AcDb2dVertex
 10
937.3376864295631
 20
-2128.130233000278
 30
0.0
  0
VERTEX
  5
2B3
330
26A
100
AcDbEntity
  8
Graypants_Bow160
370
    -3
100
AcDbVertex
100
AcDb2dVertex
 10
942.7607526138261
 20
-2128.986230433351
 30
0.0
  0
VERTEX
  5
2B4
330
26A
100
AcDbEntity
  8
Graypants_Bow160
370
    -3
100
AcDbVertex
100
AcDb2dVertex
 10
948.211914032287
 20
-2129.82866964391
 30
0.0
  0
VERTEX
  5
2B5
330
26A
100
AcDbEntity
  8
Graypants_Bow160
370
    -3
100
AcDbVertex
100
AcDb2dVertex
 10
953.6906512111145
 20
-2130.657225552588
 30
0.0
  0
VERTEX
  5
2B6
330
26A
100
AcDbEntity
  8
Graypants_Bow160
370
    -3
100
AcDbVertex
100
AcDb2dVertex
 10
959.1964446764766
 20
-2131.47157308002
 30
0.0
  0
VERTEX
  5
2B7
330
26A
100
AcDbEntity
  8
Graypants_Bow160
370
    -3
100
AcDbVertex
100
AcDb2dVertex
 10
964.7287749545418
 20
-2132.271387146842
 30
0.0
  0
VERTEX
  5
2B8
330
26A
100
AcDbEntity
  8
Graypants_Bow160
370
    -3
100
AcDbVertex
100
AcDb2dVertex
 10
970.2871225714786
 20
-2133.056342673688
 30
0.0
  0
VERTEX
  5
2B9
330
26A
100
AcDbEntity
  8
Graypants_Bow160
370
    -3
100
AcDbVertex
100
AcDb2dVertex
 10
975.8709680534553
 20
-2133.826114581193
 30
0.0
  0
VERTEX
  5
2BA
330
26A
100
AcDbEntity
  8
Graypants_Bow160
370
    -3
100
AcDbVertex
100
AcDb2dVertex
 10
981.4797919266402
 20
-2134.580377789992
 30
0.0
  0
VERTEX
  5
2BB
330
26A
100
AcDbEntity
  8
Graypants_Bow160
370
    -3
100
AcDbVertex
100
AcDb2dVertex
 10
987.1130747172018
 20
-2135.318807220719
 30
0.0
  0
VERTEX
  5
2BC
330
26A
100
AcDbEntity
  8
Graypants_Bow160
370
    -3
100
AcDbVertex
100
AcDb2dVertex
 10
992.7702969513086
 20
-2136.04107779401
 30
0.0
  0
VERTEX
  5
2BD
330
26A
100
AcDbEntity
  8
Graypants_Bow160
370
    -3
100
AcDbVertex
100
AcDb2dVertex
 10
998.4509391551288
 20
-2136.746864430499
 30
0.0
  0
VERTEX
  5
2BE
330
26A
100
AcDbEntity
  8
Graypants_Bow160
370
    -3
100
AcDbVertex
100
AcDb2dVertex
 10
1004.154481854831
 20
-2137.435842050821
 30
0.0
  0
VERTEX
  5
2BF
330
26A
100
AcDbEntity
  8
Graypants_Bow160
370
    -3
100
AcDbVertex
100
AcDb2dVertex
 10
1009.880405576583
 20
-2138.107685575612
 30
0.0
  0
VERTEX
  5
2C0
330
26A
100
AcDbEntity
  8
Graypants_Bow160
370
    -3
100
AcDbVertex
100
AcDb2dVertex
 10
1015.628190846554
 20
-2138.762069925505
 30
0.0
  0
VERTEX
  5
2C1
330
26A
100
AcDbEntity
  8
Graypants_Bow160
370
    -3
100
AcDbVertex
100
AcDb2dVertex
 10
1021.39856407304
 20
-2139.398834388093
 30
0.0
  0
VERTEX
  5
2C2
330
26A
100
AcDbEntity
  8
Graypants_Bow160
370
    -3
100
AcDbVertex
100
AcDb2dVertex
 10
1027.19207402338
 20
-2140.017898232629
 30
0.0
  0
VERTEX
  5
2C3
330
26A
100
AcDbEntity
  8
Graypants_Bow160
370
    -3
100
AcDbVertex
100
AcDb2dVertex
 10
1033.007934762307
 20
-2140.619056352243
 30
0.0
  0
VERTEX
  5
2C4
330
26A
100
AcDbEntity
  8
Graypants_Bow160
370
    -3
100
AcDbVertex
100
AcDb2dVertex
 10
1038.845360354553
 20
-2141.202103640064
 30
0.0
  0
VERTEX
  5
2C5
330
26A
100
AcDbEntity
  8
Graypants_Bow160
370
    -3
100
AcDbVertex
100
AcDb2dVertex
 10
1044.703564864852
 20
-2141.766834989221
 30
0.0
  0
VERTEX
  5
2C6
330
26A
100
AcDbEntity
  8
Graypants_Bow160
370
    -3
100
AcDbVertex
100
AcDb2dVertex
 10
1050.581762357936
 20
-2142.313045292845
 30
0.0
  0
VERTEX
  5
2C7
330
26A
100
AcDbEntity
  8
Graypants_Bow160
370
    -3
100
AcDbVertex
100
AcDb2dVertex
 10
1056.479166898539
 20
-2142.840529444064
 30
0.0
  0
VERTEX
  5
2C8
330
26A
100
AcDbEntity
  8
Graypants_Bow160
370
    -3
100
AcDbVertex
100
AcDb2dVertex
 10
1062.394992551392
 20
-2143.349082336008
 30
0.0
  0
VERTEX
  5
2C9
330
26A
100
AcDbEntity
  8
Graypants_Bow160
370
    -3
100
AcDbVertex
100
AcDb2dVertex
 10
1068.32845338123
 20
-2143.838498861806
 30
0.0
  0
VERTEX
  5
2CA
330
26A
100
AcDbEntity
  8
Graypants_Bow160
370
    -3
100
AcDbVertex
100
AcDb2dVertex
 10
1074.278763452785
 20
-2144.308573914587
 30
0.0
  0
VERTEX
  5
2CB
330
26A
100
AcDbEntity
  8
Graypants_Bow160
370
    -3
100
AcDbVertex
100
AcDb2dVertex
 10
1080.245136830789
 20
-2144.759102387481
 30
0.0
  0
VERTEX
  5
2CC
330
26A
100
AcDbEntity
  8
Graypants_Bow160
370
    -3
100
AcDbVertex
100
AcDb2dVertex
 10
1086.226787579976
 20
-2145.189879173618
 30
0.0
  0
VERTEX
  5
2CD
330
26A
100
AcDbEntity
  8
Graypants_Bow160
370
    -3
100
AcDbVertex
100
AcDb2dVertex
 10
1092.222929765079
 20
-2145.600699166125
 30
0.0
  0
VERTEX
  5
2CE
330
26A
100
AcDbEntity
  8
Graypants_Bow160
370
    -3
100
AcDbVertex
100
AcDb2dVertex
 10
1098.23277745083
 20
-2145.991357258134
 30
0.0
  0
VERTEX
  5
2CF
330
26A
100
AcDbEntity
  8
Graypants_Bow160
370
    -3
100
AcDbVertex
100
AcDb2dVertex
 10
1104.255544701963
 20
-2146.361648342773
 30
0.0
  0
VERTEX
  5
2D0
330
26A
100
AcDbEntity
  8
Graypants_Bow160
370
    -3
100
AcDbVertex
100
AcDb2dVertex
 10
1110.290445583209
 20
-2146.711367313172
 30
0.0
  0
VERTEX
  5
2D1
330
26A
100
AcDbEntity
  8
Graypants_Bow160
370
    -3
100
AcDbVertex
100
AcDb2dVertex
 10
1116.337777415156
 20
-2147.040394238677
 30
0.0
  0
VERTEX
  5
2D2
330
26A
100
AcDbEntity
  8
Graypants_Bow160
370
    -3
100
AcDbVertex
100
AcDb2dVertex
 10
1122.397753109175
 20
-2147.348699400775
 30
0.0
  0
VERTEX
  5
2D3
330
26A
100
AcDbEntity
  8
Graypants_Bow160
370
    -3
100
AcDbVertex
100
AcDb2dVertex
 10
1128.469460116178
 20
-2147.636213010808
 30
0.0
  0
VERTEX
  5
2D4
330
26A
100
AcDbEntity
  8
Graypants_Bow160
370
    -3
100
AcDbVertex
100
AcDb2dVertex
 10
1134.551985887077
 20
-2147.902865280117
 30
0.0
  0
VERTEX
  5
2D5
330
26A
100
AcDbEntity
  8
Graypants_Bow160
370
    -3
100
AcDbVertex
100
AcDb2dVertex
 10
1140.644417872785
 20
-2148.148586420042
 30
0.0
  0
VERTEX
  5
2D6
330
26A
100
AcDbEntity
  8
Graypants_Bow160
370
    -3
100
AcDbVertex
100
AcDb2dVertex
 10
1146.745843524214
 20
-2148.373306641924
 30
0.0
  0
VERTEX
  5
2D7
330
26A
100
AcDbEntity
  8
Graypants_Bow160
370
    -3
100
AcDbVertex
100
AcDb2dVertex
 10
1152.855350292275
 20
-2148.576956157105
 30
0.0
  0
VERTEX
  5
2D8
330
26A
100
AcDbEntity
  8
Graypants_Bow160
370
    -3
100
AcDbVertex
100
AcDb2dVertex
 10
1158.972025627882
 20
-2148.759465176924
 30
0.0
  0
VERTEX
  5
2D9
330
26A
100
AcDbEntity
  8
Graypants_Bow160
370
    -3
100
AcDbVertex
100
AcDb2dVertex
 10
1165.094956981945
 20
-2148.920763912723
 30
0.0
  0
VERTEX
  5
2DA
330
26A
100
AcDbEntity
  8
Graypants_Bow160
370
    -3
100
AcDbVertex
100
AcDb2dVertex
 10
1171.223231805378
 20
-2149.060782575843
 30
0.0
  0
VERTEX
  5
2DB
330
26A
100
AcDbEntity
  8
Graypants_Bow160
370
    -3
100
AcDbVertex
100
AcDb2dVertex
 10
1177.355937549091
 20
-2149.179451377625
 30
0.0
  0
VERTEX
  5
2DC
330
26A
100
AcDbEntity
  8
Graypants_Bow160
370
    -3
100
AcDbVertex
100
AcDb2dVertex
 10
1183.492161663998
 20
-2149.27670052941
 30
0.0
  0
VERTEX
  5
2DD
330
26A
100
AcDbEntity
  8
Graypants_Bow160
370
    -3
100
AcDbVertex
100
AcDb2dVertex
 10
1189.63099160101
 20
-2149.352460242538
 30
0.0
  0
VERTEX
  5
2DE
330
26A
100
AcDbEntity
  8
Graypants_Bow160
370
    -3
100
AcDbVertex
100
AcDb2dVertex
 10
1195.77151481104
 20
-2149.40666072835
 30
0.0
  0
VERTEX
  5
2DF
330
26A
100
AcDbEntity
  8
Graypants_Bow160
370
    -3
100
AcDbVertex
100
AcDb2dVertex
 10
1201.912818745
 20
-2149.439232198187
 30
0.0
  0
VERTEX
  5
2E0
330
26A
100
AcDbEntity
  8
Graypants_Bow160
370
    -3
100
AcDbVertex
100
AcDb2dVertex
 10
1208.053990853801
 20
-2149.450104863391
 30
0.0
  0
VERTEX
  5
2E1
330
26A
100
AcDbEntity
  8
Graypants_Bow160
370
    -3
100
AcDbVertex
100
AcDb2dVertex
 10
1214.195162962606
 20
-2149.439232198189
 30
0.0
  0
VERTEX
  5
2E2
330
26A
100
AcDbEntity
  8
Graypants_Bow160
370
    -3
100
AcDbVertex
100
AcDb2dVertex
 10
1220.336466896575
 20
-2149.406660728354
 30
0.0
  0
VERTEX
  5
2E3
330
26A
100
AcDbEntity
  8
Graypants_Bow160
370
    -3
100
AcDbVertex
100
AcDb2dVertex
 10
1226.476990106619
 20
-2149.352460242547
 30
0.0
  0
VERTEX
  5
2E4
330
26A
100
AcDbEntity
  8
Graypants_Bow160
370
    -3
100
AcDbVertex
100
AcDb2dVertex
 10
1232.615820043649
 20
-2149.276700529424
 30
0.0
  0
VERTEX
  5
2E5
330
26A
100
AcDbEntity
  8
Graypants_Bow160
370
    -3
100
AcDbVertex
100
AcDb2dVertex
 10
1238.752044158576
 20
-2149.179451377646
 30
0.0
  0
VERTEX
  5
2E6
330
26A
100
AcDbEntity
  8
Graypants_Bow160
370
    -3
100
AcDbVertex
100
AcDb2dVertex
 10
1244.88474990231
 20
-2149.060782575871
 30
0.0
  0
VERTEX
  5
2E7
330
26A
100
AcDbEntity
  8
Graypants_Bow160
370
    -3
100
AcDbVertex
100
AcDb2dVertex
 10
1251.013024725762
 20
-2148.920763912756
 30
0.0
  0
VERTEX
  5
2E8
330
26A
100
AcDbEntity
  8
Graypants_Bow160
370
    -3
100
AcDbVertex
100
AcDb2dVertex
 10
1257.135956079842
 20
-2148.759465176962
 30
0.0
  0
VERTEX
  5
2E9
330
26A
100
AcDbEntity
  8
Graypants_Bow160
370
    -3
100
AcDbVertex
100
AcDb2dVertex
 10
1263.252631415461
 20
-2148.576956157147
 30
0.0
  0
VERTEX
  5
2EA
330
26A
100
AcDbEntity
  8
Graypants_Bow160
370
    -3
100
AcDbVertex
100
AcDb2dVertex
 10
1269.362138183531
 20
-2148.373306641969
 30
0.0
  0
VERTEX
  5
2EB
330
26A
100
AcDbEntity
  8
Graypants_Bow160
370
    -3
100
AcDbVertex
100
AcDb2dVertex
 10
1275.463563834961
 20
-2148.148586420087
 30
0.0
  0
VERTEX
  5
2EC
330
26A
100
AcDbEntity
  8
Graypants_Bow160
370
    -3
100
AcDbVertex
100
AcDb2dVertex
 10
1281.555995820662
 20
-2147.90286528016
 30
0.0
  0
VERTEX
  5
2ED
330
26A
100
AcDbEntity
  8
Graypants_Bow160
370
    -3
100
AcDbVertex
100
AcDb2dVertex
 10
1287.638521591545
 20
-2147.636213010846
 30
0.0
  0
VERTEX
  5
2EE
330
26A
100
AcDbEntity
  8
Graypants_Bow160
370
    -3
100
AcDbVertex
100
AcDb2dVertex
 10
1293.71022859852
 20
-2147.348699400804
 30
0.0
  0
VERTEX
  5
2EF
330
26A
100
AcDbEntity
  8
Graypants_Bow160
370
    -3
100
AcDbVertex
100
AcDb2dVertex
 10
1299.770204292499
 20
-2147.040394238693
 30
0.0
  0
VERTEX
  5
2F0
330
26A
100
AcDbEntity
  8
Graypants_Bow160
370
    -3
100
AcDbVertex
100
AcDb2dVertex
 10
1305.817536124392
 20
-2146.711367313172
 30
0.0
  0
VERTEX
  5
2F1
330
26A
100
AcDbEntity
  8
Graypants_Bow160
370
    -3
100
AcDbVertex
100
AcDb2dVertex
 10
1311.85243700558
 20
-2146.361648342756
 30
0.0
  0
VERTEX
  5
2F2
330
26A
100
AcDbEntity
  8
Graypants_Bow160
370
    -3
100
AcDbVertex
100
AcDb2dVertex
 10
1317.875204256658
 20
-2145.991357258104
 30
0.0
  0
VERTEX
  5
2F3
330
26A
100
AcDbEntity
  8
Graypants_Bow160
370
    -3
100
AcDbVertex
100
AcDb2dVertex
 10
1323.885051942362
 20
-2145.600699166087
 30
0.0
  0
VERTEX
  5
2F4
330
26A
100
AcDbEntity
  8
Graypants_Bow160
370
    -3
100
AcDbVertex
100
AcDb2dVertex
 10
1329.881194127423
 20
-2145.189879173574
 30
0.0
  0
VERTEX
  5
2F5
330
26A
100
AcDbEntity
  8
Graypants_Bow160
370
    -3
100
AcDbVertex
100
AcDb2dVertex
 10
1335.862844876575
 20
-2144.759102387436
 30
0.0
  0
VERTEX
  5
2F6
330
26A
100
AcDbEntity
  8
Graypants_Bow160
370
    -3
100
AcDbVertex
100
AcDb2dVertex
 10
1341.829218254552
 20
-2144.308573914542
 30
0.0
  0
VERTEX
  5
2F7
330
26A
100
AcDbEntity
  8
Graypants_Bow160
370
    -3
100
AcDbVertex
100
AcDb2dVertex
 10
1347.779528326088
 20
-2143.838498861763
 30
0.0
  0
VERTEX
  5
2F8
330
26A
100
AcDbEntity
  8
Graypants_Bow160
370
    -3
100
AcDbVertex
100
AcDb2dVertex
 10
1353.712989155915
 20
-2143.349082335969
 30
0.0
  0
VERTEX
  5
2F9
330
26A
100
AcDbEntity
  8
Graypants_Bow160
370
    -3
100
AcDbVertex
100
AcDb2dVertex
 10
1359.628814808768
 20
-2142.840529444031
 30
0.0
  0
VERTEX
  5
2FA
330
26A
100
AcDbEntity
  8
Graypants_Bow160
370
    -3
100
AcDbVertex
100
AcDb2dVertex
 10
1365.526219349378
 20
-2142.313045292818
 30
0.0
  0
VERTEX
  5
2FB
330
26A
100
AcDbEntity
  8
Graypants_Bow160
370
    -3
100
AcDbVertex
100
AcDb2dVertex
 10
1371.404416842481
 20
-2141.766834989201
 30
0.0
  0
VERTEX
  5
2FC
330
26A
100
AcDbEntity
  8
Graypants_Bow160
370
    -3
100
AcDbVertex
100
AcDb2dVertex
 10
1377.26262135281
 20
-2141.20210364005
 30
0.0
  0
VERTEX
  5
2FD
330
26A
100
AcDbEntity
  8
Graypants_Bow160
370
    -3
100
AcDbVertex
100
AcDb2dVertex
 10
1383.100046945097
 20
-2140.619056352234
 30
0.0
  0
VERTEX
  5
2FE
330
26A
100
AcDbEntity
  8
Graypants_Bow160
370
    -3
100
AcDbVertex
100
AcDb2dVertex
 10
1388.915907684077
 20
-2140.017898232625
 30
0.0
  0
VERTEX
  5
2FF
330
26A
100
AcDbEntity
  8
Graypants_Bow160
370
    -3
100
AcDbVertex
100
AcDb2dVertex
 10
1394.709417634482
 20
-2139.398834388092
 30
0.0
  0
VERTEX
  5
300
330
26A
100
AcDbEntity
  8
Graypants_Bow160
370
    -3
100
AcDbVertex
100
AcDb2dVertex
 10
1400.479790861047
 20
-2138.762069925505
 30
0.0
  0
VERTEX
  5
301
330
26A
100
AcDbEntity
  8
Graypants_Bow160
370
    -3
100
AcDbVertex
100
AcDb2dVertex
 10
1406.227576131118
 20
-2138.107685575609
 30
0.0
  0
VERTEX
  5
302
330
26A
100
AcDbEntity
  8
Graypants_Bow160
370
    -3
100
AcDbVertex
100
AcDb2dVertex
 10
1411.953499852997
 20
-2137.435842050812
 30
0.0
  0
VERTEX
  5
303
330
26A
100
AcDbEntity
  8
Graypants_Bow160
370
    -3
100
AcDbVertex
100
AcDb2dVertex
 10
1417.657042552842
 20
-2136.746864430481
 30
0.0
  0
VERTEX
  5
304
330
26A
100
AcDbEntity
  8
Graypants_Bow160
370
    -3
100
AcDbVertex
100
AcDb2dVertex
 10
1423.337684756813
 20
-2136.04107779398
 30
0.0
  0
VERTEX
  5
305
330
26A
100
AcDbEntity
  8
Graypants_Bow160
370
    -3
100
AcDbVertex
100
AcDb2dVertex
 10
1428.994906991072
 20
-2135.318807220676
 30
0.0
  0
VERTEX
  5
306
330
26A
100
AcDbEntity
  8
Graypants_Bow160
370
    -3
100
AcDbVertex
100
AcDb2dVertex
 10
1434.628189781777
 20
-2134.580377789935
 30
0.0
  0
VERTEX
  5
307
330
26A
100
AcDbEntity
  8
Graypants_Bow160
370
    -3
100
AcDbVertex
100
AcDb2dVertex
 10
1440.23701365509
 20
-2133.826114581123
 30
0.0
  0
VERTEX
  5
308
330
26A
100
AcDbEntity
  8
Graypants_Bow160
370
    -3
100
AcDbVertex
100
AcDb2dVertex
 10
1445.82085913717
 20
-2133.056342673608
 30
0.0
  0
VERTEX
  5
309
330
26A
100
AcDbEntity
  8
Graypants_Bow160
370
    -3
100
AcDbVertex
100
AcDb2dVertex
 10
1451.379206754177
 20
-2132.271387146753
 30
0.0
  0
VERTEX
  5
30A
330
26A
100
AcDbEntity
  8
Graypants_Bow160
370
    -3
100
AcDbVertex
100
AcDb2dVertex
 10
1456.911537032272
 20
-2131.471573079926
 30
0.0
  0
VERTEX
  5
30B
330
26A
100
AcDbEntity
  8
Graypants_Bow160
370
    -3
100
AcDbVertex
100
AcDb2dVertex
 10
1462.417330497614
 20
-2130.657225552493
 30
0.0
  0
VERTEX
  5
30C
330
26A
100
AcDbEntity
  8
Graypants_Bow160
370
    -3
100
AcDbVertex
100
AcDb2dVertex
 10
1467.896067676364
 20
-2129.82866964382
 30
0.0
  0
VERTEX
  5
30D
330
26A
100
AcDbEntity
  8
Graypants_Bow160
370
    -3
100
AcDbVertex
100
AcDb2dVertex
 10
1473.347229094682
 20
-2128.986230433272
 30
0.0
  0
VERTEX
  5
30E
330
26A
100
AcDbEntity
  8
Graypants_Bow160
370
    -3
100
AcDbVertex
100
AcDb2dVertex
 10
1478.770295278728
 20
-2128.130233000216
 30
0.0
  0
VERTEX
  5
30F
330
26A
100
AcDbEntity
  8
Graypants_Bow160
370
    -3
100
AcDbVertex
100
AcDb2dVertex
 10
1484.164746754661
 20
-2127.261002424018
 30
0.0
  0
VERTEX
  5
310
330
26A
100
AcDbEntity
  8
Graypants_Bow160
370
    -3
100
AcDbVertex
100
AcDb2dVertex
 10
1489.530064048643
 20
-2126.378863784045
 30
0.0
  0
VERTEX
  5
311
330
26A
100
AcDbEntity
  8
Graypants_Bow160
370
    -3
100
AcDbVertex
100
AcDb2dVertex
 10
1494.867418700778
 20
-2125.483886815139
 30
0.0
  0
VERTEX
  5
312
330
26A
100
AcDbEntity
  8
Graypants_Bow160
370
    -3
100
AcDbVertex
100
AcDb2dVertex
 10
1500.178268989362
 20
-2124.576202317501
 30
0.0
  0
VERTEX
  5
313
330
26A
100
AcDbEntity
  8
Graypants_Bow160
370
    -3
100
AcDbVertex
100
AcDb2dVertex
 10
1505.462525547842
 20
-2123.656226968536
 30
0.0
  0
VERTEX
  5
314
330
26A
100
AcDbEntity
  8
Graypants_Bow160
370
    -3
100
AcDbVertex
100
AcDb2dVertex
 10
1510.720099009664
 20
-2122.724377445648
 30
0.0
  0
VERTEX
  5
315
330
26A
100
AcDbEntity
  8
Graypants_Bow160
370
    -3
100
AcDbVertex
100
AcDb2dVertex
 10
1515.950900008275
 20
-2121.78107042624
 30
0.0
  0
VERTEX
  5
316
330
26A
100
AcDbEntity
  8
Graypants_Bow160
370
    -3
100
AcDbVertex
100
AcDb2dVertex
 10
1521.154839177124
 20
-2120.826722587717
 30
0.0
  0
VERTEX
  5
317
330
26A
100
AcDbEntity
  8
Graypants_Bow160
370
    -3
100
AcDbVertex
100
AcDb2dVertex
 10
1526.331827149656
 20
-2119.861750607482
 30
0.0
  0
VERTEX
  5
318
330
26A
100
AcDbEntity
  8
Graypants_Bow160
370
    -3
100
AcDbVertex
100
AcDb2dVertex
 10
1531.481774559318
 20
-2118.886571162939
 30
0.0
  0
VERTEX
  5
319
330
26A
100
AcDbEntity
  8
Graypants_Bow160
370
    -3
100
AcDbVertex
100
AcDb2dVertex
 10
1536.604592039558
 20
-2117.901600931491
 30
0.0
  0
VERTEX
  5
31A
330
26A
100
AcDbEntity
  8
Graypants_Bow160
370
    -3
100
AcDbVertex
100
AcDb2dVertex
 10
1541.700190223823
 20
-2116.907256590544
 30
0.0
  0
VERTEX
  5
31B
330
26A
100
AcDbEntity
  8
Graypants_Bow160
370
    -3
100
AcDbVertex
100
AcDb2dVertex
 10
1546.768479745559
 20
-2115.903954817501
 30
0.0
  0
VERTEX
  5
31C
330
26A
100
AcDbEntity
  8
Graypants_Bow160
370
    -3
100
AcDbVertex
100
AcDb2dVertex
 10
1551.809371238213
 20
-2114.892112289765
 30
0.0
  0
VERTEX
  5
31D
330
26A
100
AcDbEntity
  8
Graypants_Bow160
370
    -3
100
AcDbVertex
100
AcDb2dVertex
 10
1556.822775335233
 20
-2113.87214568474
 30
0.0
  0
VERTEX
  5
31E
330
26A
100
AcDbEntity
  8
Graypants_Bow160
370
    -3
100
AcDbVertex
100
AcDb2dVertex
 10
1561.808602670065
 20
-2112.844471679831
 30
0.0
  0
VERTEX
  5
31F
330
26A
100
AcDbEntity
  8
Graypants_Bow160
370
    -3
100
AcDbVertex
100
AcDb2dVertex
 10
1566.766763876156
 20
-2111.809506952442
 30
0.0
  0
VERTEX
  5
320
330
26A
100
AcDbEntity
  8
Graypants_Bow160
370
    -3
100
AcDbVertex
100
AcDb2dVertex
 10
1571.697169586954
 20
-2110.767668179975
 30
0.0
  0
VERTEX
  5
321
330
26A
100
AcDbEntity
  8
Graypants_Bow160
370
    -3
100
AcDbVertex
100
AcDb2dVertex
 10
1576.601950613463
 20
-2109.718901670317
 30
0.0
  0
VERTEX
  5
322
330
26A
100
AcDbEntity
  8
Graypants_Bow160
370
    -3
100
AcDbVertex
100
AcDb2dVertex
 10
1581.48363909681
 20
-2108.663208375614
 30
0.0
  0
VERTEX
  5
323
330
26A
100
AcDbEntity
  8
Graypants_Bow160
370
    -3
100
AcDbVertex
100
AcDb2dVertex
 10
1586.342747665626
 20
-2107.601086939664
 30
0.0
  0
VERTEX
  5
324
330
26A
100
AcDbEntity
  8
Graypants_Bow160
370
    -3
100
AcDbVertex
100
AcDb2dVertex
 10
1591.179788948539
 20
-2106.533036006262
 30
0.0
  0
VERTEX
  5
325
330
26A
100
AcDbEntity
  8
Graypants_Bow160
370
    -3
100
AcDbVertex
100
AcDb2dVertex
 10
1600.789720171178
 20
-2104.381140222285
 30
0.0
  0
VERTEX
  5
326
330
26A
100
AcDbEntity
  8
Graypants_Bow160
370
    -3
100
AcDbVertex
100
AcDb2dVertex
 10
1610.317533793765
 20
-2102.211510174053
 30
0.0
  0
VERTEX
  5
327
330
26A
100
AcDbEntity
  8
Graypants_Bow160
370
    -3
100
AcDbVertex
100
AcDb2dVertex
 10
1619.767330845338
 20
-2100.028135011935
 30
0.0
  0
VERTEX
  5
328
330
26A
100
AcDbEntity
  8
Graypants_Bow160
370
    -3
100
AcDbVertex
100
AcDb2dVertex
 10
1629.143212354935
 20
-2097.835003886299
 30
0.0
  0
VERTEX
  5
329
330
26A
100
AcDbEntity
  8
Graypants_Bow160
370
    -3
100
AcDbVertex
100
AcDb2dVertex
 10
1638.449279351595
 20
-2095.636105947515
 30
0.0
  0
VERTEX
  5
32A
330
26A
100
AcDbEntity
  8
Graypants_Bow160
370
    -3
100
AcDbVertex
100
AcDb2dVertex
 10
1647.689632864354
 20
-2093.43543034595
 30
0.0
  0
VERTEX
  5
32B
330
26A
100
AcDbEntity
  8
Graypants_Bow160
370
    -3
100
AcDbVertex
100
AcDb2dVertex
 10
1684.31232509724
 20
-2084.662672829823
 30
0.0
  0
VERTEX
  5
32C
330
26A
100
AcDbEntity
  8
Graypants_Bow160
370
    -3
100
AcDbVertex
100
AcDb2dVertex
 10
1693.439816123473
 20
-2082.502731329113
 30
0.0
  0
VERTEX
  5
32D
330
26A
100
AcDbEntity
  8
Graypants_Bow160
370
    -3
100
AcDbVertex
100
AcDb2dVertex
 10
1702.574421394915
 20
-2080.367820759047
 30
0.0
  0
VERTEX
  5
32E
330
26A
100
AcDbEntity
  8
Graypants_Bow160
370
    -3
100
AcDbVertex
100
AcDb2dVertex
 10
1711.725334440569
 20
-2078.263807009282
 30
0.0
  0
VERTEX
  5
32F
330
26A
100
AcDbEntity
  8
Graypants_Bow160
370
    -3
100
AcDbVertex
100
AcDb2dVertex
 10
1716.30977935654
 20
-2077.22521953253
 30
0.0
  0
VERTEX
  5
330
330
26A
100
AcDbEntity
  8
Graypants_Bow160
370
    -3
100
AcDbVertex
100
AcDb2dVertex
 10
1720.901748789439
 20
-2076.196555969475
 30
0.0
  0
VERTEX
  5
331
330
26A
100
AcDbEntity
  8
Graypants_Bow160
370
    -3
100
AcDbVertex
100
AcDb2dVertex
 10
1725.505587711419
 20
-2075.178024762168
 30
0.0
  0
VERTEX
  5
332
330
26A
100
AcDbEntity
  8
Graypants_Bow160
370
    -3
100
AcDbVertex
100
AcDb2dVertex
 10
1730.125872443899
 20
-2074.170167163559
 30
0.0
  0
VERTEX
  5
333
330
26A
100
AcDbEntity
  8
Graypants_Bow160
370
    -3
100
AcDbVertex
100
AcDb2dVertex
 10
1734.764099201909
 20
-2073.174215626203
 30
0.0
  0
VERTEX
  5
334
330
26A
100
AcDbEntity
  8
Graypants_Bow160
370
    -3
100
AcDbVertex
100
AcDb2dVertex
 10
1739.42176420048
 20
-2072.191402602652
 30
0.0
  0
VERTEX
  5
335
330
26A
100
AcDbEntity
  8
Graypants_Bow160
370
    -3
100
AcDbVertex
100
AcDb2dVertex
 10
1744.10036365464
 20
-2071.222960545463
 30
0.0
  0
VERTEX
  5
336
330
26A
100
AcDbEntity
  8
Graypants_Bow160
370
    -3
100
AcDbVertex
100
AcDb2dVertex
 10
1748.801393779421
 20
-2070.27012190719
 30
0.0
  0
VERTEX
  5
337
330
26A
100
AcDbEntity
  8
Graypants_Bow160
370
    -3
100
AcDbVertex
100
AcDb2dVertex
 10
1753.526350789851
 20
-2069.334119140386
 30
0.0
  0
VERTEX
  5
338
330
26A
100
AcDbEntity
  8
Graypants_Bow160
370
    -3
100
AcDbVertex
100
AcDb2dVertex
 10
1758.276730900961
 20
-2068.416184697606
 30
0.0
  0
VERTEX
  5
339
330
26A
100
AcDbEntity
  8
Graypants_Bow160
370
    -3
100
AcDbVertex
100
AcDb2dVertex
 10
1763.053873061768
 20
-2067.517648170672
 30
0.0
  0
VERTEX
  5
33A
330
26A
100
AcDbEntity
  8
Graypants_Bow160
370
    -3
100
AcDbVertex
100
AcDb2dVertex
 10
1767.858785139175
 20
-2066.639996605717
 30
0.0
  0
VERTEX
  5
33B
330
26A
100
AcDbEntity
  8
Graypants_Bow160
370
    -3
100
AcDbVertex
100
AcDb2dVertex
 10
1772.692466725041
 20
-2065.784698636763
 30
0.0
  0
VERTEX
  5
33C
330
26A
100
AcDbEntity
  8
Graypants_Bow160
370
    -3
100
AcDbVertex
100
AcDb2dVertex
 10
1777.555917411223
 20
-2064.953222897831
 30
0.0
  0
VERTEX
  5
33D
330
26A
100
AcDbEntity
  8
Graypants_Bow160
370
    -3
100
AcDbVertex
100
AcDb2dVertex
 10
1782.45013678958
 20
-2064.147038022943
 30
0.0
  0
VERTEX
  5
33E
330
26A
100
AcDbEntity
  8
Graypants_Bow160
370
    -3
100
AcDbVertex
100
AcDb2dVertex
 10
1787.37612445197
 20
-2063.367612646121
 30
0.0
  0
VERTEX
  5
33F
330
26A
100
AcDbEntity
  8
Graypants_Bow160
370
    -3
100
AcDbVertex
100
AcDb2dVertex
 10
1792.334879990251
 20
-2062.616415401386
 30
0.0
  0
VERTEX
  5
340
330
26A
100
AcDbEntity
  8
Graypants_Bow160
370
    -3
100
AcDbVertex
100
AcDb2dVertex
 10
1797.327402996282
 20
-2061.894914922762
 30
0.0
  0
VERTEX
  5
341
330
26A
100
AcDbEntity
  8
Graypants_Bow160
370
    -3
100
AcDbVertex
100
AcDb2dVertex
 10
1802.357581182113
 20
-2061.20434288642
 30
0.0
  0
VERTEX
  5
342
330
26A
100
AcDbEntity
  8
Graypants_Bow160
370
    -3
100
AcDbVertex
100
AcDb2dVertex
 10
1807.429023902211
 20
-2060.546141172526
 30
0.0
  0
VERTEX
  5
343
330
26A
100
AcDbEntity
  8
Graypants_Bow160
370
    -3
100
AcDbVertex
100
AcDb2dVertex
 10
1812.542313212057
 20
-2059.922093721096
 30
0.0
  0
VERTEX
  5
344
330
26A
100
AcDbEntity
  8
Graypants_Bow160
370
    -3
100
AcDbVertex
100
AcDb2dVertex
 10
1815.114832230473
 20
-2059.623435325058
 30
0.0
  0
VERTEX
  5
345
330
26A
100
AcDbEntity
  8
Graypants_Bow160
370
    -3
100
AcDbVertex
100
AcDb2dVertex
 10
1817.698031167131
 20
-2059.333984472142
 30
0.0
  0
VERTEX
  5
346
330
26A
100
AcDbEntity
  8
Graypants_Bow160
370
    -3
100
AcDbVertex
100
AcDb2dVertex
 10
1820.291982778965
 20
-2059.053964154848
 30
0.0
  0
VERTEX
  5
347
330
26A
100
AcDbEntity
  8
Graypants_Bow160
370
    -3
100
AcDbVertex
100
AcDb2dVertex
 10
1822.896759822911
 20
-2058.783597365679
 30
0.0
  0
VERTEX
  5
348
330
26A
100
AcDbEntity
  8
Graypants_Bow160
370
    -3
100
AcDbVertex
100
AcDb2dVertex
 10
1825.512435055904
 20
-2058.523107097137
 30
0.0
  0
VERTEX
  5
349
330
26A
100
AcDbEntity
  8
Graypants_Bow160
370
    -3
100
AcDbVertex
100
AcDb2dVertex
 10
1828.139081234879
 20
-2058.272716341723
 30
0.0
  0
VERTEX
  5
34A
330
26A
100
AcDbEntity
  8
Graypants_Bow160
370
    -3
100
AcDbVertex
100
AcDb2dVertex
 10
1830.776771116771
 20
-2058.032648091939
 30
0.0
  0
VERTEX
  5
34B
330
26A
100
AcDbEntity
  8
Graypants_Bow160
370
    -3
100
AcDbVertex
100
AcDb2dVertex
 10
1833.425577458514
 20
-2057.803125340286
 30
0.0
  0
VERTEX
  5
34C
330
26A
100
AcDbEntity
  8
Graypants_Bow160
370
    -3
100
AcDbVertex
100
AcDb2dVertex
 10
1836.085573017044
 20
-2057.584371079267
 30
0.0
  0
VERTEX
  5
34D
330
26A
100
AcDbEntity
  8
Graypants_Bow160
370
    -3
100
AcDbVertex
100
AcDb2dVertex
 10
1838.756830549296
 20
-2057.376608301383
 30
0.0
  0
VERTEX
  5
34E
330
26A
100
AcDbEntity
  8
Graypants_Bow160
370
    -3
100
AcDbVertex
100
AcDb2dVertex
 10
1842.106797140936
 20
-2057.133065700422
 30
0.0
  0
VERTEX
  5
34F
330
26A
100
AcDbEntity
  8
Graypants_Bow160
370
    -3
100
AcDbVertex
100
AcDb2dVertex
 10
1845.474397201548
 20
-2056.907392923396
 30
0.0
  0
VERTEX
  5
350
330
26A
100
AcDbEntity
  8
Graypants_Bow160
370
    -3
100
AcDbVertex
100
AcDb2dVertex
 10
1848.85969663185
 20
-2056.699925851559
 30
0.0
  0
VERTEX
  5
351
330
26A
100
AcDbEntity
  8
Graypants_Bow160
370
    -3
100
AcDbVertex
100
AcDb2dVertex
 10
1852.262761332559
 20
-2056.51100036616
 30
0.0
  0
VERTEX
  5
352
330
26A
100
AcDbEntity
  8
Graypants_Bow160
370
    -3
100
AcDbVertex
100
AcDb2dVertex
 10
1855.683657204393
 20
-2056.340952348452
 30
0.0
  0
VERTEX
  5
353
330
26A
100
AcDbEntity
  8
Graypants_Bow160
370
    -3
100
AcDbVertex
100
AcDb2dVertex
 10
1859.122450148067
 20
-2056.190117679685
 30
0.0
  0
VERTEX
  5
354
330
26A
100
AcDbEntity
  8
Graypants_Bow160
370
    -3
100
AcDbVertex
100
AcDb2dVertex
 10
1862.579206064301
 20
-2056.058832241112
 30
0.0
  0
VERTEX
  5
355
330
26A
100
AcDbEntity
  8
Graypants_Bow160
370
    -3
100
AcDbVertex
100
AcDb2dVertex
 10
1866.05399085381
 20
-2055.947431913982
 30
0.0
  0
SEQEND
  5
356
330
26A
100
AcDbEntity
  8
Graypants_Bow160
370
    -3
  0
LINE
  5
357
330
1F
100
AcDbEntity
  8
Graypants_Bow160
370
    -3
100
AcDbLine
 10
-13.00000000000159
 20
-2162.450104863391
 30
0.0
 11
-13.00000000000182
 21
-2078.027483916479
 31
0.0
  0
LINE
  5
358
330
1F
100
AcDbEntity
  8
Graypants_Bow160
370
    -3
100
AcDbLine
 10
12.99999999999841
 20
-2162.450104863391
 30
0.0
 11
12.99999999999818
 21
-2078.027483916479
 31
0.0
  0
LINE
  5
359
330
1F
100
AcDbEntity
  8
Graypants_Bow160
370
    -3
100
AcDbLine
 10
1556.154367061014
 20
-2037.408773845968
 30
0.0
 11
1556.154367061014
 21
-2037.241938710467
 31
0.0
  0
LINE
  5
35A
330
1F
100
AcDbEntity
  8
Graypants_Bow160
370
    -3
100
AcDbLine
 10
1559.954367061014
 20
-2037.241938710467
 30
0.0
 11
1559.954367061014
 21
-2037.408580898287
 31
0.0
  0
LINE
  5
35B
330
1F
100
AcDbEntity
  8
Graypants_Bow160
370
    -3
100
AcDbLine
 10
859.9543670610142
 20
-2037.241938710482
 30
0.0
 11
859.9543670610142
 21
-2037.408580898302
 31
0.0
  0
LINE
  5
35C
330
1F
100
AcDbEntity
  8
Graypants_Bow160
370
    -3
100
AcDbLine
 10
856.1543670610142
 20
-2037.408773845983
 30
0.0
 11
856.1543670610142
 21
-2037.241938710482
 31
0.0
  0
LINE
  5
35D
330
1F
100
AcDbEntity
  8
Graypants_Bow160
370
    -3
100
AcDbLine
 10
857.3039908823907
 20
-2028.288179754037
 30
0.0
 11
857.3039717921754
 21
-1218.05399085379
 31
0.0
  0
LINE
  5
35E
330
1F
100
AcDbEntity
  8
Graypants_Bow160
370
    -3
100
AcDbLine
 10
858.7992770181268
 20
-1218.05399085379
 30
0.0
 11
858.8039908823907
 21
-2028.288179754037
 31
0.0
  0
LINE
  5
35F
330
1F
100
AcDbEntity
  8
Graypants_Bow160
370
    -3
100
AcDbLine
 10
1557.303990853801
 20
-2028.288179754022
 30
0.0
 11
1557.303971763585
 21
-1218.0539908538
 31
0.0
  0
LINE
  5
360
330
1F
100
AcDbEntity
  8
Graypants_Bow160
370
    -3
100
AcDbLine
 10
1558.799276989537
 20
-1218.053990853801
 30
0.0
 11
1558.803990853801
 21
-2028.288179754022
 31
0.0
  0
CIRCLE
  5
361
330
1F
100
AcDbEntity
  8
Graypants_Bow160
370
    -3
100
AcDbCircle
 10
0.0003762179769451
 20
350.0000000285908
 30
0.0
 40
2.249999999996874
  0
CIRCLE
  5
362
330
1F
100
AcDbEntity
  8
Graypants_Bow160
370
    -3
100
AcDbCircle
 10
-0.0003762179767441
 20
350.0000000285904
 30
0.0
 40
1.5
210
0.0
220
0.0
230
-1.0
  0
CIRCLE
  5
363
330
1F
100
AcDbEntity
  8
Graypants_Bow160
370
    -3
100
AcDbCircle
 10
-0.0003762179767642
 20
350.0000000285908
 30
0.0
 40
1.000000000033253
210
0.0
220
0.0
230
-1.0
  0
CIRCLE
  5
364
330
1F
100
AcDbEntity
  8
Graypants_Bow160
370
    -3
100
AcDbCircle
 10
0.0003761786210816
 20
-349.9999999714098
 30
0.0
 40
2.249999999996589
  0
CIRCLE
  5
365
330
1F
100
AcDbEntity
  8
Graypants_Bow160
370
    -3
100
AcDbCircle
 10
-0.0003761786210728
 20
-349.9999999714096
 30
0.0
 40
1.5
210
0.0
220
0.0
230
-1.0
  0
CIRCLE
  5
366
330
1F
100
AcDbEntity
  8
Graypants_Bow160
370
    -3
100
AcDbCircle
 10
-0.0003761786210816
 20
-349.99999997141
 30
0.0
 40
1.000000000033197
210
0.0
220
0.0
230
-1.0
  0
ARC
  5
367
330
1F
100
AcDbEntity
  8
Graypants_Bow160
370
    -3
100
AcDbCircle
 10
-0.0003762237618994
 20
349.9999610041561
 30
0.0
 40
2.499960975847671
210
0.0
220
0.0
230
-1.0
100
AcDbArc
 50
269.9798161407979
 51
269.999999230708
  0
ARC
  5
368
330
1F
100
AcDbEntity
  8
Graypants_Bow160
370
    -3
100
AcDbCircle
 10
-0.0003774585673197
 20
350.0000006603719
 30
0.0
 40
2.499998607878003
210
0.0
220
0.0
230
-1.0
100
AcDbArc
 50
152.9999999961026
 51
153.0520223858477
  0
ARC
  5
369
330
1F
100
AcDbEntity
  8
Graypants_Bow160
370
    -3
100
AcDbCircle
 10
-0.0003766366266173
 20
-349.9999997385221
 30
0.0
 40
2.499999486260078
210
0.0
220
0.0
230
-1.0
100
AcDbArc
 50
152.9999999931056
 51
153.0520223041139
  0
LINE
  5
36A
330
1F
100
AcDbEntity
  8
Graypants_Bow160
370
    -3
100
AcDbLine
 10
-0.7499999606461643
 20
350.0000000000005
 30
0.0
 11
-0.745196403503769
 21
349.9995796525141
 31
0.0
  0
LINE
  5
36B
330
1F
100
AcDbEntity
  8
Graypants_Bow160
370
    -3
100
AcDbLine
 10
0.0003761786210816
 20
-349.2499999714096
 30
0.0
 11
0.0003761786210816
 21
-349.2548760022569
 31
0.0
  0
ARC
  5
36C
330
1F
100
AcDbEntity
  8
Graypants_Bow160
370
    -3
100
AcDbCircle
 10
-0.0003743841158744
 20
350.0000000141349
 30
0.0
 40
2.499999985827079
210
0.0
220
0.0
230
-1.0
100
AcDbArc
 50
269.9999570691385
 51
269.9913347882841
  0
ARC
  5
36D
330
1F
100
AcDbEntity
  8
Graypants_Bow160
370
    -3
100
AcDbCircle
 10
-0.0003743402992771
 20
-349.9999999858675
 30
0.0
 40
2.499999985825661
210
0.0
220
0.0
230
-1.0
100
AcDbArc
 50
269.9999569669013
 51
269.9913346860469
  0
ARC
  5
36E
330
1F
100
AcDbEntity
  8
Graypants_Bow160
370
    -3
100
AcDbCircle
 10
0.0000000393538642
 20
350.0000000000004
 30
0.0
 40
0.7499999999999432
100
AcDbArc
 50
269.9999999999978
 51
0.0000000000043425
  0
ARC
  5
36F
330
1F
100
AcDbEntity
  8
Graypants_Bow160
370
    -3
100
AcDbCircle
 10
0.0000000393538357
 20
350.0000000000005
 30
0.0
 40
0.75
100
AcDbArc
 50
0.0
 51
90.0
  0
ARC
  5
370
330
1F
100
AcDbEntity
  8
Graypants_Bow160
370
    -3
100
AcDbCircle
 10
0.0000000393540743
 20
350.0000000000003
 30
0.0
 40
0.7500000000001705
100
AcDbArc
 50
90.00000000001822
 51
179.999999999987
  0
ARC
  5
371
330
1F
100
AcDbEntity
  8
Graypants_Bow160
370
    -3
100
AcDbCircle
 10
0.0000000393534378
 20
350.0000000000001
 30
0.0
 40
0.7499999999996021
100
AcDbArc
 50
179.9999999999739
 51
270.0000000000304
  0
ARC
  5
372
330
1F
100
AcDbEntity
  8
Graypants_Bow160
370
    -3
100
AcDbCircle
 10
0.0120561775818743
 20
349.983223619118
 30
0.0
 40
0.7333227298405062
100
AcDbArc
 50
269.0579905259399
 51
1.278031296882903
  0
ARC
  5
373
330
1F
100
AcDbEntity
  8
Graypants_Bow160
370
    -3
100
AcDbCircle
 10
0.0209276105666803
 20
350.0208452514653
 30
0.0
 40
0.7245809990141683
100
AcDbArc
 50
358.3181948538521
 51
91.65506448175505
  0
ARC
  5
374
330
1F
100
AcDbEntity
  8
Graypants_Bow160
370
    -3
100
AcDbCircle
 10
-0.0209275318595953
 20
350.020845251466
 30
0.0
 40
0.7245809990135008
100
AcDbArc
 50
88.34493551819705
 51
181.6818051461315
  0
ARC
  5
375
330
1F
100
AcDbEntity
  8
Graypants_Bow160
370
    -3
100
AcDbCircle
 10
-0.0120560988734123
 20
349.9832236191188
 30
0.0
 40
0.7333227298413155
100
AcDbArc
 50
178.7219687031141
 51
270.9420094739972
  0
ARC
  5
376
330
1F
100
AcDbEntity
  8
Graypants_Bow160
370
    -3
100
AcDbCircle
 10
0.0003761786209964
 20
-349.9999999714095
 30
0.0
 40
0.7500000000000568
100
AcDbArc
 50
270.0000000000065
 51
359.9999999999957
  0
ARC
  5
377
330
1F
100
AcDbEntity
  8
Graypants_Bow160
370
    -3
100
AcDbCircle
 10
0.0003761786211385
 20
-349.9999999714095
 30
0.0
 40
0.7499999999999432
100
AcDbArc
 50
359.9999999999957
 51
90.00000000000433
  0
ARC
  5
378
330
1F
100
AcDbEntity
  8
Graypants_Bow160
370
    -3
100
AcDbCircle
 10
0.0003761786212819
 20
-349.9999999714097
 30
0.0
 40
0.7500000000001705
100
AcDbArc
 50
90.0000000000153
 51
179.999999999987
  0
ARC
  5
379
330
1F
100
AcDbEntity
  8
Graypants_Bow160
370
    -3
100
AcDbCircle
 10
0.0003761786210962
 20
-349.9999999714096
 30
0.0
 40
0.7500000000000145
100
AcDbArc
 50
180.0
 51
269.9999999999989
  0
ARC
  5
37A
330
1F
100
AcDbEntity
  8
Graypants_Bow160
370
    -3
100
AcDbCircle
 10
0.0124323168483331
 20
-350.0167763522913
 30
0.0
 40
0.7333227298412889
100
AcDbArc
 50
269.0579905260024
 51
1.278031296854885
  0
ARC
  5
37B
330
1F
100
AcDbEntity
  8
Graypants_Bow160
370
    -3
100
AcDbCircle
 10
0.0213037498344111
 20
-349.9791547199442
 30
0.0
 40
0.7245809990136851
100
AcDbArc
 50
358.3181948538465
 51
91.65506448179444
  0
ARC
  5
37C
330
1F
100
AcDbEntity
  8
Graypants_Bow160
370
    -3
100
AcDbCircle
 10
-0.0205513925916863
 20
-349.9791547199447
 30
0.0
 40
0.7245809990142204
100
AcDbArc
 50
88.34493551825116
 51
181.6818051461433
  0
ARC
  5
37D
330
1F
100
AcDbEntity
  8
Graypants_Bow160
370
    -3
100
AcDbCircle
 10
-0.0116799596068839
 20
-350.016776352292
 30
0.0
 40
0.7333227298405944
100
AcDbArc
 50
178.7219687031261
 51
270.9420094740543
  0
LINE
  5
37E
330
1F
100
AcDbEntity
  8
Graypants_Bow160
370
    -3
100
AcDbLine
 10
-8.000000000002274
 20
-797.9999999999995
 30
0.0
 11
-8.000000000002046
 21
-0.0001789845996427
 31
0.0
  0
LINE
  5
37F
330
1F
100
AcDbEntity
  8
Graypants_Bow160
370
    -3
100
AcDbLine
 10
7.999999999997954
 20
0.0002424648910164
 30
0.0
 11
7.999999999997726
 21
-797.9999999999995
 31
0.0
  0
LINE
  5
380
330
1F
100
AcDbEntity
  8
Graypants_Bow160
370
    -3
100
AcDbLine
 10
7.999999999997726
 20
798.0000000000009
 30
0.0
 11
7.999999999997499
 21
-0.0002540894984122
 31
0.0
  0
LINE
  5
381
330
1F
100
AcDbEntity
  8
Graypants_Bow160
370
    -3
100
AcDbLine
 10
-8.000000000002501
 20
-0.000254089498867
 30
0.0
 11
-8.000000000002274
 21
798.0000000000005
 31
0.0
  0
LINE
  5
382
330
1F
100
AcDbEntity
  8
Graypants_Bow160
100
AcDbLine
 10
-8.000000000002046
 20
798.0000000000005
 30
0.0
 11
7.999999999997954
 21
798.0000000000005
 31
0.0
  0
LINE
  5
383
330
1F
100
AcDbEntity
  8
Graypants_Bow160
100
AcDbLine
 10
-8.000000000002274
 20
-797.9999999999995
 30
0.0
 11
7.999999999997726
 21
-797.9999999999995
 31
0.0
  0
LINE
  5
384
330
1F
100
AcDbEntity
  8
Graypants_Bow160
370
    -3
100
AcDbLine
 10
12.99999999999864
 20
658.0000000000086
 30
0.0
 11
12.99999999999841
 21
0.0000000000004547
 31
0.0
  0
LINE
  5
385
330
1F
100
AcDbEntity
  8
Graypants_Bow160
370
    -3
100
AcDbLine
 10
-13.00000000000159
 20
-0.0002540894984122
 30
0.0
 11
-13.00000000000136
 21
658.0000000000084
 31
0.0
  0
LINE
  5
386
330
1F
100
AcDbEntity
  8
Graypants_Bow160
370
    -3
100
AcDbLine
 10
12.99999999999841
 20
0.0000000000004547
 30
0.0
 11
12.99999999999818
 21
-658.0000000000083
 31
0.0
  0
LINE
  5
387
330
1F
100
AcDbEntity
  8
Graypants_Bow160
370
    -3
100
AcDbLine
 10
-13.00000000000182
 20
-658.0000000000082
 30
0.0
 11
-13.00000000000159
 21
-0.0001789845996427
 31
0.0
  0
ENDSEC
  0
SECTION
  2
OBJECTS
  0
DICTIONARY
  5
C
330
0
100
AcDbDictionary
281
     1
  3
ACAD_DETAILVIEWSTYLE
350
3C3
  3
ACAD_GROUP
350
D
  3
ACAD_LAYOUT
350
1A
  3
ACAD_MATERIAL
350
43
  3
ACAD_MLEADERSTYLE
350
6B
  3
ACAD_MLINESTYLE
350
17
  3
ACAD_PLOTSETTINGS
350
19
  3
ACAD_PLOTSTYLENAME
350
E
  3
ACAD_SCALELIST
350
47
  3
ACAD_SECTIONVIEWSTYLE
350
3C4
  3
ACAD_TABLESTYLE
350
69
  3
ACAD_VISUALSTYLE
350
2A
  3
AcDbVariableDictionary
350
388
  3
ACDB_RECOMPOSE_DATA
350
3C0
  0
SUN
  5
6D
330
29
100
AcDbSun
 90
        1
290
     0
 63
     7
421
 16777215
 40
1.0
291
     1
 91
  2455826
 92
 54000000
292
     0
 70
     2
 71
   256
280
     1
  0
DICTIONARY
  5
3C3
102
{ACAD_REACTORS
330
C
102
}
330
C
100
AcDbDictionary
281
     1
  0
DICTIONARY
  5
D
102
{ACAD_REACTORS
330
C
102
}
330
C
100
AcDbDictionary
281
     1
  0
DICTIONARY
  5
1A
102
{ACAD_REACTORS
330
C
102
}
330
C
100
AcDbDictionary
281
     1
  3
Layout1
350
1E
  3
Layout2
350
26
  3
Model
350
22
  0
DICTIONARY
  5
43
102
{ACAD_REACTORS
330
C
102
}
330
C
100
AcDbDictionary
281
     1
  3
ByBlock
350
45
  3
ByLayer
350
44
  3
Global
350
46
  0
DICTIONARY
  5
6B
102
{ACAD_REACTORS
330
C
102
}
330
C
100
AcDbDictionary
281
     1
  3
Standard
350
6C
  0
DICTIONARY
  5
17
102
{ACAD_REACTORS
330
C
102
}
330
C
100
AcDbDictionary
281
     1
  3
Standard
350
18
  0
DICTIONARY
  5
19
102
{ACAD_REACTORS
330
C
102
}
330
C
100
AcDbDictionary
281
     1
  0
ACDBDICTIONARYWDFLT
  5
E
102
{ACAD_REACTORS
330
C
102
}
330
C
100
AcDbDictionary
281
     1
  3
Normal
350
F
100
AcDbDictionaryWithDefault
340
F
  0
DICTIONARY
  5
47
102
{ACAD_REACTORS
330
C
102
}
330
C
100
AcDbDictionary
281
     1
  3
A0
350
48
  3
A1
350
49
  3
A2
350
4A
  3
A3
350
4B
  3
A4
350
4C
  3
A5
350
4D
  3
A6
350
4E
  3
A7
350
4F
  3
A8
350
50
  3
A9
350
51
  3
B0
350
52
  3
B1
350
53
  3
B2
350
54
  3
B3
350
55
  3
B4
350
56
  3
B5
350
57
  3
B6
350
58
  3
B7
350
59
  3
B8
350
5A
  3
B9
350
5B
  3
C0
350
5C
  3
C1
350
5D
  3
C2
350
5E
  3
C3
350
5F
  3
C4
350
60
  3
C5
350
61
  3
C6
350
62
  3
C7
350
63
  3
C8
350
64
  3
C9
350
65
  3
D0
350
66
  3
D1
350
67
  3
D2
350
68
  0
DICTIONARY
  5
3C4
102
{ACAD_REACTORS
330
C
102
}
330
C
100
AcDbDictionary
281
     1
  0
DICTIONARY
  5
69
102
{ACAD_REACTORS
330
C
102
}
330
C
100
AcDbDictionary
281
     1
  3
Standard
350
6A
  0
DICTIONARY
  5
2A
102
{ACAD_REACTORS
330
C
102
}
330
C
100
AcDbDictionary
281
     1
  3
2dWireframe
350
2F
  3
Basic
350
32
  3
Brighten
350
36
  3
ColorChange
350
3A
  3
Conceptual
350
34
  3
Dim
350
35
  3
EdgeColorOff
350
3D
  3
Facepattern
350
39
  3
Flat
350
2B
  3
FlatWithEdges
350
2C
  3
Gouraud
350
2D
  3
GouraudWithEdges
350
2E
  3
Hidden
350
31
  3
JitterOff
350
3B
  3
Linepattern
350
38
  3
OverhangOff
350
3C
  3
Realistic
350
33
  3
Shaded
350
42
  3
Shaded with edges
350
41
  3
Shades of Gray
350
3E
  3
Sketchy
350
3F
  3
Thicken
350
37
  3
Wireframe
350
30
  3
X-Ray
350
40
  0
DICTIONARY
  5
388
102
{ACAD_REACTORS
330
C
102
}
330
C
100
AcDbDictionary
281
     1
  3
CANNOSCALE
350
389
  3
CMLEADERSTYLE
350
3C2
  3
CTABLESTYLE
350
3C1
  3
XCLIPFRAME
350
38A
  0
XRECORD
  5
3C0
102
{ACAD_REACTORS
330
C
102
}
330
C
100
AcDbXrecord
280
     1
 90
        1
330
6A
  0
LAYOUT
  5
1E
102
{ACAD_REACTORS
330
1A
102
}
330
1A
100
AcDbPlotSettings
  1

  2
none_device
  4

  6

 40
0.0
 41
0.0
 42
0.0
 43
0.0
 44
0.0
 45
0.0
 46
0.0
 47
0.0
 48
0.0
 49
0.0
140
0.0
141
0.0
142
1.0
143
1.0
 70
   688
 72
     0
 73
     0
 74
     5
  7

 75
    16
 76
     0
 77
     2
 78
   300
147
1.0
148
0.0
149
0.0
100
AcDbLayout
  1
Layout1
 70
     1
 71
     1
 10
0.0
 20
0.0
 11
12.0
 21
9.0
 12
0.0
 22
0.0
 32
0.0
 14
1.000000000000000E+20
 24
1.000000000000000E+20
 34
1.000000000000000E+20
 15
-1.000000000000000E+20
 25
-1.000000000000000E+20
 35
-1.000000000000000E+20
146
0.0
 13
0.0
 23
0.0
 33
0.0
 16
1.0
 26
0.0
 36
0.0
 17
0.0
 27
1.0
 37
0.0
 76
     0
330
1B
  0
LAYOUT
  5
26
102
{ACAD_REACTORS
330
1A
102
}
330
1A
100
AcDbPlotSettings
  1

  2
none_device
  4

  6

 40
0.0
 41
0.0
 42
0.0
 43
0.0
 44
0.0
 45
0.0
 46
0.0
 47
0.0
 48
0.0
 49
0.0
140
0.0
141
0.0
142
1.0
143
1.0
 70
   688
 72
     0
 73
     0
 74
     5
  7

 75
    16
 76
     0
 77
     2
 78
   300
147
1.0
148
0.0
149
0.0
100
AcDbLayout
  1
Layout2
 70
     1
 71
     2
 10
0.0
 20
0.0
 11
0.0
 21
0.0
 12
0.0
 22
0.0
 32
0.0
 14
0.0
 24
0.0
 34
0.0
 15
0.0
 25
0.0
 35
0.0
146
0.0
 13
0.0
 23
0.0
 33
0.0
 16
1.0
 26
0.0
 36
0.0
 17
0.0
 27
1.0
 37
0.0
 76
     0
330
23
  0
LAYOUT
  5
22
102
{ACAD_REACTORS
330
1A
102
}
330
1A
100
AcDbPlotSettings
  1

  2
none_device
  4
Letter_(8.50_x_11.00_Inches)
  6

 40
6.35
 41
6.35
 42
6.35000508
 43
6.35000508
 44
215.9
 45
279.4
 46
0.0
 47
0.0
 48
0.0
 49
0.0
140
0.0
141
0.0
142
1.0
143
1.0
 70
  1712
 72
     0
 73
     0
 74
     0
  7

 75
     0
 76
     0
 77
     2
 78
   300
147
1.0
148
0.0
149
0.0
100
AcDbLayout
  1
Model
 70
     1
 71
     0
 10
0.0
 20
0.0
 11
12.0
 21
9.0
 12
0.0
 22
0.0
 32
0.0
 14
1.000000000000000E+20
 24
1.000000000000000E+20
 34
1.000000000000000E+20
 15
-1.000000000000000E+20
 25
-1.000000000000000E+20
 35
-1.000000000000000E+20
146
0.0
 13
0.0
 23
0.0
 33
0.0
 16
1.0
 26
0.0
 36
0.0
 17
0.0
 27
1.0
 37
0.0
 76
     0
330
1F
331
29
  0
MATERIAL
  5
45
102
{ACAD_REACTORS
330
43
102
}
330
43
100
AcDbMaterial
  1
ByBlock
 72
     1
 94
      127
  0
MATERIAL
  5
44
102
{ACAD_REACTORS
330
43
102
}
330
43
100
AcDbMaterial
  1
ByLayer
 72
     1
 94
      127
  0
MATERIAL
  5
46
102
{ACAD_REACTORS
330
43
102
}
330
43
100
AcDbMaterial
  1
Global
 72
     1
 94
      127
  0
MLEADERSTYLE
  5
6C
102
{ACAD_REACTORS
330
6B
102
}
102
{ACAD_XDICTIONARY
360
3BE
102
}
330
6B
100
AcDbMLeaderStyle
170
     2
171
     1
172
     0
 90
        2
 40
0.0
 41
0.0
173
     1
 91
-1056964608
340
14
 92
       -2
290
     1
 42
0.09
291
     1
 43
0.36
  3
Standard
341
0
 44
0.18
300

342
11
174
     1
178
     6
175
     1
176
     0
 93
-1056964608
 45
0.18
292
     0
297
     0
 46
0.18
343
0
 94
-1056964608
 47
1.0
 49
1.0
140
1.0
293
     1
141
0.0
294
     1
177
     0
142
1.0
295
     0
296
     0
143
0.125
1001
ACAD_MLEADERVER
1070
     2
  0
MLINESTYLE
  5
18
102
{ACAD_REACTORS
330
17
102
}
330
17
100
AcDbMlineStyle
  2
Standard
 70
     0
  3

 62
   256
 51
90.0
 52
90.0
 71
     2
 49
0.5
 62
   256
  6
BYLAYER
 49
-0.5
 62
   256
  6
BYLAYER
  0
ACDBPLACEHOLDER
  5
F
102
{ACAD_REACTORS
330
E
102
}
330
E
  0
SCALE
  5
48
102
{ACAD_REACTORS
330
47
102
}
330
47
100
AcDbScale
 70
     0
300
1:1
140
1.0
141
1.0
290
     1
  0
SCALE
  5
49
102
{ACAD_REACTORS
330
47
102
}
330
47
100
AcDbScale
 70
     0
300
1:2
140
1.0
141
2.0
290
     0
  0
SCALE
  5
4A
102
{ACAD_REACTORS
330
47
102
}
330
47
100
AcDbScale
 70
     0
300
1:4
140
1.0
141
4.0
290
     0
  0
SCALE
  5
4B
102
{ACAD_REACTORS
330
47
102
}
330
47
100
AcDbScale
 70
     0
300
1:5
140
1.0
141
5.0
290
     0
  0
SCALE
  5
4C
102
{ACAD_REACTORS
330
47
102
}
330
47
100
AcDbScale
 70
     0
300
1:8
140
1.0
141
8.0
290
     0
  0
SCALE
  5
4D
102
{ACAD_REACTORS
330
47
102
}
330
47
100
AcDbScale
 70
     0
300
1:10
140
1.0
141
10.0
290
     0
  0
SCALE
  5
4E
102
{ACAD_REACTORS
330
47
102
}
330
47
100
AcDbScale
 70
     0
300
1:16
140
1.0
141
16.0
290
     0
  0
SCALE
  5
4F
102
{ACAD_REACTORS
330
47
102
}
330
47
100
AcDbScale
 70
     0
300
1:20
140
1.0
141
20.0
290
     0
  0
SCALE
  5
50
102
{ACAD_REACTORS
330
47
102
}
330
47
100
AcDbScale
 70
     0
300
1:30
140
1.0
141
30.0
290
     0
  0
SCALE
  5
51
102
{ACAD_REACTORS
330
47
102
}
330
47
100
AcDbScale
 70
     0
300
1:40
140
1.0
141
40.0
290
     0
  0
SCALE
  5
52
102
{ACAD_REACTORS
330
47
102
}
330
47
100
AcDbScale
 70
     0
300
1:50
140
1.0
141
50.0
290
     0
  0
SCALE
  5
53
102
{ACAD_REACTORS
330
47
102
}
330
47
100
AcDbScale
 70
     0
300
1:100
140
1.0
141
100.0
290
     0
  0
SCALE
  5
54
102
{ACAD_REACTORS
330
47
102
}
330
47
100
AcDbScale
 70
     0
300
2:1
140
2.0
141
1.0
290
     0
  0
SCALE
  5
55
102
{ACAD_REACTORS
330
47
102
}
330
47
100
AcDbScale
 70
     0
300
4:1
140
4.0
141
1.0
290
     0
  0
SCALE
  5
56
102
{ACAD_REACTORS
330
47
102
}
330
47
100
AcDbScale
 70
     0
300
8:1
140
8.0
141
1.0
290
     0
  0
SCALE
  5
57
102
{ACAD_REACTORS
330
47
102
}
330
47
100
AcDbScale
 70
     0
300
10:1
140
10.0
141
1.0
290
     0
  0
SCALE
  5
58
102
{ACAD_REACTORS
330
47
102
}
330
47
100
AcDbScale
 70
     0
300
100:1
140
100.0
141
1.0
290
     0
  0
SCALE
  5
59
102
{ACAD_REACTORS
330
47
102
}
330
47
100
AcDbScale
 70
     0
300
1/128" = 1'-0"
140
0.0078125
141
12.0
290
     0
  0
SCALE
  5
5A
102
{ACAD_REACTORS
330
47
102
}
330
47
100
AcDbScale
 70
     0
300
1/64" = 1'-0"
140
0.015625
141
12.0
290
     0
  0
SCALE
  5
5B
102
{ACAD_REACTORS
330
47
102
}
330
47
100
AcDbScale
 70
     0
300
1/32" = 1'-0"
140
0.03125
141
12.0
290
     0
  0
SCALE
  5
5C
102
{ACAD_REACTORS
330
47
102
}
330
47
100
AcDbScale
 70
     0
300
1/16" = 1'-0"
140
0.0625
141
12.0
290
     0
  0
SCALE
  5
5D
102
{ACAD_REACTORS
330
47
102
}
330
47
100
AcDbScale
 70
     0
300
3/32" = 1'-0"
140
0.09375
141
12.0
290
     0
  0
SCALE
  5
5E
102
{ACAD_REACTORS
330
47
102
}
330
47
100
AcDbScale
 70
     0
300
1/8" = 1'-0"
140
0.125
141
12.0
290
     0
  0
SCALE
  5
5F
102
{ACAD_REACTORS
330
47
102
}
330
47
100
AcDbScale
 70
     0
300
3/16" = 1'-0"
140
0.1875
141
12.0
290
     0
  0
SCALE
  5
60
102
{ACAD_REACTORS
330
47
102
}
330
47
100
AcDbScale
 70
     0
300
1/4" = 1'-0"
140
0.25
141
12.0
290
     0
  0
SCALE
  5
61
102
{ACAD_REACTORS
330
47
102
}
330
47
100
AcDbScale
 70
     0
300
3/8" = 1'-0"
140
0.375
141
12.0
290
     0
  0
SCALE
  5
62
102
{ACAD_REACTORS
330
47
102
}
330
47
100
AcDbScale
 70
     0
300
1/2" = 1'-0"
140
0.5
141
12.0
290
     0
  0
SCALE
  5
63
102
{ACAD_REACTORS
330
47
102
}
330
47
100
AcDbScale
 70
     0
300
3/4" = 1'-0"
140
0.75
141
12.0
290
     0
  0
SCALE
  5
64
102
{ACAD_REACTORS
330
47
102
}
330
47
100
AcDbScale
 70
     0
300
1" = 1'-0"
140
1.0
141
12.0
290
     0
  0
SCALE
  5
65
102
{ACAD_REACTORS
330
47
102
}
330
47
100
AcDbScale
 70
     0
300
1-1/2" = 1'-0"
140
1.5
141
12.0
290
     0
  0
SCALE
  5
66
102
{ACAD_REACTORS
330
47
102
}
330
47
100
AcDbScale
 70
     0
300
3" = 1'-0"
140
3.0
141
12.0
290
     0
  0
SCALE
  5
67
102
{ACAD_REACTORS
330
47
102
}
330
47
100
AcDbScale
 70
     0
300
6" = 1'-0"
140
6.0
141
12.0
290
     0
  0
SCALE
  5
68
102
{ACAD_REACTORS
330
47
102
}
330
47
100
AcDbScale
 70
     0
300
1'-0" = 1'-0"
140
12.0
141
12.0
290
     0
  0
TABLESTYLE
  5
6A
102
{ACAD_REACTORS
330
69
102
}
102
{ACAD_XDICTIONARY
360
3BB
102
}
330
69
100
AcDbTableStyle
  3
Standard
 70
     0
 71
     0
 40
0.06
 41
0.06
280
     0
281
     0
  7
Standard
140
0.18
170
     2
 62
     0
 63
   257
283
     0
 90
        4
 91
        0
  1

274
    -2
284
     1
 64
     0
275
    -2
285
     1
 65
     0
276
    -2
286
     1
 66
     0
277
    -2
287
     1
 67
     0
278
    -2
288
     1
 68
     0
279
    -2
289
     1
 69
     0
  7
Standard
140
0.25
170
     5
 62
     0
 63
   257
283
     0
 90
        4
 91
        0
  1

274
    -2
284
     1
 64
     0
275
    -2
285
     1
 65
     0
276
    -2
286
     1
 66
     0
277
    -2
287
     1
 67
     0
278
    -2
288
     1
 68
     0
279
    -2
289
     1
 69
     0
  7
Standard
140
0.18
170
     5
 62
     0
 63
   257
283
     0
 90
        4
 91
        0
  1

274
    -2
284
     1
 64
     0
275
    -2
285
     1
 65
     0
276
    -2
286
     1
 66
     0
277
    -2
287
     1
 67
     0
278
    -2
288
     1
 68
     0
279
    -2
289
     1
 69
     0
  0
VISUALSTYLE
  5
2F
102
{ACAD_REACTORS
330
2A
102
}
102
{ACAD_XDICTIONARY
360
393
102
}
330
2A
100
AcDbVisualStyle
  2
2dWireframe
 70
     4
 71
     0
 72
     2
 73
     0
 90
        0
 40
0.6
 41
30.0
 62
     5
 63
     7
421
 16777215
 74
     1
 91
        4
 64
     7
 65
   257
 75
     1
175
     1
 42
1.0
 92
        0
 66
   257
 43
1.0
 76
     1
 77
     6
 78
     2
 67
     7
 79
     5
170
     0
171
     0
290
     0
174
     0
 93
        1
 44
0.0
173
     0
291
     0
 45
0.0
  0
VISUALSTYLE
  5
32
102
{ACAD_REACTORS
330
2A
102
}
102
{ACAD_XDICTIONARY
360
399
102
}
330
2A
100
AcDbVisualStyle
  2
Basic
 70
     7
 71
     1
 72
     0
 73
     1
 90
        0
 40
0.6
 41
30.0
 62
     5
 63
     7
421
 16777215
 74
     0
 91
        4
 64
     7
 65
   257
 75
     1
175
     1
 42
1.0
 92
        8
 66
     7
 43
1.0
 76
     1
 77
     6
 78
     2
 67
     7
 79
     5
170
     0
171
     0
290
     0
174
     0
 93
        1
 44
0.0
173
     0
291
     1
 45
0.0
  0
VISUALSTYLE
  5
36
102
{ACAD_REACTORS
330
2A
102
}
102
{ACAD_XDICTIONARY
360
3A1
102
}
330
2A
100
AcDbVisualStyle
  2
Brighten
 70
    12
 71
     2
 72
     2
 73
     0
 90
        0
 40
0.6
 41
30.0
 62
     5
 63
     7
421
 16777215
 74
     1
 91
        4
 64
     7
 65
   257
 75
     1
175
     1
 42
1.0
 92
        8
 66
     7
 43
1.0
 76
     1
 77
     6
 78
     2
 67
     7
 79
     5
170
     0
171
     0
290
     0
174
     0
 93
        1
 44
50.0
173
     0
291
     1
 45
0.0
  0
VISUALSTYLE
  5
3A
102
{ACAD_REACTORS
330
2A
102
}
102
{ACAD_XDICTIONARY
360
3A9
102
}
330
2A
100
AcDbVisualStyle
  2
ColorChange
 70
    16
 71
     2
 72
     2
 73
     3
 90
        0
 40
0.6
 41
30.0
 62
     5
 63
     8
421
  8421504
 74
     1
 91
        4
 64
     7
 65
   257
 75
     1
175
     1
 42
1.0
 92
        8
 66
     8
424
  8421504
 43
1.0
 76
     1
 77
     6
 78
     2
 67
     7
 79
     5
170
     0
171
     0
290
     0
174
     0
 93
        1
 44
0.0
173
     0
291
     1
 45
0.0
  0
VISUALSTYLE
  5
34
102
{ACAD_REACTORS
330
2A
102
}
102
{ACAD_XDICTIONARY
360
39D
102
}
330
2A
100
AcDbVisualStyle
  2
Conceptual
 70
     9
 71
     3
 72
     2
 73
     0
 90
        0
 40
0.6
 41
30.0
 62
     5
 63
     7
421
 16777215
 74
     2
 91
        2
 64
     7
 65
   257
 75
     1
175
     1
 42
179.0
 92
        8
 66
     7
 43
1.0
 76
     1
 77
     6
 78
     2
 67
     7
 79
     3
170
     0
171
     0
290
     0
174
     0
 93
        1
 44
0.0
173
     0
291
     0
 45
0.0
  0
VISUALSTYLE
  5
35
102
{ACAD_REACTORS
330
2A
102
}
102
{ACAD_XDICTIONARY
360
39F
102
}
330
2A
100
AcDbVisualStyle
  2
Dim
 70
    11
 71
     2
 72
     2
 73
     0
 90
        0
 40
0.6
 41
30.0
 62
     5
 63
     7
421
 16777215
 74
     1
 91
        4
 64
     7
 65
   257
 75
     1
175
     1
 42
1.0
 92
        8
 66
     7
 43
1.0
 76
     1
 77
     6
 78
     2
 67
     7
 79
     5
170
     0
171
     0
290
     0
174
     0
 93
        1
 44
-50.0
173
     0
291
     1
 45
0.0
  0
VISUALSTYLE
  5
3D
102
{ACAD_REACTORS
330
2A
102
}
102
{ACAD_XDICTIONARY
360
3AF
102
}
330
2A
100
AcDbVisualStyle
  2
EdgeColorOff
 70
    22
 71
     2
 72
     2
 73
     0
 90
        0
 40
0.6
 41
30.0
 62
     5
 63
     7
421
 16777215
 74
     1
 91
        4
 64
     7
 65
   257
 75
     1
175
     1
 42
1.0
 92
        8
 66
     7
 43
1.0
 76
     1
 77
     6
 78
     2
 67
     7
 79
     5
170
     0
171
     0
290
     0
174
     0
 93
        1
 44
0.0
173
     0
291
     1
 45
0.0
  0
VISUALSTYLE
  5
39
102
{ACAD_REACTORS
330
2A
102
}
102
{ACAD_XDICTIONARY
360
3A7
102
}
330
2A
100
AcDbVisualStyle
  2
Facepattern
 70
    15
 71
     2
 72
     2
 73
     0
 90
        0
 40
0.6
 41
30.0
 62
     5
 63
     7
421
 16777215
 74
     1
 91
        4
 64
     7
 65
   257
 75
     1
175
     1
 42
1.0
 92
        8
 66
     7
 43
1.0
 76
     1
 77
     6
 78
     2
 67
     7
 79
     5
170
     0
171
     0
290
     0
174
     0
 93
        1
 44
0.0
173
     0
291
     1
 45
0.0
  0
VISUALSTYLE
  5
2B
102
{ACAD_REACTORS
330
2A
102
}
102
{ACAD_XDICTIONARY
360
38B
102
}
330
2A
100
AcDbVisualStyle
  2
Flat
 70
     0
 71
     2
 72
     1
 73
     1
 90
        2
 40
0.6
 41
30.0
 62
     5
 63
     7
421
 16777215
 74
     0
 91
        0
 64
     7
 65
   257
 75
     1
175
     1
 42
1.0
 92
        8
 66
     7
 43
1.0
 76
     1
 77
     6
 78
     2
 67
     7
 79
     5
170
     0
171
     0
290
     0
174
     0
 93
       13
 44
0.0
173
     0
291
     1
 45
0.0
  0
VISUALSTYLE
  5
2C
102
{ACAD_REACTORS
330
2A
102
}
102
{ACAD_XDICTIONARY
360
38D
102
}
330
2A
100
AcDbVisualStyle
  2
FlatWithEdges
 70
     1
 71
     2
 72
     1
 73
     1
 90
        2
 40
0.6
 41
30.0
 62
     5
 63
     7
421
 16777215
 74
     1
 91
        0
 64
     7
 65
   257
 75
     1
175
     1
 42
1.0
 92
        0
 66
   257
 43
1.0
 76
     1
 77
     6
 78
     2
 67
     7
 79
     5
170
     0
171
     0
290
     0
174
     0
 93
       13
 44
0.0
173
     0
291
     1
 45
0.0
  0
VISUALSTYLE
  5
2D
102
{ACAD_REACTORS
330
2A
102
}
102
{ACAD_XDICTIONARY
360
38F
102
}
330
2A
100
AcDbVisualStyle
  2
Gouraud
 70
     2
 71
     2
 72
     2
 73
     1
 90
        2
 40
0.6
 41
30.0
 62
     5
 63
     7
421
 16777215
 74
     0
 91
        0
 64
     7
 65
   257
 75
     1
175
     1
 42
1.0
 92
        0
 66
     7
 43
1.0
 76
     1
 77
     6
 78
     2
 67
     7
 79
     5
170
     0
171
     0
290
     0
174
     0
 93
       13
 44
0.0
173
     0
291
     1
 45
0.0
  0
VISUALSTYLE
  5
2E
102
{ACAD_REACTORS
330
2A
102
}
102
{ACAD_XDICTIONARY
360
391
102
}
330
2A
100
AcDbVisualStyle
  2
GouraudWithEdges
 70
     3
 71
     2
 72
     2
 73
     1
 90
        2
 40
0.6
 41
30.0
 62
     5
 63
     7
421
 16777215
 74
     1
 91
        0
 64
     7
 65
   257
 75
     1
175
     1
 42
1.0
 92
        0
 66
   257
 43
1.0
 76
     1
 77
     6
 78
     2
 67
     7
 79
     5
170
     0
171
     0
290
     0
174
     0
 93
       13
 44
0.0
173
     0
291
     1
 45
0.0
  0
VISUALSTYLE
  5
31
102
{ACAD_REACTORS
330
2A
102
}
102
{ACAD_XDICTIONARY
360
397
102
}
330
2A
100
AcDbVisualStyle
  2
Hidden
 70
     6
 71
     1
 72
     2
 73
     2
 90
        0
 40
0.6
 41
30.0
 62
     5
 63
     7
421
 16777215
 74
     2
 91
        2
 64
     7
 65
   257
 75
     2
175
     1
 42
40.0
 92
        0
 66
   257
 43
1.0
 76
     1
 77
     6
 78
     2
 67
     7
 79
     3
170
     0
171
     0
290
     0
174
     0
 93
        1
 44
0.0
173
     0
291
     0
 45
0.0
  0
VISUALSTYLE
  5
3B
102
{ACAD_REACTORS
330
2A
102
}
102
{ACAD_XDICTIONARY
360
3AB
102
}
330
2A
100
AcDbVisualStyle
  2
JitterOff
 70
    20
 71
     2
 72
     2
 73
     0
 90
        0
 40
0.6
 41
30.0
 62
     5
 63
     7
421
 16777215
 74
     1
 91
        4
 64
     7
 65
   257
 75
     1
175
     1
 42
1.0
 92
       10
 66
     7
 43
1.0
 76
     1
 77
     6
 78
     2
 67
     7
 79
     5
170
     0
171
     0
290
     0
174
     0
 93
        1
 44
0.0
173
     0
291
     1
 45
0.0
  0
VISUALSTYLE
  5
38
102
{ACAD_REACTORS
330
2A
102
}
102
{ACAD_XDICTIONARY
360
3A5
102
}
330
2A
100
AcDbVisualStyle
  2
Linepattern
 70
    14
 71
     2
 72
     2
 73
     0
 90
        0
 40
0.6
 41
30.0
 62
     5
 63
     7
421
 16777215
 74
     1
 91
        4
 64
     7
 65
   257
 75
     7
175
     7
 42
1.0
 92
        8
 66
     7
 43
1.0
 76
     1
 77
     6
 78
     2
 67
     7
 79
     5
170
     0
171
     0
290
     0
174
     0
 93
        1
 44
0.0
173
     0
291
     1
 45
0.0
  0
VISUALSTYLE
  5
3C
102
{ACAD_REACTORS
330
2A
102
}
102
{ACAD_XDICTIONARY
360
3AD
102
}
330
2A
100
AcDbVisualStyle
  2
OverhangOff
 70
    21
 71
     2
 72
     2
 73
     0
 90
        0
 40
0.6
 41
30.0
 62
     5
 63
     7
421
 16777215
 74
     1
 91
        4
 64
     7
 65
   257
 75
     1
175
     1
 42
1.0
 92
        9
 66
     7
 43
1.0
 76
     1
 77
     6
 78
     2
 67
     7
 79
     5
170
     0
171
     0
290
     0
174
     0
 93
        1
 44
0.0
173
     0
291
     1
 45
0.0
  0
VISUALSTYLE
  5
33
102
{ACAD_REACTORS
330
2A
102
}
102
{ACAD_XDICTIONARY
360
39B
102
}
330
2A
100
AcDbVisualStyle
  2
Realistic
 70
     8
 71
     2
 72
     3
 73
     0
 90
        2
 40
0.6
 41
30.0
 62
     5
 63
     7
421
 16777215
 74
     0
 91
        0
 64
     7
 65
   257
 75
     1
175
     1
 42
1.0
 92
        8
 66
   257
 43
1.0
 76
     1
 77
     6
 78
     2
 67
     7
 79
     3
170
     0
171
     0
290
     0
174
     0
 93
       13
 44
0.0
173
     0
291
     0
 45
0.0
  0
VISUALSTYLE
  5
42
102
{ACAD_REACTORS
330
2A
102
}
102
{ACAD_XDICTIONARY
360
3B9
102
}
330
2A
100
AcDbVisualStyle
  2
Shaded
 70
    27
 71
     2
 72
     2
 73
     1
 90
        2
 40
0.6
 41
30.0
 62
     5
 63
     7
421
 16777215
 74
     0
 91
        4
 64
     7
 65
   257
 75
     1
175
     1
 42
1.0
 92
        8
 66
   257
 43
1.0
 76
     1
 77
     6
 78
     2
 67
     8
425
  7895160
 79
     3
170
     0
171
     0
290
     0
174
     0
 93
        5
 44
0.0
173
     0
291
     0
 45
0.0
  0
VISUALSTYLE
  5
41
102
{ACAD_REACTORS
330
2A
102
}
102
{ACAD_XDICTIONARY
360
3B7
102
}
330
2A
100
AcDbVisualStyle
  2
Shaded with edges
 70
    26
 71
     2
 72
     2
 73
     1
 90
        2
 40
0.6
 41
30.0
 62
     5
 63
     7
421
 16777215
 74
     1
 91
       10
 64
     7
 65
   257
 75
     2
175
     1
 42
1.0
 92
        8
 66
   257
 43
1.0
 76
     1
 77
     6
 78
     2
 67
     7
 79
     3
170
     0
171
     0
290
     0
174
     0
 93
        5
 44
0.0
173
     0
291
     0
 45
0.0
  0
VISUALSTYLE
  5
3E
102
{ACAD_REACTORS
330
2A
102
}
102
{ACAD_XDICTIONARY
360
3B1
102
}
330
2A
100
AcDbVisualStyle
  2
Shades of Gray
 70
    23
 71
     2
 72
     2
 73
     3
 90
        0
 40
0.6
 41
30.0
 62
     5
 63
     7
421
 16777215
 74
     2
 91
        2
 64
     7
 65
     7
 75
     1
175
     1
 42
40.0
 92
        8
 66
     7
 43
1.0
 76
     1
 77
     6
 78
     2
 67
     7
 79
     3
170
     0
171
     0
290
     0
174
     0
 93
        1
 44
0.0
173
     0
291
     0
 45
0.0
  0
VISUALSTYLE
  5
3F
102
{ACAD_REACTORS
330
2A
102
}
102
{ACAD_XDICTIONARY
360
3B3
102
}
330
2A
100
AcDbVisualStyle
  2
Sketchy
 70
    24
 71
     1
 72
     2
 73
     2
 90
        0
 40
0.6
 41
30.0
 62
     5
 63
     7
421
 16777215
 74
     2
 91
        2
 64
     7
 65
     7
 75
     1
175
     1
 42
40.0
 92
       11
 66
     7
 43
1.0
 76
     1
 77
     6
 78
     2
 67
     7
 79
     6
170
     0
171
     0
290
     0
174
     0
 93
        1
 44
0.0
173
     0
291
     0
 45
0.0
  0
VISUALSTYLE
  5
37
102
{ACAD_REACTORS
330
2A
102
}
102
{ACAD_XDICTIONARY
360
3A3
102
}
330
2A
100
AcDbVisualStyle
  2
Thicken
 70
    13
 71
     2
 72
     2
 73
     0
 90
        0
 40
0.6
 41
30.0
 62
     5
 63
     7
421
 16777215
 74
     1
 91
        4
 64
     7
 65
   257
 75
     1
175
     1
 42
1.0
 92
       12
 66
     7
 43
1.0
 76
     1
 77
     6
 78
     2
 67
     7
 79
     5
170
     0
171
     0
290
     0
174
     0
 93
        1
 44
0.0
173
     0
291
     1
 45
0.0
  0
VISUALSTYLE
  5
30
102
{ACAD_REACTORS
330
2A
102
}
102
{ACAD_XDICTIONARY
360
395
102
}
330
2A
100
AcDbVisualStyle
  2
Wireframe
 70
     5
 71
     0
 72
     2
 73
     0
 90
        0
 40
0.6
 41
30.0
 62
     5
 63
     7
421
 16777215
 74
     1
 91
        4
 64
     7
 65
   257
 75
     1
175
     1
 42
1.0
 92
        0
 66
   257
 43
1.0
 76
     1
 77
     6
 78
     2
 67
     7
 79
     3
170
     0
171
     0
290
     0
174
     0
 93
        1
 44
0.0
173
     0
291
     0
 45
0.0
  0
VISUALSTYLE
  5
40
102
{ACAD_REACTORS
330
2A
102
}
102
{ACAD_XDICTIONARY
360
3B5
102
}
330
2A
100
AcDbVisualStyle
  2
X-Ray
 70
    25
 71
     2
 72
     2
 73
     1
 90
        1
 40
0.5
 41
30.0
 62
     5
 63
     7
421
 16777215
 74
     1
 91
        0
 64
     7
 65
   257
 75
     1
175
     1
 42
1.0
 92
        8
 66
     7
 43
1.0
 76
     1
 77
     6
 78
     2
 67
     7
 79
     3
170
     0
171
     0
290
     0
174
     0
 93
       13
 44
0.0
173
     0
291
     0
 45
0.0
  0
DICTIONARYVAR
  5
389
102
{ACAD_REACTORS
330
388
102
}
330
388
100
DictionaryVariables
280
     0
  1
1:1
  0
DICTIONARYVAR
  5
3C2
102
{ACAD_REACTORS
330
388
102
}
330
388
100
DictionaryVariables
280
     0
  1
Standard
  0
DICTIONARYVAR
  5
3C1
102
{ACAD_REACTORS
330
388
102
}
330
388
100
DictionaryVariables
280
     0
  1
Standard
  0
DICTIONARYVAR
  5
38A
102
{ACAD_REACTORS
330
388
102
}
330
388
100
DictionaryVariables
280
     0
  1
2
  0
DICTIONARY
  5
3BE
330
6C
100
AcDbDictionary
280
     1
281
     1
  3
ACAD_XREC_ROUNDTRIP
360
3BF
  0
DICTIONARY
  5
3BB
330
6A
100
AcDbDictionary
280
     1
281
     1
  3
ACAD_ROUNDTRIP_2008_TABLESTYLE_CELLSTYLEMAP
360
3BC
  0
DICTIONARY
  5
393
330
2F
100
AcDbDictionary
280
     1
281
     1
  3
ACAD_XREC_ROUNDTRIP
360
394
  0
DICTIONARY
  5
399
330
32
100
AcDbDictionary
280
     1
281
     1
  3
ACAD_XREC_ROUNDTRIP
360
39A
  0
DICTIONARY
  5
3A1
330
36
100
AcDbDictionary
280
     1
281
     1
  3
ACAD_XREC_ROUNDTRIP
360
3A2
  0
DICTIONARY
  5
3A9
330
3A
100
AcDbDictionary
280
     1
281
     1
  3
ACAD_XREC_ROUNDTRIP
360
3AA
  0
DICTIONARY
  5
39D
330
34
100
AcDbDictionary
280
     1
281
     1
  3
ACAD_XREC_ROUNDTRIP
360
39E
  0
DICTIONARY
  5
39F
330
35
100
AcDbDictionary
280
     1
281
     1
  3
ACAD_XREC_ROUNDTRIP
360
3A0
  0
DICTIONARY
  5
3AF
330
3D
100
AcDbDictionary
280
     1
281
     1
  3
ACAD_XREC_ROUNDTRIP
360
3B0
  0
DICTIONARY
  5
3A7
330
39
100
AcDbDictionary
280
     1
281
     1
  3
ACAD_XREC_ROUNDTRIP
360
3A8
  0
DICTIONARY
  5
38B
330
2B
100
AcDbDictionary
280
     1
281
     1
  3
ACAD_XREC_ROUNDTRIP
360
38C
  0
DICTIONARY
  5
38D
330
2C
100
AcDbDictionary
280
     1
281
     1
  3
ACAD_XREC_ROUNDTRIP
360
38E
  0
DICTIONARY
  5
38F
330
2D
100
AcDbDictionary
280
     1
281
     1
  3
ACAD_XREC_ROUNDTRIP
360
390
  0
DICTIONARY
  5
391
330
2E
100
AcDbDictionary
280
     1
281
     1
  3
ACAD_XREC_ROUNDTRIP
360
392
  0
DICTIONARY
  5
397
330
31
100
AcDbDictionary
280
     1
281
     1
  3
ACAD_XREC_ROUNDTRIP
360
398
  0
DICTIONARY
  5
3AB
330
3B
100
AcDbDictionary
280
     1
281
     1
  3
ACAD_XREC_ROUNDTRIP
360
3AC
  0
DICTIONARY
  5
3A5
330
38
100
AcDbDictionary
280
     1
281
     1
  3
ACAD_XREC_ROUNDTRIP
360
3A6
  0
DICTIONARY
  5
3AD
330
3C
100
AcDbDictionary
280
     1
281
     1
  3
ACAD_XREC_ROUNDTRIP
360
3AE
  0
DICTIONARY
  5
39B
330
33
100
AcDbDictionary
280
     1
281
     1
  3
ACAD_XREC_ROUNDTRIP
360
39C
  0
DICTIONARY
  5
3B9
330
42
100
AcDbDictionary
280
     1
281
     1
  3
ACAD_XREC_ROUNDTRIP
360
3BA
  0
DICTIONARY
  5
3B7
330
41
100
AcDbDictionary
280
     1
281
     1
  3
ACAD_XREC_ROUNDTRIP
360
3B8
  0
DICTIONARY
  5
3B1
330
3E
100
AcDbDictionary
280
     1
281
     1
  3
ACAD_XREC_ROUNDTRIP
360
3B2
  0
DICTIONARY
  5
3B3
330
3F
100
AcDbDictionary
280
     1
281
     1
  3
ACAD_XREC_ROUNDTRIP
360
3B4
  0
DICTIONARY
  5
3A3
330
37
100
AcDbDictionary
280
     1
281
     1
  3
ACAD_XREC_ROUNDTRIP
360
3A4
  0
DICTIONARY
  5
395
330
30
100
AcDbDictionary
280
     1
281
     1
  3
ACAD_XREC_ROUNDTRIP
360
396
  0
DICTIONARY
  5
3B5
330
40
100
AcDbDictionary
280
     1
281
     1
  3
ACAD_XREC_ROUNDTRIP
360
3B6
  0
XRECORD
  5
3BF
102
{ACAD_REACTORS
330
3BE
102
}
330
3BE
100
AcDbXrecord
280
     1
102
ACAD_ROUNDTRIP_2010_MLEADER_STYLE
  0
CELLSTYLEMAP
  5
3BC
102
{ACAD_REACTORS
330
3BB
102
}
330
3BB
100
AcDbCellStyleMap
 90
        3
300
CELLSTYLE
  1
TABLEFORMAT_BEGIN
 90
        5
170
     1
 91
        0
 92
    32768
 62
   257
 93
        1
300
CONTENTFORMAT
  1
CONTENTFORMAT_BEGIN
 90
        0
 91
        0
 92
        4
 93
        0
300

 40
0.0
140
1.0
 94
        5
 62
     0
340
11
144
0.25
309
CONTENTFORMAT_END
171
     1
301
MARGIN
  1
CELLMARGIN_BEGIN
 40
0.06
 40
0.06
 40
0.06
 40
0.06
 40
0.06
 40
0.06
309
CELLMARGIN_END
 94
        6
 95
        1
302
GRIDFORMAT
  1
GRIDFORMAT_BEGIN
 90
        0
 91
        1
 62
     0
 92
       -2
340
14
 93
        0
 40
0.045
309
GRIDFORMAT_END
 95
        2
302
GRIDFORMAT
  1
GRIDFORMAT_BEGIN
 90
        0
 91
        1
 62
     0
 92
       -2
340
14
 93
        0
 40
0.045
309
GRIDFORMAT_END
 95
        4
302
GRIDFORMAT
  1
GRIDFORMAT_BEGIN
 90
        0
 91
        1
 62
     0
 92
       -2
340
14
 93
        0
 40
0.045
309
GRIDFORMAT_END
 95
        8
302
GRIDFORMAT
  1
GRIDFORMAT_BEGIN
 90
        0
 91
        1
 62
     0
 92
       -2
340
14
 93
        0
 40
0.045
309
GRIDFORMAT_END
 95
       16
302
GRIDFORMAT
  1
GRIDFORMAT_BEGIN
 90
        0
 91
        1
 62
     0
 92
       -2
340
14
 93
        0
 40
0.045
309
GRIDFORMAT_END
 95
       32
302
GRIDFORMAT
  1
GRIDFORMAT_BEGIN
 90
        0
 91
        1
 62
     0
 92
       -2
340
14
 93
        0
 40
0.045
309
GRIDFORMAT_END
309
TABLEFORMAT_END
  1
CELLSTYLE_BEGIN
 90
        1
 91
        1
300
_TITLE
309
CELLSTYLE_END
300
CELLSTYLE
  1
TABLEFORMAT_BEGIN
 90
        5
170
     1
 91
        0
 92
        0
 62
   257
 93
        1
300
CONTENTFORMAT
  1
CONTENTFORMAT_BEGIN
 90
        0
 91
        0
 92
        4
 93
        0
300

 40
0.0
140
1.0
 94
        5
 62
     0
340
11
144
0.18
309
CONTENTFORMAT_END
171
     1
301
MARGIN
  1
CELLMARGIN_BEGIN
 40
0.06
 40
0.06
 40
0.06
 40
0.06
 40
0.06
 40
0.06
309
CELLMARGIN_END
 94
        6
 95
        1
302
GRIDFORMAT
  1
GRIDFORMAT_BEGIN
 90
        0
 91
        1
 62
     0
 92
       -2
340
14
 93
        0
 40
0.045
309
GRIDFORMAT_END
 95
        2
302
GRIDFORMAT
  1
GRIDFORMAT_BEGIN
 90
        0
 91
        1
 62
     0
 92
       -2
340
14
 93
        0
 40
0.045
309
GRIDFORMAT_END
 95
        4
302
GRIDFORMAT
  1
GRIDFORMAT_BEGIN
 90
        0
 91
        1
 62
     0
 92
       -2
340
14
 93
        0
 40
0.045
309
GRIDFORMAT_END
 95
        8
302
GRIDFORMAT
  1
GRIDFORMAT_BEGIN
 90
        0
 91
        1
 62
     0
 92
       -2
340
14
 93
        0
 40
0.045
309
GRIDFORMAT_END
 95
       16
302
GRIDFORMAT
  1
GRIDFORMAT_BEGIN
 90
        0
 91
        1
 62
     0
 92
       -2
340
14
 93
        0
 40
0.045
309
GRIDFORMAT_END
 95
       32
302
GRIDFORMAT
  1
GRIDFORMAT_BEGIN
 90
        0
 91
        1
 62
     0
 92
       -2
340
14
 93
        0
 40
0.045
309
GRIDFORMAT_END
309
TABLEFORMAT_END
  1
CELLSTYLE_BEGIN
 90
        2
 91
        1
300
_HEADER
309
CELLSTYLE_END
300
CELLSTYLE
  1
TABLEFORMAT_BEGIN
 90
        5
170
     1
 91
        0
 92
        0
 62
   257
 93
        1
300
CONTENTFORMAT
  1
CONTENTFORMAT_BEGIN
 90
        0
 91
        0
 92
        4
 93
        0
300

 40
0.0
140
1.0
 94
        2
 62
     0
340
11
144
0.18
309
CONTENTFORMAT_END
171
     1
301
MARGIN
  1
CELLMARGIN_BEGIN
 40
0.06
 40
0.06
 40
0.06
 40
0.06
 40
0.06
 40
0.06
309
CELLMARGIN_END
 94
        6
 95
        1
302
GRIDFORMAT
  1
GRIDFORMAT_BEGIN
 90
        0
 91
        1
 62
     0
 92
       -2
340
14
 93
        0
 40
0.045
309
GRIDFORMAT_END
 95
        2
302
GRIDFORMAT
  1
GRIDFORMAT_BEGIN
 90
        0
 91
        1
 62
     0
 92
       -2
340
14
 93
        0
 40
0.045
309
GRIDFORMAT_END
 95
        4
302
GRIDFORMAT
  1
GRIDFORMAT_BEGIN
 90
        0
 91
        1
 62
     0
 92
       -2
340
14
 93
        0
 40
0.045
309
GRIDFORMAT_END
 95
        8
302
GRIDFORMAT
  1
GRIDFORMAT_BEGIN
 90
        0
 91
        1
 62
     0
 92
       -2
340
14
 93
        0
 40
0.045
309
GRIDFORMAT_END
 95
       16
302
GRIDFORMAT
  1
GRIDFORMAT_BEGIN
 90
        0
 91
        1
 62
     0
 92
       -2
340
14
 93
        0
 40
0.045
309
GRIDFORMAT_END
 95
       32
302
GRIDFORMAT
  1
GRIDFORMAT_BEGIN
 90
        0
 91
        1
 62
     0
 92
       -2
340
14
 93
        0
 40
0.045
309
GRIDFORMAT_END
309
TABLEFORMAT_END
  1
CELLSTYLE_BEGIN
 90
        3
 91
        2
300
_DATA
309
CELLSTYLE_END
  0
XRECORD
  5
394
102
{ACAD_REACTORS
330
393
102
}
330
393
100
AcDbXrecord
280
     1
102
RTVSPropertyOp0
 70
     1
102
RTVSPropertyOp1
 70
     1
102
RTVSPropertyOp2
 70
     1
102
RTVSPropertyOp3
 70
     1
102
RTVSPropertyOp4
 70
     1
102
RTVSPropertyOp5
 70
     1
102
RTVSPropertyOp6
 70
     1
102
RTVSPropertyOp7
 70
     1
102
RTVSPropertyOp8
 70
     1
102
RTVSPropertyOp9
 70
     1
102
RTVSPropertyOp10
 70
     1
102
RTVSPropertyOp11
 70
     1
102
RTVSPropertyOp12
 70
     1
102
RTVSPropertyOp13
 70
     1
102
RTVSPropertyOp14
 70
     1
102
RTVSPropertyOp15
 70
     1
102
RTVSPropertyOp16
 70
     1
102
RTVSPropertyOp17
 70
     1
102
RTVSPropertyOp18
 70
     1
102
RTVSPropertyOp19
 70
     1
102
RTVSPropertyOp20
 70
     1
102
RTVSPropertyOp21
 70
     1
102
RTVSPropertyOp22
 70
     1
102
RTVSPropertyOp23
 70
     1
102
RTVSPropertyOp24
 70
     1
102
RTVSPropertyOp25
 70
     1
102
RTVSPropertyOp26
 70
     1
102
RTVSPropertyOp27
 70
     1
102
RTVSPropertyOp28
 70
     1
102
RTVSPropertyOp29
 70
     1
102
RTVSPropertyOp30
 70
     1
102
RTVSPropertyOp31
 70
     1
102
RTVSPropertyOp32
 70
     1
102
RTVSPropertyOp33
 70
     1
102
RTVSPropertyOp34
 70
     1
102
RTVSPropertyOp35
 70
     1
102
RTVSPropertyOp36
 70
     1
102
RTVSPropertyOp37
 70
     1
102
RTVSPropertyOp38
 70
     1
102
RTVSPropertyOp39
 70
     1
102
RTVSPropertyOp40
 70
     1
102
RTVSPropertyOp41
 70
     1
102
RTVSPropertyOp42
 70
     1
102
RTVSPropertyOp43
 70
     1
102
RTVSPropertyOp44
 70
     1
102
RTVSPropertyOp45
 70
     1
102
RTVSPropertyOp46
 70
     1
102
RTVSPropertyOp47
 70
     1
102
RTVSPropertyOp48
 70
     1
102
RTVSPropertyOp49
 70
     1
102
RTVSPropertyOp50
 70
     1
102
RTVSPropertyOp51
 70
     0
102
RTVSPropertyOp52
 70
     0
102
RTVSPropertyOp53
 70
     1
102
RTVSPropertyOp54
 70
     1
102
RTVSPropertyOp55
 70
     1
102
RTVSPropertyOp56
 70
     1
102
RTVSPropertyOp57
 70
     1
102
RTVSPost2010Prop28
280
     1
102
RTVSPost2010PropOp28
 70
     1
102
RTVSPost2010Prop29
280
     1
102
RTVSPost2010PropOp29
 70
     1
102
RTVSPost2010Prop30
280
     0
102
RTVSPost2010PropOp30
 70
     1
102
RTVSPost2010Prop31
280
     0
102
RTVSPost2010PropOp31
 70
     1
102
RTVSPost2010Prop32
280
     0
102
RTVSPost2010PropOp32
 70
     1
102
RTVSPost2010Prop33
280
     0
102
RTVSPost2010PropOp33
 70
     1
102
RTVSPost2010Prop34
280
     0
102
RTVSPost2010PropOp34
 70
     1
102
RTVSPost2010Prop35
280
     0
102
RTVSPost2010PropOp35
 70
     1
102
RTVSPost2010Prop36
280
     0
102
RTVSPost2010PropOp36
 70
     1
102
RTVSPost2010Prop37
 90
       50
102
RTVSPost2010PropOp37
 70
     1
102
RTVSPost2010Prop38
140
0.0
102
RTVSPost2010PropOp38
 70
     1
102
RTVSPost2010Prop39
140
1.0
102
RTVSPost2010PropOp39
 70
     1
102
RTVSPost2010Prop40
 90
        0
102
RTVSPost2010PropOp40
 70
     1
102
RTVSPost2010Prop41ColorIndex
 90
      178
102
RTVSPost2010Prop41ColorRGB
 90
        0
102
RTVSPost2010PropOp41
 70
     1
102
RTVSPost2010Prop42
 90
       50
102
RTVSPost2010PropOp42
 70
     1
102
RTVSPost2010Prop43
 90
        3
102
RTVSPost2010PropOp43
 70
     1
102
RTVSPost2010Prop44ColorIndex
 90
        5
102
RTVSPost2010Prop44ColorRGB
 90
      255
102
RTVSPost2010PropOp44
 70
     1
102
RTVSPost2010Prop45
280
     0
102
RTVSPost2010PropOp45
 70
     1
102
RTVSPost2010Prop46
 90
       50
102
RTVSPost2010PropOp46
 70
     1
102
RTVSPost2010Prop47
 90
       50
102
RTVSPost2010PropOp47
 70
     1
102
RTVSPost2010Prop48
 90
       50
102
RTVSPost2010PropOp48
 70
     1
102
RTVSPost2010Prop49
280
     0
102
RTVSPost2010PropOp49
 70
     1
102
RTVSPost2010Prop50
 90
       50
102
RTVSPost2010PropOp50
 70
     1
102
RTVSPost2010Prop51ColorIndex
 90
      256
102
RTVSPost2010Prop51ColorRGB
 90
-16777216
102
RTVSPost2010PropOp51
 70
     0
102
RTVSPost2010Prop52
140
1.0
102
RTVSPost2010PropOp52
 70
     0
102
RTVSPost2010Prop53
 90
        2
102
RTVSPost2010PropOp53
 70
     1
102
RTVSPost2010Prop54
  1
strokes_ogs.tif
102
RTVSPost2010PropOp54
 70
     1
102
RTVSPost2010Prop55
280
     0
102
RTVSPost2010PropOp55
 70
     1
102
RTVSPost2010Prop56
140
1.0
102
RTVSPost2010PropOp56
 70
     1
102
RTVSPost2010Prop57
140
1.0
102
RTVSPost2010PropOp57
 70
     1
  0
XRECORD
  5
39A
102
{ACAD_REACTORS
330
399
102
}
330
399
100
AcDbXrecord
280
     1
102
RTVSPropertyOp0
 70
     1
102
RTVSPropertyOp1
 70
     1
102
RTVSPropertyOp2
 70
     1
102
RTVSPropertyOp3
 70
     1
102
RTVSPropertyOp4
 70
     1
102
RTVSPropertyOp5
 70
     1
102
RTVSPropertyOp6
 70
     1
102
RTVSPropertyOp7
 70
     1
102
RTVSPropertyOp8
 70
     1
102
RTVSPropertyOp9
 70
     1
102
RTVSPropertyOp10
 70
     1
102
RTVSPropertyOp11
 70
     1
102
RTVSPropertyOp12
 70
     1
102
RTVSPropertyOp13
 70
     1
102
RTVSPropertyOp14
 70
     1
102
RTVSPropertyOp15
 70
     1
102
RTVSPropertyOp16
 70
     1
102
RTVSPropertyOp17
 70
     1
102
RTVSPropertyOp18
 70
     1
102
RTVSPropertyOp19
 70
     1
102
RTVSPropertyOp20
 70
     1
102
RTVSPropertyOp21
 70
     1
102
RTVSPropertyOp22
 70
     1
102
RTVSPropertyOp23
 70
     1
102
RTVSPropertyOp24
 70
     1
102
RTVSPropertyOp25
 70
     1
102
RTVSPropertyOp26
 70
     1
102
RTVSPropertyOp27
 70
     1
102
RTVSPropertyOp28
 70
     1
102
RTVSPropertyOp29
 70
     1
102
RTVSPropertyOp30
 70
     1
102
RTVSPropertyOp31
 70
     1
102
RTVSPropertyOp32
 70
     1
102
RTVSPropertyOp33
 70
     1
102
RTVSPropertyOp34
 70
     1
102
RTVSPropertyOp35
 70
     1
102
RTVSPropertyOp36
 70
     1
102
RTVSPropertyOp37
 70
     1
102
RTVSPropertyOp38
 70
     1
102
RTVSPropertyOp39
 70
     1
102
RTVSPropertyOp40
 70
     1
102
RTVSPropertyOp41
 70
     1
102
RTVSPropertyOp42
 70
     1
102
RTVSPropertyOp43
 70
     1
102
RTVSPropertyOp44
 70
     1
102
RTVSPropertyOp45
 70
     1
102
RTVSPropertyOp46
 70
     1
102
RTVSPropertyOp47
 70
     1
102
RTVSPropertyOp48
 70
     1
102
RTVSPropertyOp49
 70
     1
102
RTVSPropertyOp50
 70
     1
102
RTVSPropertyOp51
 70
     0
102
RTVSPropertyOp52
 70
     0
102
RTVSPropertyOp53
 70
     1
102
RTVSPropertyOp54
 70
     1
102
RTVSPropertyOp55
 70
     1
102
RTVSPropertyOp56
 70
     1
102
RTVSPropertyOp57
 70
     1
102
RTVSPost2010Prop28
280
     0
102
RTVSPost2010PropOp28
 70
     1
102
RTVSPost2010Prop29
280
     1
102
RTVSPost2010PropOp29
 70
     1
102
RTVSPost2010Prop30
280
     1
102
RTVSPost2010PropOp30
 70
     1
102
RTVSPost2010Prop31
280
     0
102
RTVSPost2010PropOp31
 70
     1
102
RTVSPost2010Prop32
280
     0
102
RTVSPost2010PropOp32
 70
     1
102
RTVSPost2010Prop33
280
     0
102
RTVSPost2010PropOp33
 70
     1
102
RTVSPost2010Prop34
280
     0
102
RTVSPost2010PropOp34
 70
     1
102
RTVSPost2010Prop35
280
     0
102
RTVSPost2010PropOp35
 70
     1
102
RTVSPost2010Prop36
280
     0
102
RTVSPost2010PropOp36
 70
     1
102
RTVSPost2010Prop37
 90
       50
102
RTVSPost2010PropOp37
 70
     1
102
RTVSPost2010Prop38
140
0.0
102
RTVSPost2010PropOp38
 70
     1
102
RTVSPost2010Prop39
140
1.0
102
RTVSPost2010PropOp39
 70
     1
102
RTVSPost2010Prop40
 90
        0
102
RTVSPost2010PropOp40
 70
     1
102
RTVSPost2010Prop41ColorIndex
 90
      178
102
RTVSPost2010Prop41ColorRGB
 90
        0
102
RTVSPost2010PropOp41
 70
     1
102
RTVSPost2010Prop42
 90
       50
102
RTVSPost2010PropOp42
 70
     1
102
RTVSPost2010Prop43
 90
        3
102
RTVSPost2010PropOp43
 70
     1
102
RTVSPost2010Prop44ColorIndex
 90
        5
102
RTVSPost2010Prop44ColorRGB
 90
      255
102
RTVSPost2010PropOp44
 70
     1
102
RTVSPost2010Prop45
280
     0
102
RTVSPost2010PropOp45
 70
     1
102
RTVSPost2010Prop46
 90
       50
102
RTVSPost2010PropOp46
 70
     1
102
RTVSPost2010Prop47
 90
       50
102
RTVSPost2010PropOp47
 70
     1
102
RTVSPost2010Prop48
 90
       50
102
RTVSPost2010PropOp48
 70
     1
102
RTVSPost2010Prop49
280
     0
102
RTVSPost2010PropOp49
 70
     1
102
RTVSPost2010Prop50
 90
       50
102
RTVSPost2010PropOp50
 70
     1
102
RTVSPost2010Prop51ColorIndex
 90
      256
102
RTVSPost2010Prop51ColorRGB
 90
-16777216
102
RTVSPost2010PropOp51
 70
     0
102
RTVSPost2010Prop52
140
1.0
102
RTVSPost2010PropOp52
 70
     0
102
RTVSPost2010Prop53
 90
        2
102
RTVSPost2010PropOp53
 70
     1
102
RTVSPost2010Prop54
  1
strokes_ogs.tif
102
RTVSPost2010PropOp54
 70
     1
102
RTVSPost2010Prop55
280
     0
102
RTVSPost2010PropOp55
 70
     1
102
RTVSPost2010Prop56
140
1.0
102
RTVSPost2010PropOp56
 70
     1
102
RTVSPost2010Prop57
140
1.0
102
RTVSPost2010PropOp57
 70
     1
  0
XRECORD
  5
3A2
102
{ACAD_REACTORS
330
3A1
102
}
330
3A1
100
AcDbXrecord
280
     1
102
RTVSPropertyOp0
 70
     1
102
RTVSPropertyOp1
 70
     1
102
RTVSPropertyOp2
 70
     1
102
RTVSPropertyOp3
 70
     1
102
RTVSPropertyOp4
 70
     1
102
RTVSPropertyOp5
 70
     1
102
RTVSPropertyOp6
 70
     1
102
RTVSPropertyOp7
 70
     1
102
RTVSPropertyOp8
 70
     1
102
RTVSPropertyOp9
 70
     1
102
RTVSPropertyOp10
 70
     1
102
RTVSPropertyOp11
 70
     1
102
RTVSPropertyOp12
 70
     1
102
RTVSPropertyOp13
 70
     1
102
RTVSPropertyOp14
 70
     1
102
RTVSPropertyOp15
 70
     1
102
RTVSPropertyOp16
 70
     1
102
RTVSPropertyOp17
 70
     1
102
RTVSPropertyOp18
 70
     1
102
RTVSPropertyOp19
 70
     1
102
RTVSPropertyOp20
 70
     1
102
RTVSPropertyOp21
 70
     1
102
RTVSPropertyOp22
 70
     1
102
RTVSPropertyOp23
 70
     1
102
RTVSPropertyOp24
 70
     1
102
RTVSPropertyOp25
 70
     1
102
RTVSPropertyOp26
 70
     1
102
RTVSPropertyOp27
 70
     1
102
RTVSPropertyOp28
 70
     1
102
RTVSPropertyOp29
 70
     1
102
RTVSPropertyOp30
 70
     1
102
RTVSPropertyOp31
 70
     1
102
RTVSPropertyOp32
 70
     1
102
RTVSPropertyOp33
 70
     1
102
RTVSPropertyOp34
 70
     1
102
RTVSPropertyOp35
 70
     1
102
RTVSPropertyOp36
 70
     1
102
RTVSPropertyOp37
 70
     1
102
RTVSPropertyOp38
 70
     1
102
RTVSPropertyOp39
 70
     1
102
RTVSPropertyOp40
 70
     1
102
RTVSPropertyOp41
 70
     1
102
RTVSPropertyOp42
 70
     1
102
RTVSPropertyOp43
 70
     1
102
RTVSPropertyOp44
 70
     1
102
RTVSPropertyOp45
 70
     1
102
RTVSPropertyOp46
 70
     1
102
RTVSPropertyOp47
 70
     1
102
RTVSPropertyOp48
 70
     1
102
RTVSPropertyOp49
 70
     1
102
RTVSPropertyOp50
 70
     1
102
RTVSPropertyOp51
 70
     0
102
RTVSPropertyOp52
 70
     0
102
RTVSPropertyOp53
 70
     1
102
RTVSPropertyOp54
 70
     1
102
RTVSPropertyOp55
 70
     1
102
RTVSPropertyOp56
 70
     1
102
RTVSPropertyOp57
 70
     1
102
RTVSPost2010Prop28
280
     0
102
RTVSPost2010PropOp28
 70
     1
102
RTVSPost2010Prop29
280
     1
102
RTVSPost2010PropOp29
 70
     1
102
RTVSPost2010Prop30
280
     1
102
RTVSPost2010PropOp30
 70
     1
102
RTVSPost2010Prop31
280
     0
102
RTVSPost2010PropOp31
 70
     1
102
RTVSPost2010Prop32
280
     0
102
RTVSPost2010PropOp32
 70
     1
102
RTVSPost2010Prop33
280
     0
102
RTVSPost2010PropOp33
 70
     1
102
RTVSPost2010Prop34
280
     0
102
RTVSPost2010PropOp34
 70
     1
102
RTVSPost2010Prop35
280
     0
102
RTVSPost2010PropOp35
 70
     1
102
RTVSPost2010Prop36
280
     0
102
RTVSPost2010PropOp36
 70
     1
102
RTVSPost2010Prop37
 90
       50
102
RTVSPost2010PropOp37
 70
     1
102
RTVSPost2010Prop38
140
0.0
102
RTVSPost2010PropOp38
 70
     1
102
RTVSPost2010Prop39
140
1.0
102
RTVSPost2010PropOp39
 70
     1
102
RTVSPost2010Prop40
 90
        0
102
RTVSPost2010PropOp40
 70
     1
102
RTVSPost2010Prop41ColorIndex
 90
      178
102
RTVSPost2010Prop41ColorRGB
 90
        0
102
RTVSPost2010PropOp41
 70
     1
102
RTVSPost2010Prop42
 90
       50
102
RTVSPost2010PropOp42
 70
     1
102
RTVSPost2010Prop43
 90
        3
102
RTVSPost2010PropOp43
 70
     1
102
RTVSPost2010Prop44ColorIndex
 90
        5
102
RTVSPost2010Prop44ColorRGB
 90
      255
102
RTVSPost2010PropOp44
 70
     1
102
RTVSPost2010Prop45
280
     0
102
RTVSPost2010PropOp45
 70
     1
102
RTVSPost2010Prop46
 90
       50
102
RTVSPost2010PropOp46
 70
     1
102
RTVSPost2010Prop47
 90
       50
102
RTVSPost2010PropOp47
 70
     1
102
RTVSPost2010Prop48
 90
       50
102
RTVSPost2010PropOp48
 70
     1
102
RTVSPost2010Prop49
280
     0
102
RTVSPost2010PropOp49
 70
     1
102
RTVSPost2010Prop50
 90
       50
102
RTVSPost2010PropOp50
 70
     1
102
RTVSPost2010Prop51ColorIndex
 90
      256
102
RTVSPost2010Prop51ColorRGB
 90
-16777216
102
RTVSPost2010PropOp51
 70
     0
102
RTVSPost2010Prop52
140
1.0
102
RTVSPost2010PropOp52
 70
     0
102
RTVSPost2010Prop53
 90
        2
102
RTVSPost2010PropOp53
 70
     1
102
RTVSPost2010Prop54
  1
strokes_ogs.tif
102
RTVSPost2010PropOp54
 70
     1
102
RTVSPost2010Prop55
280
     0
102
RTVSPost2010PropOp55
 70
     1
102
RTVSPost2010Prop56
140
1.0
102
RTVSPost2010PropOp56
 70
     1
102
RTVSPost2010Prop57
140
1.0
102
RTVSPost2010PropOp57
 70
     1
  0
XRECORD
  5
3AA
102
{ACAD_REACTORS
330
3A9
102
}
330
3A9
100
AcDbXrecord
280
     1
102
RTVSPropertyOp0
 70
     1
102
RTVSPropertyOp1
 70
     1
102
RTVSPropertyOp2
 70
     1
102
RTVSPropertyOp3
 70
     1
102
RTVSPropertyOp4
 70
     1
102
RTVSPropertyOp5
 70
     1
102
RTVSPropertyOp6
 70
     1
102
RTVSPropertyOp7
 70
     1
102
RTVSPropertyOp8
 70
     1
102
RTVSPropertyOp9
 70
     1
102
RTVSPropertyOp10
 70
     1
102
RTVSPropertyOp11
 70
     1
102
RTVSPropertyOp12
 70
     1
102
RTVSPropertyOp13
 70
     1
102
RTVSPropertyOp14
 70
     1
102
RTVSPropertyOp15
 70
     1
102
RTVSPropertyOp16
 70
     1
102
RTVSPropertyOp17
 70
     1
102
RTVSPropertyOp18
 70
     1
102
RTVSPropertyOp19
 70
     1
102
RTVSPropertyOp20
 70
     1
102
RTVSPropertyOp21
 70
     1
102
RTVSPropertyOp22
 70
     1
102
RTVSPropertyOp23
 70
     1
102
RTVSPropertyOp24
 70
     1
102
RTVSPropertyOp25
 70
     1
102
RTVSPropertyOp26
 70
     1
102
RTVSPropertyOp27
 70
     1
102
RTVSPropertyOp28
 70
     1
102
RTVSPropertyOp29
 70
     1
102
RTVSPropertyOp30
 70
     1
102
RTVSPropertyOp31
 70
     1
102
RTVSPropertyOp32
 70
     1
102
RTVSPropertyOp33
 70
     1
102
RTVSPropertyOp34
 70
     1
102
RTVSPropertyOp35
 70
     1
102
RTVSPropertyOp36
 70
     1
102
RTVSPropertyOp37
 70
     1
102
RTVSPropertyOp38
 70
     1
102
RTVSPropertyOp39
 70
     1
102
RTVSPropertyOp40
 70
     1
102
RTVSPropertyOp41
 70
     1
102
RTVSPropertyOp42
 70
     1
102
RTVSPropertyOp43
 70
     1
102
RTVSPropertyOp44
 70
     1
102
RTVSPropertyOp45
 70
     1
102
RTVSPropertyOp46
 70
     1
102
RTVSPropertyOp47
 70
     1
102
RTVSPropertyOp48
 70
     1
102
RTVSPropertyOp49
 70
     1
102
RTVSPropertyOp50
 70
     1
102
RTVSPropertyOp51
 70
     0
102
RTVSPropertyOp52
 70
     0
102
RTVSPropertyOp53
 70
     1
102
RTVSPropertyOp54
 70
     1
102
RTVSPropertyOp55
 70
     1
102
RTVSPropertyOp56
 70
     1
102
RTVSPropertyOp57
 70
     1
102
RTVSPost2010Prop28
280
     0
102
RTVSPost2010PropOp28
 70
     1
102
RTVSPost2010Prop29
280
     1
102
RTVSPost2010PropOp29
 70
     1
102
RTVSPost2010Prop30
280
     1
102
RTVSPost2010PropOp30
 70
     1
102
RTVSPost2010Prop31
280
     0
102
RTVSPost2010PropOp31
 70
     1
102
RTVSPost2010Prop32
280
     0
102
RTVSPost2010PropOp32
 70
     1
102
RTVSPost2010Prop33
280
     0
102
RTVSPost2010PropOp33
 70
     1
102
RTVSPost2010Prop34
280
     0
102
RTVSPost2010PropOp34
 70
     1
102
RTVSPost2010Prop35
280
     0
102
RTVSPost2010PropOp35
 70
     1
102
RTVSPost2010Prop36
280
     0
102
RTVSPost2010PropOp36
 70
     1
102
RTVSPost2010Prop37
 90
       50
102
RTVSPost2010PropOp37
 70
     1
102
RTVSPost2010Prop38
140
0.0
102
RTVSPost2010PropOp38
 70
     1
102
RTVSPost2010Prop39
140
1.0
102
RTVSPost2010PropOp39
 70
     1
102
RTVSPost2010Prop40
 90
        0
102
RTVSPost2010PropOp40
 70
     1
102
RTVSPost2010Prop41ColorIndex
 90
      178
102
RTVSPost2010Prop41ColorRGB
 90
        0
102
RTVSPost2010PropOp41
 70
     1
102
RTVSPost2010Prop42
 90
       50
102
RTVSPost2010PropOp42
 70
     1
102
RTVSPost2010Prop43
 90
        3
102
RTVSPost2010PropOp43
 70
     1
102
RTVSPost2010Prop44ColorIndex
 90
        5
102
RTVSPost2010Prop44ColorRGB
 90
      255
102
RTVSPost2010PropOp44
 70
     1
102
RTVSPost2010Prop45
280
     0
102
RTVSPost2010PropOp45
 70
     1
102
RTVSPost2010Prop46
 90
       50
102
RTVSPost2010PropOp46
 70
     1
102
RTVSPost2010Prop47
 90
       50
102
RTVSPost2010PropOp47
 70
     1
102
RTVSPost2010Prop48
 90
       50
102
RTVSPost2010PropOp48
 70
     1
102
RTVSPost2010Prop49
280
     0
102
RTVSPost2010PropOp49
 70
     1
102
RTVSPost2010Prop50
 90
       50
102
RTVSPost2010PropOp50
 70
     1
102
RTVSPost2010Prop51ColorIndex
 90
      256
102
RTVSPost2010Prop51ColorRGB
 90
-16777216
102
RTVSPost2010PropOp51
 70
     0
102
RTVSPost2010Prop52
140
1.0
102
RTVSPost2010PropOp52
 70
     0
102
RTVSPost2010Prop53
 90
        2
102
RTVSPost2010PropOp53
 70
     1
102
RTVSPost2010Prop54
  1
strokes_ogs.tif
102
RTVSPost2010PropOp54
 70
     1
102
RTVSPost2010Prop55
280
     0
102
RTVSPost2010PropOp55
 70
     1
102
RTVSPost2010Prop56
140
1.0
102
RTVSPost2010PropOp56
 70
     1
102
RTVSPost2010Prop57
140
1.0
102
RTVSPost2010PropOp57
 70
     1
  0
XRECORD
  5
39E
102
{ACAD_REACTORS
330
39D
102
}
330
39D
100
AcDbXrecord
280
     1
102
RTVSPropertyOp0
 70
     1
102
RTVSPropertyOp1
 70
     1
102
RTVSPropertyOp2
 70
     1
102
RTVSPropertyOp3
 70
     1
102
RTVSPropertyOp4
 70
     1
102
RTVSPropertyOp5
 70
     1
102
RTVSPropertyOp6
 70
     1
102
RTVSPropertyOp7
 70
     1
102
RTVSPropertyOp8
 70
     1
102
RTVSPropertyOp9
 70
     1
102
RTVSPropertyOp10
 70
     1
102
RTVSPropertyOp11
 70
     1
102
RTVSPropertyOp12
 70
     1
102
RTVSPropertyOp13
 70
     1
102
RTVSPropertyOp14
 70
     1
102
RTVSPropertyOp15
 70
     1
102
RTVSPropertyOp16
 70
     1
102
RTVSPropertyOp17
 70
     1
102
RTVSPropertyOp18
 70
     1
102
RTVSPropertyOp19
 70
     1
102
RTVSPropertyOp20
 70
     1
102
RTVSPropertyOp21
 70
     1
102
RTVSPropertyOp22
 70
     1
102
RTVSPropertyOp23
 70
     1
102
RTVSPropertyOp24
 70
     1
102
RTVSPropertyOp25
 70
     1
102
RTVSPropertyOp26
 70
     1
102
RTVSPropertyOp27
 70
     1
102
RTVSPropertyOp28
 70
     1
102
RTVSPropertyOp29
 70
     1
102
RTVSPropertyOp30
 70
     1
102
RTVSPropertyOp31
 70
     1
102
RTVSPropertyOp32
 70
     1
102
RTVSPropertyOp33
 70
     1
102
RTVSPropertyOp34
 70
     1
102
RTVSPropertyOp35
 70
     1
102
RTVSPropertyOp36
 70
     1
102
RTVSPropertyOp37
 70
     1
102
RTVSPropertyOp38
 70
     1
102
RTVSPropertyOp39
 70
     1
102
RTVSPropertyOp40
 70
     1
102
RTVSPropertyOp41
 70
     1
102
RTVSPropertyOp42
 70
     1
102
RTVSPropertyOp43
 70
     1
102
RTVSPropertyOp44
 70
     1
102
RTVSPropertyOp45
 70
     1
102
RTVSPropertyOp46
 70
     1
102
RTVSPropertyOp47
 70
     1
102
RTVSPropertyOp48
 70
     1
102
RTVSPropertyOp49
 70
     1
102
RTVSPropertyOp50
 70
     1
102
RTVSPropertyOp51
 70
     0
102
RTVSPropertyOp52
 70
     0
102
RTVSPropertyOp53
 70
     1
102
RTVSPropertyOp54
 70
     1
102
RTVSPropertyOp55
 70
     1
102
RTVSPropertyOp56
 70
     1
102
RTVSPropertyOp57
 70
     1
102
RTVSPost2010Prop28
280
     0
102
RTVSPost2010PropOp28
 70
     1
102
RTVSPost2010Prop29
280
     1
102
RTVSPost2010PropOp29
 70
     1
102
RTVSPost2010Prop30
280
     1
102
RTVSPost2010PropOp30
 70
     1
102
RTVSPost2010Prop31
280
     0
102
RTVSPost2010PropOp31
 70
     1
102
RTVSPost2010Prop32
280
     0
102
RTVSPost2010PropOp32
 70
     1
102
RTVSPost2010Prop33
280
     0
102
RTVSPost2010PropOp33
 70
     1
102
RTVSPost2010Prop34
280
     0
102
RTVSPost2010PropOp34
 70
     1
102
RTVSPost2010Prop35
280
     0
102
RTVSPost2010PropOp35
 70
     1
102
RTVSPost2010Prop36
280
     0
102
RTVSPost2010PropOp36
 70
     1
102
RTVSPost2010Prop37
 90
       50
102
RTVSPost2010PropOp37
 70
     1
102
RTVSPost2010Prop38
140
0.0
102
RTVSPost2010PropOp38
 70
     1
102
RTVSPost2010Prop39
140
1.0
102
RTVSPost2010PropOp39
 70
     1
102
RTVSPost2010Prop40
 90
        0
102
RTVSPost2010PropOp40
 70
     1
102
RTVSPost2010Prop41ColorIndex
 90
      178
102
RTVSPost2010Prop41ColorRGB
 90
        0
102
RTVSPost2010PropOp41
 70
     1
102
RTVSPost2010Prop42
 90
       50
102
RTVSPost2010PropOp42
 70
     1
102
RTVSPost2010Prop43
 90
        3
102
RTVSPost2010PropOp43
 70
     1
102
RTVSPost2010Prop44ColorIndex
 90
        5
102
RTVSPost2010Prop44ColorRGB
 90
      255
102
RTVSPost2010PropOp44
 70
     1
102
RTVSPost2010Prop45
280
     0
102
RTVSPost2010PropOp45
 70
     1
102
RTVSPost2010Prop46
 90
       50
102
RTVSPost2010PropOp46
 70
     1
102
RTVSPost2010Prop47
 90
       50
102
RTVSPost2010PropOp47
 70
     1
102
RTVSPost2010Prop48
 90
       50
102
RTVSPost2010PropOp48
 70
     1
102
RTVSPost2010Prop49
280
     0
102
RTVSPost2010PropOp49
 70
     1
102
RTVSPost2010Prop50
 90
       50
102
RTVSPost2010PropOp50
 70
     1
102
RTVSPost2010Prop51ColorIndex
 90
      256
102
RTVSPost2010Prop51ColorRGB
 90
-16777216
102
RTVSPost2010PropOp51
 70
     0
102
RTVSPost2010Prop52
140
1.0
102
RTVSPost2010PropOp52
 70
     0
102
RTVSPost2010Prop53
 90
        2
102
RTVSPost2010PropOp53
 70
     1
102
RTVSPost2010Prop54
  1
strokes_ogs.tif
102
RTVSPost2010PropOp54
 70
     1
102
RTVSPost2010Prop55
280
     0
102
RTVSPost2010PropOp55
 70
     1
102
RTVSPost2010Prop56
140
1.0
102
RTVSPost2010PropOp56
 70
     1
102
RTVSPost2010Prop57
140
1.0
102
RTVSPost2010PropOp57
 70
     1
  0
XRECORD
  5
3A0
102
{ACAD_REACTORS
330
39F
102
}
330
39F
100
AcDbXrecord
280
     1
102
RTVSPropertyOp0
 70
     1
102
RTVSPropertyOp1
 70
     1
102
RTVSPropertyOp2
 70
     1
102
RTVSPropertyOp3
 70
     1
102
RTVSPropertyOp4
 70
     1
102
RTVSPropertyOp5
 70
     1
102
RTVSPropertyOp6
 70
     1
102
RTVSPropertyOp7
 70
     1
102
RTVSPropertyOp8
 70
     1
102
RTVSPropertyOp9
 70
     1
102
RTVSPropertyOp10
 70
     1
102
RTVSPropertyOp11
 70
     1
102
RTVSPropertyOp12
 70
     1
102
RTVSPropertyOp13
 70
     1
102
RTVSPropertyOp14
 70
     1
102
RTVSPropertyOp15
 70
     1
102
RTVSPropertyOp16
 70
     1
102
RTVSPropertyOp17
 70
     1
102
RTVSPropertyOp18
 70
     1
102
RTVSPropertyOp19
 70
     1
102
RTVSPropertyOp20
 70
     1
102
RTVSPropertyOp21
 70
     1
102
RTVSPropertyOp22
 70
     1
102
RTVSPropertyOp23
 70
     1
102
RTVSPropertyOp24
 70
     1
102
RTVSPropertyOp25
 70
     1
102
RTVSPropertyOp26
 70
     1
102
RTVSPropertyOp27
 70
     1
102
RTVSPropertyOp28
 70
     1
102
RTVSPropertyOp29
 70
     1
102
RTVSPropertyOp30
 70
     1
102
RTVSPropertyOp31
 70
     1
102
RTVSPropertyOp32
 70
     1
102
RTVSPropertyOp33
 70
     1
102
RTVSPropertyOp34
 70
     1
102
RTVSPropertyOp35
 70
     1
102
RTVSPropertyOp36
 70
     1
102
RTVSPropertyOp37
 70
     1
102
RTVSPropertyOp38
 70
     1
102
RTVSPropertyOp39
 70
     1
102
RTVSPropertyOp40
 70
     1
102
RTVSPropertyOp41
 70
     1
102
RTVSPropertyOp42
 70
     1
102
RTVSPropertyOp43
 70
     1
102
RTVSPropertyOp44
 70
     1
102
RTVSPropertyOp45
 70
     1
102
RTVSPropertyOp46
 70
     1
102
RTVSPropertyOp47
 70
     1
102
RTVSPropertyOp48
 70
     1
102
RTVSPropertyOp49
 70
     1
102
RTVSPropertyOp50
 70
     1
102
RTVSPropertyOp51
 70
     0
102
RTVSPropertyOp52
 70
     0
102
RTVSPropertyOp53
 70
     1
102
RTVSPropertyOp54
 70
     1
102
RTVSPropertyOp55
 70
     1
102
RTVSPropertyOp56
 70
     1
102
RTVSPropertyOp57
 70
     1
102
RTVSPost2010Prop28
280
     0
102
RTVSPost2010PropOp28
 70
     1
102
RTVSPost2010Prop29
280
     1
102
RTVSPost2010PropOp29
 70
     1
102
RTVSPost2010Prop30
280
     1
102
RTVSPost2010PropOp30
 70
     1
102
RTVSPost2010Prop31
280
     0
102
RTVSPost2010PropOp31
 70
     1
102
RTVSPost2010Prop32
280
     0
102
RTVSPost2010PropOp32
 70
     1
102
RTVSPost2010Prop33
280
     0
102
RTVSPost2010PropOp33
 70
     1
102
RTVSPost2010Prop34
280
     0
102
RTVSPost2010PropOp34
 70
     1
102
RTVSPost2010Prop35
280
     0
102
RTVSPost2010PropOp35
 70
     1
102
RTVSPost2010Prop36
280
     0
102
RTVSPost2010PropOp36
 70
     1
102
RTVSPost2010Prop37
 90
       50
102
RTVSPost2010PropOp37
 70
     1
102
RTVSPost2010Prop38
140
0.0
102
RTVSPost2010PropOp38
 70
     1
102
RTVSPost2010Prop39
140
1.0
102
RTVSPost2010PropOp39
 70
     1
102
RTVSPost2010Prop40
 90
        0
102
RTVSPost2010PropOp40
 70
     1
102
RTVSPost2010Prop41ColorIndex
 90
      178
102
RTVSPost2010Prop41ColorRGB
 90
        0
102
RTVSPost2010PropOp41
 70
     1
102
RTVSPost2010Prop42
 90
       50
102
RTVSPost2010PropOp42
 70
     1
102
RTVSPost2010Prop43
 90
        3
102
RTVSPost2010PropOp43
 70
     1
102
RTVSPost2010Prop44ColorIndex
 90
        5
102
RTVSPost2010Prop44ColorRGB
 90
      255
102
RTVSPost2010PropOp44
 70
     1
102
RTVSPost2010Prop45
280
     0
102
RTVSPost2010PropOp45
 70
     1
102
RTVSPost2010Prop46
 90
       50
102
RTVSPost2010PropOp46
 70
     1
102
RTVSPost2010Prop47
 90
       50
102
RTVSPost2010PropOp47
 70
     1
102
RTVSPost2010Prop48
 90
       50
102
RTVSPost2010PropOp48
 70
     1
102
RTVSPost2010Prop49
280
     0
102
RTVSPost2010PropOp49
 70
     1
102
RTVSPost2010Prop50
 90
       50
102
RTVSPost2010PropOp50
 70
     1
102
RTVSPost2010Prop51ColorIndex
 90
      256
102
RTVSPost2010Prop51ColorRGB
 90
-16777216
102
RTVSPost2010PropOp51
 70
     0
102
RTVSPost2010Prop52
140
1.0
102
RTVSPost2010PropOp52
 70
     0
102
RTVSPost2010Prop53
 90
        2
102
RTVSPost2010PropOp53
 70
     1
102
RTVSPost2010Prop54
  1
strokes_ogs.tif
102
RTVSPost2010PropOp54
 70
     1
102
RTVSPost2010Prop55
280
     0
102
RTVSPost2010PropOp55
 70
     1
102
RTVSPost2010Prop56
140
1.0
102
RTVSPost2010PropOp56
 70
     1
102
RTVSPost2010Prop57
140
1.0
102
RTVSPost2010PropOp57
 70
     1
  0
XRECORD
  5
3B0
102
{ACAD_REACTORS
330
3AF
102
}
330
3AF
100
AcDbXrecord
280
     1
102
RTVSPropertyOp0
 70
     0
102
RTVSPropertyOp1
 70
     0
102
RTVSPropertyOp2
 70
     0
102
RTVSPropertyOp3
 70
     0
102
RTVSPropertyOp4
 70
     0
102
RTVSPropertyOp5
 70
     0
102
RTVSPropertyOp6
 70
     0
102
RTVSPropertyOp7
 70
     0
102
RTVSPropertyOp8
 70
     0
102
RTVSPropertyOp9
 70
     0
102
RTVSPropertyOp10
 70
     0
102
RTVSPropertyOp11
 70
     0
102
RTVSPropertyOp12
 70
     0
102
RTVSPropertyOp13
 70
     0
102
RTVSPropertyOp14
 70
     2
102
RTVSPropertyOp15
 70
     0
102
RTVSPropertyOp16
 70
     0
102
RTVSPropertyOp17
 70
     0
102
RTVSPropertyOp18
 70
     0
102
RTVSPropertyOp19
 70
     0
102
RTVSPropertyOp20
 70
     0
102
RTVSPropertyOp21
 70
     0
102
RTVSPropertyOp22
 70
     0
102
RTVSPropertyOp23
 70
     0
102
RTVSPropertyOp24
 70
     0
102
RTVSPropertyOp25
 70
     0
102
RTVSPropertyOp26
 70
     0
102
RTVSPropertyOp27
 70
     0
102
RTVSPropertyOp28
 70
     0
102
RTVSPropertyOp29
 70
     0
102
RTVSPropertyOp30
 70
     0
102
RTVSPropertyOp31
 70
     0
102
RTVSPropertyOp32
 70
     0
102
RTVSPropertyOp33
 70
     0
102
RTVSPropertyOp34
 70
     0
102
RTVSPropertyOp35
 70
     0
102
RTVSPropertyOp36
 70
     0
102
RTVSPropertyOp37
 70
     0
102
RTVSPropertyOp38
 70
     0
102
RTVSPropertyOp39
 70
     0
102
RTVSPropertyOp40
 70
     0
102
RTVSPropertyOp41
 70
     0
102
RTVSPropertyOp42
 70
     0
102
RTVSPropertyOp43
 70
     0
102
RTVSPropertyOp44
 70
     0
102
RTVSPropertyOp45
 70
     0
102
RTVSPropertyOp46
 70
     0
102
RTVSPropertyOp47
 70
     0
102
RTVSPropertyOp48
 70
     0
102
RTVSPropertyOp49
 70
     0
102
RTVSPropertyOp50
 70
     0
102
RTVSPropertyOp51
 70
     0
102
RTVSPropertyOp52
 70
     0
102
RTVSPropertyOp53
 70
     0
102
RTVSPropertyOp54
 70
     0
102
RTVSPropertyOp55
 70
     0
102
RTVSPropertyOp56
 70
     0
102
RTVSPropertyOp57
 70
     0
102
RTVSPost2010Prop28
280
     0
102
RTVSPost2010PropOp28
 70
     0
102
RTVSPost2010Prop29
280
     1
102
RTVSPost2010PropOp29
 70
     0
102
RTVSPost2010Prop30
280
     1
102
RTVSPost2010PropOp30
 70
     0
102
RTVSPost2010Prop31
280
     0
102
RTVSPost2010PropOp31
 70
     0
102
RTVSPost2010Prop32
280
     0
102
RTVSPost2010PropOp32
 70
     0
102
RTVSPost2010Prop33
280
     0
102
RTVSPost2010PropOp33
 70
     0
102
RTVSPost2010Prop34
280
     0
102
RTVSPost2010PropOp34
 70
     0
102
RTVSPost2010Prop35
280
     0
102
RTVSPost2010PropOp35
 70
     0
102
RTVSPost2010Prop36
280
     0
102
RTVSPost2010PropOp36
 70
     0
102
RTVSPost2010Prop37
 90
       50
102
RTVSPost2010PropOp37
 70
     0
102
RTVSPost2010Prop38
140
0.0
102
RTVSPost2010PropOp38
 70
     0
102
RTVSPost2010Prop39
140
1.0
102
RTVSPost2010PropOp39
 70
     0
102
RTVSPost2010Prop40
 90
        0
102
RTVSPost2010PropOp40
 70
     0
102
RTVSPost2010Prop41ColorIndex
 90
      178
102
RTVSPost2010Prop41ColorRGB
 90
        0
102
RTVSPost2010PropOp41
 70
     0
102
RTVSPost2010Prop42
 90
       50
102
RTVSPost2010PropOp42
 70
     0
102
RTVSPost2010Prop43
 90
        3
102
RTVSPost2010PropOp43
 70
     0
102
RTVSPost2010Prop44ColorIndex
 90
        5
102
RTVSPost2010Prop44ColorRGB
 90
      255
102
RTVSPost2010PropOp44
 70
     0
102
RTVSPost2010Prop45
280
     0
102
RTVSPost2010PropOp45
 70
     0
102
RTVSPost2010Prop46
 90
       50
102
RTVSPost2010PropOp46
 70
     0
102
RTVSPost2010Prop47
 90
       50
102
RTVSPost2010PropOp47
 70
     0
102
RTVSPost2010Prop48
 90
       50
102
RTVSPost2010PropOp48
 70
     0
102
RTVSPost2010Prop49
280
     0
102
RTVSPost2010PropOp49
 70
     0
102
RTVSPost2010Prop50
 90
       50
102
RTVSPost2010PropOp50
 70
     0
102
RTVSPost2010Prop51ColorIndex
 90
      256
102
RTVSPost2010Prop51ColorRGB
 90
-16777216
102
RTVSPost2010PropOp51
 70
     0
102
RTVSPost2010Prop52
140
1.0
102
RTVSPost2010PropOp52
 70
     0
102
RTVSPost2010Prop53
 90
        2
102
RTVSPost2010PropOp53
 70
     0
102
RTVSPost2010Prop54
  1
strokes_ogs.tif
102
RTVSPost2010PropOp54
 70
     0
102
RTVSPost2010Prop55
280
     0
102
RTVSPost2010PropOp55
 70
     0
102
RTVSPost2010Prop56
140
1.0
102
RTVSPost2010PropOp56
 70
     0
102
RTVSPost2010Prop57
140
1.0
102
RTVSPost2010PropOp57
 70
     0
  0
XRECORD
  5
3A8
102
{ACAD_REACTORS
330
3A7
102
}
330
3A7
100
AcDbXrecord
280
     1
102
RTVSPropertyOp0
 70
     1
102
RTVSPropertyOp1
 70
     1
102
RTVSPropertyOp2
 70
     1
102
RTVSPropertyOp3
 70
     1
102
RTVSPropertyOp4
 70
     1
102
RTVSPropertyOp5
 70
     1
102
RTVSPropertyOp6
 70
     1
102
RTVSPropertyOp7
 70
     1
102
RTVSPropertyOp8
 70
     1
102
RTVSPropertyOp9
 70
     1
102
RTVSPropertyOp10
 70
     1
102
RTVSPropertyOp11
 70
     1
102
RTVSPropertyOp12
 70
     1
102
RTVSPropertyOp13
 70
     1
102
RTVSPropertyOp14
 70
     1
102
RTVSPropertyOp15
 70
     1
102
RTVSPropertyOp16
 70
     1
102
RTVSPropertyOp17
 70
     1
102
RTVSPropertyOp18
 70
     1
102
RTVSPropertyOp19
 70
     1
102
RTVSPropertyOp20
 70
     1
102
RTVSPropertyOp21
 70
     1
102
RTVSPropertyOp22
 70
     1
102
RTVSPropertyOp23
 70
     1
102
RTVSPropertyOp24
 70
     1
102
RTVSPropertyOp25
 70
     1
102
RTVSPropertyOp26
 70
     1
102
RTVSPropertyOp27
 70
     1
102
RTVSPropertyOp28
 70
     1
102
RTVSPropertyOp29
 70
     1
102
RTVSPropertyOp30
 70
     1
102
RTVSPropertyOp31
 70
     1
102
RTVSPropertyOp32
 70
     1
102
RTVSPropertyOp33
 70
     1
102
RTVSPropertyOp34
 70
     1
102
RTVSPropertyOp35
 70
     1
102
RTVSPropertyOp36
 70
     1
102
RTVSPropertyOp37
 70
     1
102
RTVSPropertyOp38
 70
     1
102
RTVSPropertyOp39
 70
     1
102
RTVSPropertyOp40
 70
     1
102
RTVSPropertyOp41
 70
     1
102
RTVSPropertyOp42
 70
     1
102
RTVSPropertyOp43
 70
     1
102
RTVSPropertyOp44
 70
     1
102
RTVSPropertyOp45
 70
     1
102
RTVSPropertyOp46
 70
     1
102
RTVSPropertyOp47
 70
     1
102
RTVSPropertyOp48
 70
     1
102
RTVSPropertyOp49
 70
     1
102
RTVSPropertyOp50
 70
     1
102
RTVSPropertyOp51
 70
     0
102
RTVSPropertyOp52
 70
     0
102
RTVSPropertyOp53
 70
     1
102
RTVSPropertyOp54
 70
     1
102
RTVSPropertyOp55
 70
     1
102
RTVSPropertyOp56
 70
     1
102
RTVSPropertyOp57
 70
     1
102
RTVSPost2010Prop28
280
     0
102
RTVSPost2010PropOp28
 70
     1
102
RTVSPost2010Prop29
280
     1
102
RTVSPost2010PropOp29
 70
     1
102
RTVSPost2010Prop30
280
     1
102
RTVSPost2010PropOp30
 70
     1
102
RTVSPost2010Prop31
280
     0
102
RTVSPost2010PropOp31
 70
     1
102
RTVSPost2010Prop32
280
     0
102
RTVSPost2010PropOp32
 70
     1
102
RTVSPost2010Prop33
280
     0
102
RTVSPost2010PropOp33
 70
     1
102
RTVSPost2010Prop34
280
     0
102
RTVSPost2010PropOp34
 70
     1
102
RTVSPost2010Prop35
280
     0
102
RTVSPost2010PropOp35
 70
     1
102
RTVSPost2010Prop36
280
     0
102
RTVSPost2010PropOp36
 70
     1
102
RTVSPost2010Prop37
 90
       50
102
RTVSPost2010PropOp37
 70
     1
102
RTVSPost2010Prop38
140
0.0
102
RTVSPost2010PropOp38
 70
     1
102
RTVSPost2010Prop39
140
1.0
102
RTVSPost2010PropOp39
 70
     1
102
RTVSPost2010Prop40
 90
        0
102
RTVSPost2010PropOp40
 70
     1
102
RTVSPost2010Prop41ColorIndex
 90
      178
102
RTVSPost2010Prop41ColorRGB
 90
        0
102
RTVSPost2010PropOp41
 70
     1
102
RTVSPost2010Prop42
 90
       50
102
RTVSPost2010PropOp42
 70
     1
102
RTVSPost2010Prop43
 90
        3
102
RTVSPost2010PropOp43
 70
     1
102
RTVSPost2010Prop44ColorIndex
 90
        5
102
RTVSPost2010Prop44ColorRGB
 90
      255
102
RTVSPost2010PropOp44
 70
     1
102
RTVSPost2010Prop45
280
     0
102
RTVSPost2010PropOp45
 70
     1
102
RTVSPost2010Prop46
 90
       50
102
RTVSPost2010PropOp46
 70
     1
102
RTVSPost2010Prop47
 90
       50
102
RTVSPost2010PropOp47
 70
     1
102
RTVSPost2010Prop48
 90
       50
102
RTVSPost2010PropOp48
 70
     1
102
RTVSPost2010Prop49
280
     0
102
RTVSPost2010PropOp49
 70
     1
102
RTVSPost2010Prop50
 90
       50
102
RTVSPost2010PropOp50
 70
     1
102
RTVSPost2010Prop51ColorIndex
 90
      256
102
RTVSPost2010Prop51ColorRGB
 90
-16777216
102
RTVSPost2010PropOp51
 70
     0
102
RTVSPost2010Prop52
140
1.0
102
RTVSPost2010PropOp52
 70
     0
102
RTVSPost2010Prop53
 90
        2
102
RTVSPost2010PropOp53
 70
     1
102
RTVSPost2010Prop54
  1
strokes_ogs.tif
102
RTVSPost2010PropOp54
 70
     1
102
RTVSPost2010Prop55
280
     0
102
RTVSPost2010PropOp55
 70
     1
102
RTVSPost2010Prop56
140
1.0
102
RTVSPost2010PropOp56
 70
     1
102
RTVSPost2010Prop57
140
1.0
102
RTVSPost2010PropOp57
 70
     1
  0
XRECORD
  5
38C
102
{ACAD_REACTORS
330
38B
102
}
330
38B
100
AcDbXrecord
280
     1
102
RTVSPropertyOp0
 70
     1
102
RTVSPropertyOp1
 70
     1
102
RTVSPropertyOp2
 70
     1
102
RTVSPropertyOp3
 70
     1
102
RTVSPropertyOp4
 70
     1
102
RTVSPropertyOp5
 70
     1
102
RTVSPropertyOp6
 70
     1
102
RTVSPropertyOp7
 70
     1
102
RTVSPropertyOp8
 70
     1
102
RTVSPropertyOp9
 70
     1
102
RTVSPropertyOp10
 70
     1
102
RTVSPropertyOp11
 70
     1
102
RTVSPropertyOp12
 70
     1
102
RTVSPropertyOp13
 70
     1
102
RTVSPropertyOp14
 70
     1
102
RTVSPropertyOp15
 70
     1
102
RTVSPropertyOp16
 70
     1
102
RTVSPropertyOp17
 70
     1
102
RTVSPropertyOp18
 70
     1
102
RTVSPropertyOp19
 70
     1
102
RTVSPropertyOp20
 70
     1
102
RTVSPropertyOp21
 70
     1
102
RTVSPropertyOp22
 70
     1
102
RTVSPropertyOp23
 70
     1
102
RTVSPropertyOp24
 70
     1
102
RTVSPropertyOp25
 70
     1
102
RTVSPropertyOp26
 70
     1
102
RTVSPropertyOp27
 70
     1
102
RTVSPropertyOp28
 70
     1
102
RTVSPropertyOp29
 70
     1
102
RTVSPropertyOp30
 70
     1
102
RTVSPropertyOp31
 70
     1
102
RTVSPropertyOp32
 70
     1
102
RTVSPropertyOp33
 70
     1
102
RTVSPropertyOp34
 70
     1
102
RTVSPropertyOp35
 70
     1
102
RTVSPropertyOp36
 70
     1
102
RTVSPropertyOp37
 70
     1
102
RTVSPropertyOp38
 70
     1
102
RTVSPropertyOp39
 70
     1
102
RTVSPropertyOp40
 70
     1
102
RTVSPropertyOp41
 70
     1
102
RTVSPropertyOp42
 70
     1
102
RTVSPropertyOp43
 70
     1
102
RTVSPropertyOp44
 70
     1
102
RTVSPropertyOp45
 70
     1
102
RTVSPropertyOp46
 70
     1
102
RTVSPropertyOp47
 70
     1
102
RTVSPropertyOp48
 70
     1
102
RTVSPropertyOp49
 70
     1
102
RTVSPropertyOp50
 70
     1
102
RTVSPropertyOp51
 70
     0
102
RTVSPropertyOp52
 70
     0
102
RTVSPropertyOp53
 70
     1
102
RTVSPropertyOp54
 70
     1
102
RTVSPropertyOp55
 70
     1
102
RTVSPropertyOp56
 70
     1
102
RTVSPropertyOp57
 70
     1
102
RTVSPost2010Prop28
280
     0
102
RTVSPost2010PropOp28
 70
     1
102
RTVSPost2010Prop29
280
     1
102
RTVSPost2010PropOp29
 70
     1
102
RTVSPost2010Prop30
280
     1
102
RTVSPost2010PropOp30
 70
     1
102
RTVSPost2010Prop31
280
     0
102
RTVSPost2010PropOp31
 70
     1
102
RTVSPost2010Prop32
280
     0
102
RTVSPost2010PropOp32
 70
     1
102
RTVSPost2010Prop33
280
     0
102
RTVSPost2010PropOp33
 70
     1
102
RTVSPost2010Prop34
280
     0
102
RTVSPost2010PropOp34
 70
     1
102
RTVSPost2010Prop35
280
     0
102
RTVSPost2010PropOp35
 70
     1
102
RTVSPost2010Prop36
280
     0
102
RTVSPost2010PropOp36
 70
     1
102
RTVSPost2010Prop37
 90
       50
102
RTVSPost2010PropOp37
 70
     1
102
RTVSPost2010Prop38
140
0.0
102
RTVSPost2010PropOp38
 70
     1
102
RTVSPost2010Prop39
140
1.0
102
RTVSPost2010PropOp39
 70
     1
102
RTVSPost2010Prop40
 90
        0
102
RTVSPost2010PropOp40
 70
     1
102
RTVSPost2010Prop41ColorIndex
 90
      178
102
RTVSPost2010Prop41ColorRGB
 90
        0
102
RTVSPost2010PropOp41
 70
     1
102
RTVSPost2010Prop42
 90
       50
102
RTVSPost2010PropOp42
 70
     1
102
RTVSPost2010Prop43
 90
        3
102
RTVSPost2010PropOp43
 70
     1
102
RTVSPost2010Prop44ColorIndex
 90
        5
102
RTVSPost2010Prop44ColorRGB
 90
      255
102
RTVSPost2010PropOp44
 70
     1
102
RTVSPost2010Prop45
280
     0
102
RTVSPost2010PropOp45
 70
     1
102
RTVSPost2010Prop46
 90
       50
102
RTVSPost2010PropOp46
 70
     1
102
RTVSPost2010Prop47
 90
       50
102
RTVSPost2010PropOp47
 70
     1
102
RTVSPost2010Prop48
 90
       50
102
RTVSPost2010PropOp48
 70
     1
102
RTVSPost2010Prop49
280
     0
102
RTVSPost2010PropOp49
 70
     1
102
RTVSPost2010Prop50
 90
       50
102
RTVSPost2010PropOp50
 70
     1
102
RTVSPost2010Prop51ColorIndex
 90
      256
102
RTVSPost2010Prop51ColorRGB
 90
-16777216
102
RTVSPost2010PropOp51
 70
     0
102
RTVSPost2010Prop52
140
1.0
102
RTVSPost2010PropOp52
 70
     0
102
RTVSPost2010Prop53
 90
        2
102
RTVSPost2010PropOp53
 70
     1
102
RTVSPost2010Prop54
  1
strokes_ogs.tif
102
RTVSPost2010PropOp54
 70
     1
102
RTVSPost2010Prop55
280
     0
102
RTVSPost2010PropOp55
 70
     1
102
RTVSPost2010Prop56
140
1.0
102
RTVSPost2010PropOp56
 70
     1
102
RTVSPost2010Prop57
140
1.0
102
RTVSPost2010PropOp57
 70
     1
  0
XRECORD
  5
38E
102
{ACAD_REACTORS
330
38D
102
}
330
38D
100
AcDbXrecord
280
     1
102
RTVSPropertyOp0
 70
     1
102
RTVSPropertyOp1
 70
     1
102
RTVSPropertyOp2
 70
     1
102
RTVSPropertyOp3
 70
     1
102
RTVSPropertyOp4
 70
     1
102
RTVSPropertyOp5
 70
     1
102
RTVSPropertyOp6
 70
     1
102
RTVSPropertyOp7
 70
     1
102
RTVSPropertyOp8
 70
     1
102
RTVSPropertyOp9
 70
     1
102
RTVSPropertyOp10
 70
     1
102
RTVSPropertyOp11
 70
     1
102
RTVSPropertyOp12
 70
     1
102
RTVSPropertyOp13
 70
     1
102
RTVSPropertyOp14
 70
     1
102
RTVSPropertyOp15
 70
     1
102
RTVSPropertyOp16
 70
     1
102
RTVSPropertyOp17
 70
     1
102
RTVSPropertyOp18
 70
     1
102
RTVSPropertyOp19
 70
     1
102
RTVSPropertyOp20
 70
     1
102
RTVSPropertyOp21
 70
     1
102
RTVSPropertyOp22
 70
     1
102
RTVSPropertyOp23
 70
     1
102
RTVSPropertyOp24
 70
     1
102
RTVSPropertyOp25
 70
     1
102
RTVSPropertyOp26
 70
     1
102
RTVSPropertyOp27
 70
     1
102
RTVSPropertyOp28
 70
     1
102
RTVSPropertyOp29
 70
     1
102
RTVSPropertyOp30
 70
     1
102
RTVSPropertyOp31
 70
     1
102
RTVSPropertyOp32
 70
     1
102
RTVSPropertyOp33
 70
     1
102
RTVSPropertyOp34
 70
     1
102
RTVSPropertyOp35
 70
     1
102
RTVSPropertyOp36
 70
     1
102
RTVSPropertyOp37
 70
     1
102
RTVSPropertyOp38
 70
     1
102
RTVSPropertyOp39
 70
     1
102
RTVSPropertyOp40
 70
     1
102
RTVSPropertyOp41
 70
     1
102
RTVSPropertyOp42
 70
     1
102
RTVSPropertyOp43
 70
     1
102
RTVSPropertyOp44
 70
     1
102
RTVSPropertyOp45
 70
     1
102
RTVSPropertyOp46
 70
     1
102
RTVSPropertyOp47
 70
     1
102
RTVSPropertyOp48
 70
     1
102
RTVSPropertyOp49
 70
     1
102
RTVSPropertyOp50
 70
     1
102
RTVSPropertyOp51
 70
     0
102
RTVSPropertyOp52
 70
     0
102
RTVSPropertyOp53
 70
     1
102
RTVSPropertyOp54
 70
     1
102
RTVSPropertyOp55
 70
     1
102
RTVSPropertyOp56
 70
     1
102
RTVSPropertyOp57
 70
     1
102
RTVSPost2010Prop28
280
     0
102
RTVSPost2010PropOp28
 70
     1
102
RTVSPost2010Prop29
280
     1
102
RTVSPost2010PropOp29
 70
     1
102
RTVSPost2010Prop30
280
     1
102
RTVSPost2010PropOp30
 70
     1
102
RTVSPost2010Prop31
280
     0
102
RTVSPost2010PropOp31
 70
     1
102
RTVSPost2010Prop32
280
     0
102
RTVSPost2010PropOp32
 70
     1
102
RTVSPost2010Prop33
280
     0
102
RTVSPost2010PropOp33
 70
     1
102
RTVSPost2010Prop34
280
     0
102
RTVSPost2010PropOp34
 70
     1
102
RTVSPost2010Prop35
280
     0
102
RTVSPost2010PropOp35
 70
     1
102
RTVSPost2010Prop36
280
     0
102
RTVSPost2010PropOp36
 70
     1
102
RTVSPost2010Prop37
 90
       50
102
RTVSPost2010PropOp37
 70
     1
102
RTVSPost2010Prop38
140
0.0
102
RTVSPost2010PropOp38
 70
     1
102
RTVSPost2010Prop39
140
1.0
102
RTVSPost2010PropOp39
 70
     1
102
RTVSPost2010Prop40
 90
        0
102
RTVSPost2010PropOp40
 70
     1
102
RTVSPost2010Prop41ColorIndex
 90
      178
102
RTVSPost2010Prop41ColorRGB
 90
        0
102
RTVSPost2010PropOp41
 70
     1
102
RTVSPost2010Prop42
 90
       50
102
RTVSPost2010PropOp42
 70
     1
102
RTVSPost2010Prop43
 90
        3
102
RTVSPost2010PropOp43
 70
     1
102
RTVSPost2010Prop44ColorIndex
 90
        5
102
RTVSPost2010Prop44ColorRGB
 90
      255
102
RTVSPost2010PropOp44
 70
     1
102
RTVSPost2010Prop45
280
     0
102
RTVSPost2010PropOp45
 70
     1
102
RTVSPost2010Prop46
 90
       50
102
RTVSPost2010PropOp46
 70
     1
102
RTVSPost2010Prop47
 90
       50
102
RTVSPost2010PropOp47
 70
     1
102
RTVSPost2010Prop48
 90
       50
102
RTVSPost2010PropOp48
 70
     1
102
RTVSPost2010Prop49
280
     0
102
RTVSPost2010PropOp49
 70
     1
102
RTVSPost2010Prop50
 90
       50
102
RTVSPost2010PropOp50
 70
     1
102
RTVSPost2010Prop51ColorIndex
 90
      256
102
RTVSPost2010Prop51ColorRGB
 90
-16777216
102
RTVSPost2010PropOp51
 70
     0
102
RTVSPost2010Prop52
140
1.0
102
RTVSPost2010PropOp52
 70
     0
102
RTVSPost2010Prop53
 90
        2
102
RTVSPost2010PropOp53
 70
     1
102
RTVSPost2010Prop54
  1
strokes_ogs.tif
102
RTVSPost2010PropOp54
 70
     1
102
RTVSPost2010Prop55
280
     0
102
RTVSPost2010PropOp55
 70
     1
102
RTVSPost2010Prop56
140
1.0
102
RTVSPost2010PropOp56
 70
     1
102
RTVSPost2010Prop57
140
1.0
102
RTVSPost2010PropOp57
 70
     1
  0
XRECORD
  5
390
102
{ACAD_REACTORS
330
38F
102
}
330
38F
100
AcDbXrecord
280
     1
102
RTVSPropertyOp0
 70
     1
102
RTVSPropertyOp1
 70
     1
102
RTVSPropertyOp2
 70
     1
102
RTVSPropertyOp3
 70
     1
102
RTVSPropertyOp4
 70
     1
102
RTVSPropertyOp5
 70
     1
102
RTVSPropertyOp6
 70
     1
102
RTVSPropertyOp7
 70
     1
102
RTVSPropertyOp8
 70
     1
102
RTVSPropertyOp9
 70
     1
102
RTVSPropertyOp10
 70
     1
102
RTVSPropertyOp11
 70
     1
102
RTVSPropertyOp12
 70
     1
102
RTVSPropertyOp13
 70
     1
102
RTVSPropertyOp14
 70
     1
102
RTVSPropertyOp15
 70
     1
102
RTVSPropertyOp16
 70
     1
102
RTVSPropertyOp17
 70
     1
102
RTVSPropertyOp18
 70
     1
102
RTVSPropertyOp19
 70
     1
102
RTVSPropertyOp20
 70
     1
102
RTVSPropertyOp21
 70
     1
102
RTVSPropertyOp22
 70
     1
102
RTVSPropertyOp23
 70
     1
102
RTVSPropertyOp24
 70
     1
102
RTVSPropertyOp25
 70
     1
102
RTVSPropertyOp26
 70
     1
102
RTVSPropertyOp27
 70
     1
102
RTVSPropertyOp28
 70
     1
102
RTVSPropertyOp29
 70
     1
102
RTVSPropertyOp30
 70
     1
102
RTVSPropertyOp31
 70
     1
102
RTVSPropertyOp32
 70
     1
102
RTVSPropertyOp33
 70
     1
102
RTVSPropertyOp34
 70
     1
102
RTVSPropertyOp35
 70
     1
102
RTVSPropertyOp36
 70
     1
102
RTVSPropertyOp37
 70
     1
102
RTVSPropertyOp38
 70
     1
102
RTVSPropertyOp39
 70
     1
102
RTVSPropertyOp40
 70
     1
102
RTVSPropertyOp41
 70
     1
102
RTVSPropertyOp42
 70
     1
102
RTVSPropertyOp43
 70
     1
102
RTVSPropertyOp44
 70
     1
102
RTVSPropertyOp45
 70
     1
102
RTVSPropertyOp46
 70
     1
102
RTVSPropertyOp47
 70
     1
102
RTVSPropertyOp48
 70
     1
102
RTVSPropertyOp49
 70
     1
102
RTVSPropertyOp50
 70
     1
102
RTVSPropertyOp51
 70
     0
102
RTVSPropertyOp52
 70
     0
102
RTVSPropertyOp53
 70
     1
102
RTVSPropertyOp54
 70
     1
102
RTVSPropertyOp55
 70
     1
102
RTVSPropertyOp56
 70
     1
102
RTVSPropertyOp57
 70
     1
102
RTVSPost2010Prop28
280
     0
102
RTVSPost2010PropOp28
 70
     1
102
RTVSPost2010Prop29
280
     1
102
RTVSPost2010PropOp29
 70
     1
102
RTVSPost2010Prop30
280
     1
102
RTVSPost2010PropOp30
 70
     1
102
RTVSPost2010Prop31
280
     0
102
RTVSPost2010PropOp31
 70
     1
102
RTVSPost2010Prop32
280
     0
102
RTVSPost2010PropOp32
 70
     1
102
RTVSPost2010Prop33
280
     0
102
RTVSPost2010PropOp33
 70
     1
102
RTVSPost2010Prop34
280
     0
102
RTVSPost2010PropOp34
 70
     1
102
RTVSPost2010Prop35
280
     0
102
RTVSPost2010PropOp35
 70
     1
102
RTVSPost2010Prop36
280
     0
102
RTVSPost2010PropOp36
 70
     1
102
RTVSPost2010Prop37
 90
       50
102
RTVSPost2010PropOp37
 70
     1
102
RTVSPost2010Prop38
140
0.0
102
RTVSPost2010PropOp38
 70
     1
102
RTVSPost2010Prop39
140
1.0
102
RTVSPost2010PropOp39
 70
     1
102
RTVSPost2010Prop40
 90
        0
102
RTVSPost2010PropOp40
 70
     1
102
RTVSPost2010Prop41ColorIndex
 90
      178
102
RTVSPost2010Prop41ColorRGB
 90
        0
102
RTVSPost2010PropOp41
 70
     1
102
RTVSPost2010Prop42
 90
       50
102
RTVSPost2010PropOp42
 70
     1
102
RTVSPost2010Prop43
 90
        3
102
RTVSPost2010PropOp43
 70
     1
102
RTVSPost2010Prop44ColorIndex
 90
        5
102
RTVSPost2010Prop44ColorRGB
 90
      255
102
RTVSPost2010PropOp44
 70
     1
102
RTVSPost2010Prop45
280
     0
102
RTVSPost2010PropOp45
 70
     1
102
RTVSPost2010Prop46
 90
       50
102
RTVSPost2010PropOp46
 70
     1
102
RTVSPost2010Prop47
 90
       50
102
RTVSPost2010PropOp47
 70
     1
102
RTVSPost2010Prop48
 90
       50
102
RTVSPost2010PropOp48
 70
     1
102
RTVSPost2010Prop49
280
     0
102
RTVSPost2010PropOp49
 70
     1
102
RTVSPost2010Prop50
 90
       50
102
RTVSPost2010PropOp50
 70
     1
102
RTVSPost2010Prop51ColorIndex
 90
      256
102
RTVSPost2010Prop51ColorRGB
 90
-16777216
102
RTVSPost2010PropOp51
 70
     0
102
RTVSPost2010Prop52
140
1.0
102
RTVSPost2010PropOp52
 70
     0
102
RTVSPost2010Prop53
 90
        2
102
RTVSPost2010PropOp53
 70
     1
102
RTVSPost2010Prop54
  1
strokes_ogs.tif
102
RTVSPost2010PropOp54
 70
     1
102
RTVSPost2010Prop55
280
     0
102
RTVSPost2010PropOp55
 70
     1
102
RTVSPost2010Prop56
140
1.0
102
RTVSPost2010PropOp56
 70
     1
102
RTVSPost2010Prop57
140
1.0
102
RTVSPost2010PropOp57
 70
     1
  0
XRECORD
  5
392
102
{ACAD_REACTORS
330
391
102
}
330
391
100
AcDbXrecord
280
     1
102
RTVSPropertyOp0
 70
     1
102
RTVSPropertyOp1
 70
     1
102
RTVSPropertyOp2
 70
     1
102
RTVSPropertyOp3
 70
     1
102
RTVSPropertyOp4
 70
     1
102
RTVSPropertyOp5
 70
     1
102
RTVSPropertyOp6
 70
     1
102
RTVSPropertyOp7
 70
     1
102
RTVSPropertyOp8
 70
     1
102
RTVSPropertyOp9
 70
     1
102
RTVSPropertyOp10
 70
     1
102
RTVSPropertyOp11
 70
     1
102
RTVSPropertyOp12
 70
     1
102
RTVSPropertyOp13
 70
     1
102
RTVSPropertyOp14
 70
     1
102
RTVSPropertyOp15
 70
     1
102
RTVSPropertyOp16
 70
     1
102
RTVSPropertyOp17
 70
     1
102
RTVSPropertyOp18
 70
     1
102
RTVSPropertyOp19
 70
     1
102
RTVSPropertyOp20
 70
     1
102
RTVSPropertyOp21
 70
     1
102
RTVSPropertyOp22
 70
     1
102
RTVSPropertyOp23
 70
     1
102
RTVSPropertyOp24
 70
     1
102
RTVSPropertyOp25
 70
     1
102
RTVSPropertyOp26
 70
     1
102
RTVSPropertyOp27
 70
     1
102
RTVSPropertyOp28
 70
     1
102
RTVSPropertyOp29
 70
     1
102
RTVSPropertyOp30
 70
     1
102
RTVSPropertyOp31
 70
     1
102
RTVSPropertyOp32
 70
     1
102
RTVSPropertyOp33
 70
     1
102
RTVSPropertyOp34
 70
     1
102
RTVSPropertyOp35
 70
     1
102
RTVSPropertyOp36
 70
     1
102
RTVSPropertyOp37
 70
     1
102
RTVSPropertyOp38
 70
     1
102
RTVSPropertyOp39
 70
     1
102
RTVSPropertyOp40
 70
     1
102
RTVSPropertyOp41
 70
     1
102
RTVSPropertyOp42
 70
     1
102
RTVSPropertyOp43
 70
     1
102
RTVSPropertyOp44
 70
     1
102
RTVSPropertyOp45
 70
     1
102
RTVSPropertyOp46
 70
     1
102
RTVSPropertyOp47
 70
     1
102
RTVSPropertyOp48
 70
     1
102
RTVSPropertyOp49
 70
     1
102
RTVSPropertyOp50
 70
     1
102
RTVSPropertyOp51
 70
     0
102
RTVSPropertyOp52
 70
     0
102
RTVSPropertyOp53
 70
     1
102
RTVSPropertyOp54
 70
     1
102
RTVSPropertyOp55
 70
     1
102
RTVSPropertyOp56
 70
     1
102
RTVSPropertyOp57
 70
     1
102
RTVSPost2010Prop28
280
     0
102
RTVSPost2010PropOp28
 70
     1
102
RTVSPost2010Prop29
280
     1
102
RTVSPost2010PropOp29
 70
     1
102
RTVSPost2010Prop30
280
     1
102
RTVSPost2010PropOp30
 70
     1
102
RTVSPost2010Prop31
280
     0
102
RTVSPost2010PropOp31
 70
     1
102
RTVSPost2010Prop32
280
     0
102
RTVSPost2010PropOp32
 70
     1
102
RTVSPost2010Prop33
280
     0
102
RTVSPost2010PropOp33
 70
     1
102
RTVSPost2010Prop34
280
     0
102
RTVSPost2010PropOp34
 70
     1
102
RTVSPost2010Prop35
280
     0
102
RTVSPost2010PropOp35
 70
     1
102
RTVSPost2010Prop36
280
     0
102
RTVSPost2010PropOp36
 70
     1
102
RTVSPost2010Prop37
 90
       50
102
RTVSPost2010PropOp37
 70
     1
102
RTVSPost2010Prop38
140
0.0
102
RTVSPost2010PropOp38
 70
     1
102
RTVSPost2010Prop39
140
1.0
102
RTVSPost2010PropOp39
 70
     1
102
RTVSPost2010Prop40
 90
        0
102
RTVSPost2010PropOp40
 70
     1
102
RTVSPost2010Prop41ColorIndex
 90
      178
102
RTVSPost2010Prop41ColorRGB
 90
        0
102
RTVSPost2010PropOp41
 70
     1
102
RTVSPost2010Prop42
 90
       50
102
RTVSPost2010PropOp42
 70
     1
102
RTVSPost2010Prop43
 90
        3
102
RTVSPost2010PropOp43
 70
     1
102
RTVSPost2010Prop44ColorIndex
 90
        5
102
RTVSPost2010Prop44ColorRGB
 90
      255
102
RTVSPost2010PropOp44
 70
     1
102
RTVSPost2010Prop45
280
     0
102
RTVSPost2010PropOp45
 70
     1
102
RTVSPost2010Prop46
 90
       50
102
RTVSPost2010PropOp46
 70
     1
102
RTVSPost2010Prop47
 90
       50
102
RTVSPost2010PropOp47
 70
     1
102
RTVSPost2010Prop48
 90
       50
102
RTVSPost2010PropOp48
 70
     1
102
RTVSPost2010Prop49
280
     0
102
RTVSPost2010PropOp49
 70
     1
102
RTVSPost2010Prop50
 90
       50
102
RTVSPost2010PropOp50
 70
     1
102
RTVSPost2010Prop51ColorIndex
 90
      256
102
RTVSPost2010Prop51ColorRGB
 90
-16777216
102
RTVSPost2010PropOp51
 70
     0
102
RTVSPost2010Prop52
140
1.0
102
RTVSPost2010PropOp52
 70
     0
102
RTVSPost2010Prop53
 90
        2
102
RTVSPost2010PropOp53
 70
     1
102
RTVSPost2010Prop54
  1
strokes_ogs.tif
102
RTVSPost2010PropOp54
 70
     1
102
RTVSPost2010Prop55
280
     0
102
RTVSPost2010PropOp55
 70
     1
102
RTVSPost2010Prop56
140
1.0
102
RTVSPost2010PropOp56
 70
     1
102
RTVSPost2010Prop57
140
1.0
102
RTVSPost2010PropOp57
 70
     1
  0
XRECORD
  5
398
102
{ACAD_REACTORS
330
397
102
}
330
397
100
AcDbXrecord
280
     1
102
RTVSPropertyOp0
 70
     1
102
RTVSPropertyOp1
 70
     1
102
RTVSPropertyOp2
 70
     1
102
RTVSPropertyOp3
 70
     1
102
RTVSPropertyOp4
 70
     1
102
RTVSPropertyOp5
 70
     1
102
RTVSPropertyOp6
 70
     1
102
RTVSPropertyOp7
 70
     1
102
RTVSPropertyOp8
 70
     1
102
RTVSPropertyOp9
 70
     1
102
RTVSPropertyOp10
 70
     1
102
RTVSPropertyOp11
 70
     1
102
RTVSPropertyOp12
 70
     1
102
RTVSPropertyOp13
 70
     1
102
RTVSPropertyOp14
 70
     1
102
RTVSPropertyOp15
 70
     1
102
RTVSPropertyOp16
 70
     1
102
RTVSPropertyOp17
 70
     1
102
RTVSPropertyOp18
 70
     1
102
RTVSPropertyOp19
 70
     1
102
RTVSPropertyOp20
 70
     1
102
RTVSPropertyOp21
 70
     1
102
RTVSPropertyOp22
 70
     1
102
RTVSPropertyOp23
 70
     1
102
RTVSPropertyOp24
 70
     1
102
RTVSPropertyOp25
 70
     1
102
RTVSPropertyOp26
 70
     1
102
RTVSPropertyOp27
 70
     1
102
RTVSPropertyOp28
 70
     1
102
RTVSPropertyOp29
 70
     1
102
RTVSPropertyOp30
 70
     1
102
RTVSPropertyOp31
 70
     1
102
RTVSPropertyOp32
 70
     1
102
RTVSPropertyOp33
 70
     1
102
RTVSPropertyOp34
 70
     1
102
RTVSPropertyOp35
 70
     1
102
RTVSPropertyOp36
 70
     1
102
RTVSPropertyOp37
 70
     1
102
RTVSPropertyOp38
 70
     1
102
RTVSPropertyOp39
 70
     1
102
RTVSPropertyOp40
 70
     1
102
RTVSPropertyOp41
 70
     1
102
RTVSPropertyOp42
 70
     1
102
RTVSPropertyOp43
 70
     1
102
RTVSPropertyOp44
 70
     1
102
RTVSPropertyOp45
 70
     1
102
RTVSPropertyOp46
 70
     1
102
RTVSPropertyOp47
 70
     1
102
RTVSPropertyOp48
 70
     1
102
RTVSPropertyOp49
 70
     1
102
RTVSPropertyOp50
 70
     1
102
RTVSPropertyOp51
 70
     0
102
RTVSPropertyOp52
 70
     0
102
RTVSPropertyOp53
 70
     1
102
RTVSPropertyOp54
 70
     1
102
RTVSPropertyOp55
 70
     1
102
RTVSPropertyOp56
 70
     1
102
RTVSPropertyOp57
 70
     1
102
RTVSPost2010Prop28
280
     0
102
RTVSPost2010PropOp28
 70
     1
102
RTVSPost2010Prop29
280
     1
102
RTVSPost2010PropOp29
 70
     1
102
RTVSPost2010Prop30
280
     1
102
RTVSPost2010PropOp30
 70
     1
102
RTVSPost2010Prop31
280
     0
102
RTVSPost2010PropOp31
 70
     1
102
RTVSPost2010Prop32
280
     0
102
RTVSPost2010PropOp32
 70
     1
102
RTVSPost2010Prop33
280
     0
102
RTVSPost2010PropOp33
 70
     1
102
RTVSPost2010Prop34
280
     0
102
RTVSPost2010PropOp34
 70
     1
102
RTVSPost2010Prop35
280
     0
102
RTVSPost2010PropOp35
 70
     1
102
RTVSPost2010Prop36
280
     0
102
RTVSPost2010PropOp36
 70
     1
102
RTVSPost2010Prop37
 90
       50
102
RTVSPost2010PropOp37
 70
     1
102
RTVSPost2010Prop38
140
0.0
102
RTVSPost2010PropOp38
 70
     1
102
RTVSPost2010Prop39
140
1.0
102
RTVSPost2010PropOp39
 70
     1
102
RTVSPost2010Prop40
 90
        0
102
RTVSPost2010PropOp40
 70
     1
102
RTVSPost2010Prop41ColorIndex
 90
      178
102
RTVSPost2010Prop41ColorRGB
 90
        0
102
RTVSPost2010PropOp41
 70
     1
102
RTVSPost2010Prop42
 90
       50
102
RTVSPost2010PropOp42
 70
     1
102
RTVSPost2010Prop43
 90
        3
102
RTVSPost2010PropOp43
 70
     1
102
RTVSPost2010Prop44ColorIndex
 90
        5
102
RTVSPost2010Prop44ColorRGB
 90
      255
102
RTVSPost2010PropOp44
 70
     1
102
RTVSPost2010Prop45
280
     0
102
RTVSPost2010PropOp45
 70
     1
102
RTVSPost2010Prop46
 90
       50
102
RTVSPost2010PropOp46
 70
     1
102
RTVSPost2010Prop47
 90
       50
102
RTVSPost2010PropOp47
 70
     1
102
RTVSPost2010Prop48
 90
       50
102
RTVSPost2010PropOp48
 70
     1
102
RTVSPost2010Prop49
280
     0
102
RTVSPost2010PropOp49
 70
     1
102
RTVSPost2010Prop50
 90
       50
102
RTVSPost2010PropOp50
 70
     1
102
RTVSPost2010Prop51ColorIndex
 90
      256
102
RTVSPost2010Prop51ColorRGB
 90
-16777216
102
RTVSPost2010PropOp51
 70
     0
102
RTVSPost2010Prop52
140
1.0
102
RTVSPost2010PropOp52
 70
     0
102
RTVSPost2010Prop53
 90
        2
102
RTVSPost2010PropOp53
 70
     1
102
RTVSPost2010Prop54
  1
strokes_ogs.tif
102
RTVSPost2010PropOp54
 70
     1
102
RTVSPost2010Prop55
280
     0
102
RTVSPost2010PropOp55
 70
     1
102
RTVSPost2010Prop56
140
1.0
102
RTVSPost2010PropOp56
 70
     1
102
RTVSPost2010Prop57
140
1.0
102
RTVSPost2010PropOp57
 70
     1
  0
XRECORD
  5
3AC
102
{ACAD_REACTORS
330
3AB
102
}
330
3AB
100
AcDbXrecord
280
     1
102
RTVSPropertyOp0
 70
     0
102
RTVSPropertyOp1
 70
     0
102
RTVSPropertyOp2
 70
     0
102
RTVSPropertyOp3
 70
     0
102
RTVSPropertyOp4
 70
     0
102
RTVSPropertyOp5
 70
     0
102
RTVSPropertyOp6
 70
     0
102
RTVSPropertyOp7
 70
     0
102
RTVSPropertyOp8
 70
     0
102
RTVSPropertyOp9
 70
     0
102
RTVSPropertyOp10
 70
     0
102
RTVSPropertyOp11
 70
     0
102
RTVSPropertyOp12
 70
     0
102
RTVSPropertyOp13
 70
     0
102
RTVSPropertyOp14
 70
     2
102
RTVSPropertyOp15
 70
     0
102
RTVSPropertyOp16
 70
     0
102
RTVSPropertyOp17
 70
     0
102
RTVSPropertyOp18
 70
     0
102
RTVSPropertyOp19
 70
     0
102
RTVSPropertyOp20
 70
     0
102
RTVSPropertyOp21
 70
     0
102
RTVSPropertyOp22
 70
     0
102
RTVSPropertyOp23
 70
     0
102
RTVSPropertyOp24
 70
     0
102
RTVSPropertyOp25
 70
     0
102
RTVSPropertyOp26
 70
     0
102
RTVSPropertyOp27
 70
     0
102
RTVSPropertyOp28
 70
     0
102
RTVSPropertyOp29
 70
     0
102
RTVSPropertyOp30
 70
     0
102
RTVSPropertyOp31
 70
     0
102
RTVSPropertyOp32
 70
     0
102
RTVSPropertyOp33
 70
     0
102
RTVSPropertyOp34
 70
     0
102
RTVSPropertyOp35
 70
     0
102
RTVSPropertyOp36
 70
     0
102
RTVSPropertyOp37
 70
     0
102
RTVSPropertyOp38
 70
     0
102
RTVSPropertyOp39
 70
     0
102
RTVSPropertyOp40
 70
     0
102
RTVSPropertyOp41
 70
     0
102
RTVSPropertyOp42
 70
     0
102
RTVSPropertyOp43
 70
     0
102
RTVSPropertyOp44
 70
     0
102
RTVSPropertyOp45
 70
     0
102
RTVSPropertyOp46
 70
     0
102
RTVSPropertyOp47
 70
     0
102
RTVSPropertyOp48
 70
     0
102
RTVSPropertyOp49
 70
     0
102
RTVSPropertyOp50
 70
     0
102
RTVSPropertyOp51
 70
     0
102
RTVSPropertyOp52
 70
     0
102
RTVSPropertyOp53
 70
     0
102
RTVSPropertyOp54
 70
     0
102
RTVSPropertyOp55
 70
     0
102
RTVSPropertyOp56
 70
     0
102
RTVSPropertyOp57
 70
     0
102
RTVSPost2010Prop28
280
     0
102
RTVSPost2010PropOp28
 70
     0
102
RTVSPost2010Prop29
280
     1
102
RTVSPost2010PropOp29
 70
     0
102
RTVSPost2010Prop30
280
     1
102
RTVSPost2010PropOp30
 70
     0
102
RTVSPost2010Prop31
280
     0
102
RTVSPost2010PropOp31
 70
     0
102
RTVSPost2010Prop32
280
     0
102
RTVSPost2010PropOp32
 70
     0
102
RTVSPost2010Prop33
280
     0
102
RTVSPost2010PropOp33
 70
     0
102
RTVSPost2010Prop34
280
     0
102
RTVSPost2010PropOp34
 70
     0
102
RTVSPost2010Prop35
280
     0
102
RTVSPost2010PropOp35
 70
     0
102
RTVSPost2010Prop36
280
     0
102
RTVSPost2010PropOp36
 70
     0
102
RTVSPost2010Prop37
 90
       50
102
RTVSPost2010PropOp37
 70
     0
102
RTVSPost2010Prop38
140
0.0
102
RTVSPost2010PropOp38
 70
     0
102
RTVSPost2010Prop39
140
1.0
102
RTVSPost2010PropOp39
 70
     0
102
RTVSPost2010Prop40
 90
        0
102
RTVSPost2010PropOp40
 70
     0
102
RTVSPost2010Prop41ColorIndex
 90
      178
102
RTVSPost2010Prop41ColorRGB
 90
        0
102
RTVSPost2010PropOp41
 70
     0
102
RTVSPost2010Prop42
 90
       50
102
RTVSPost2010PropOp42
 70
     0
102
RTVSPost2010Prop43
 90
        3
102
RTVSPost2010PropOp43
 70
     0
102
RTVSPost2010Prop44ColorIndex
 90
        5
102
RTVSPost2010Prop44ColorRGB
 90
      255
102
RTVSPost2010PropOp44
 70
     0
102
RTVSPost2010Prop45
280
     0
102
RTVSPost2010PropOp45
 70
     0
102
RTVSPost2010Prop46
 90
       50
102
RTVSPost2010PropOp46
 70
     0
102
RTVSPost2010Prop47
 90
       50
102
RTVSPost2010PropOp47
 70
     0
102
RTVSPost2010Prop48
 90
       50
102
RTVSPost2010PropOp48
 70
     0
102
RTVSPost2010Prop49
280
     0
102
RTVSPost2010PropOp49
 70
     0
102
RTVSPost2010Prop50
 90
       50
102
RTVSPost2010PropOp50
 70
     0
102
RTVSPost2010Prop51ColorIndex
 90
      256
102
RTVSPost2010Prop51ColorRGB
 90
-16777216
102
RTVSPost2010PropOp51
 70
     0
102
RTVSPost2010Prop52
140
1.0
102
RTVSPost2010PropOp52
 70
     0
102
RTVSPost2010Prop53
 90
        2
102
RTVSPost2010PropOp53
 70
     0
102
RTVSPost2010Prop54
  1
strokes_ogs.tif
102
RTVSPost2010PropOp54
 70
     0
102
RTVSPost2010Prop55
280
     0
102
RTVSPost2010PropOp55
 70
     0
102
RTVSPost2010Prop56
140
1.0
102
RTVSPost2010PropOp56
 70
     0
102
RTVSPost2010Prop57
140
1.0
102
RTVSPost2010PropOp57
 70
     0
  0
XRECORD
  5
3A6
102
{ACAD_REACTORS
330
3A5
102
}
330
3A5
100
AcDbXrecord
280
     1
102
RTVSPropertyOp0
 70
     1
102
RTVSPropertyOp1
 70
     1
102
RTVSPropertyOp2
 70
     1
102
RTVSPropertyOp3
 70
     1
102
RTVSPropertyOp4
 70
     1
102
RTVSPropertyOp5
 70
     1
102
RTVSPropertyOp6
 70
     1
102
RTVSPropertyOp7
 70
     1
102
RTVSPropertyOp8
 70
     1
102
RTVSPropertyOp9
 70
     1
102
RTVSPropertyOp10
 70
     1
102
RTVSPropertyOp11
 70
     1
102
RTVSPropertyOp12
 70
     1
102
RTVSPropertyOp13
 70
     1
102
RTVSPropertyOp14
 70
     1
102
RTVSPropertyOp15
 70
     1
102
RTVSPropertyOp16
 70
     1
102
RTVSPropertyOp17
 70
     1
102
RTVSPropertyOp18
 70
     1
102
RTVSPropertyOp19
 70
     1
102
RTVSPropertyOp20
 70
     1
102
RTVSPropertyOp21
 70
     1
102
RTVSPropertyOp22
 70
     1
102
RTVSPropertyOp23
 70
     1
102
RTVSPropertyOp24
 70
     1
102
RTVSPropertyOp25
 70
     1
102
RTVSPropertyOp26
 70
     1
102
RTVSPropertyOp27
 70
     1
102
RTVSPropertyOp28
 70
     1
102
RTVSPropertyOp29
 70
     1
102
RTVSPropertyOp30
 70
     1
102
RTVSPropertyOp31
 70
     1
102
RTVSPropertyOp32
 70
     1
102
RTVSPropertyOp33
 70
     1
102
RTVSPropertyOp34
 70
     1
102
RTVSPropertyOp35
 70
     1
102
RTVSPropertyOp36
 70
     1
102
RTVSPropertyOp37
 70
     1
102
RTVSPropertyOp38
 70
     1
102
RTVSPropertyOp39
 70
     1
102
RTVSPropertyOp40
 70
     1
102
RTVSPropertyOp41
 70
     1
102
RTVSPropertyOp42
 70
     1
102
RTVSPropertyOp43
 70
     1
102
RTVSPropertyOp44
 70
     1
102
RTVSPropertyOp45
 70
     1
102
RTVSPropertyOp46
 70
     1
102
RTVSPropertyOp47
 70
     1
102
RTVSPropertyOp48
 70
     1
102
RTVSPropertyOp49
 70
     1
102
RTVSPropertyOp50
 70
     1
102
RTVSPropertyOp51
 70
     0
102
RTVSPropertyOp52
 70
     0
102
RTVSPropertyOp53
 70
     1
102
RTVSPropertyOp54
 70
     1
102
RTVSPropertyOp55
 70
     1
102
RTVSPropertyOp56
 70
     1
102
RTVSPropertyOp57
 70
     1
102
RTVSPost2010Prop28
280
     0
102
RTVSPost2010PropOp28
 70
     1
102
RTVSPost2010Prop29
280
     1
102
RTVSPost2010PropOp29
 70
     1
102
RTVSPost2010Prop30
280
     1
102
RTVSPost2010PropOp30
 70
     1
102
RTVSPost2010Prop31
280
     0
102
RTVSPost2010PropOp31
 70
     1
102
RTVSPost2010Prop32
280
     0
102
RTVSPost2010PropOp32
 70
     1
102
RTVSPost2010Prop33
280
     0
102
RTVSPost2010PropOp33
 70
     1
102
RTVSPost2010Prop34
280
     0
102
RTVSPost2010PropOp34
 70
     1
102
RTVSPost2010Prop35
280
     0
102
RTVSPost2010PropOp35
 70
     1
102
RTVSPost2010Prop36
280
     0
102
RTVSPost2010PropOp36
 70
     1
102
RTVSPost2010Prop37
 90
       50
102
RTVSPost2010PropOp37
 70
     1
102
RTVSPost2010Prop38
140
0.0
102
RTVSPost2010PropOp38
 70
     1
102
RTVSPost2010Prop39
140
1.0
102
RTVSPost2010PropOp39
 70
     1
102
RTVSPost2010Prop40
 90
        0
102
RTVSPost2010PropOp40
 70
     1
102
RTVSPost2010Prop41ColorIndex
 90
      178
102
RTVSPost2010Prop41ColorRGB
 90
        0
102
RTVSPost2010PropOp41
 70
     1
102
RTVSPost2010Prop42
 90
       50
102
RTVSPost2010PropOp42
 70
     1
102
RTVSPost2010Prop43
 90
        3
102
RTVSPost2010PropOp43
 70
     1
102
RTVSPost2010Prop44ColorIndex
 90
        5
102
RTVSPost2010Prop44ColorRGB
 90
      255
102
RTVSPost2010PropOp44
 70
     1
102
RTVSPost2010Prop45
280
     0
102
RTVSPost2010PropOp45
 70
     1
102
RTVSPost2010Prop46
 90
       50
102
RTVSPost2010PropOp46
 70
     1
102
RTVSPost2010Prop47
 90
       50
102
RTVSPost2010PropOp47
 70
     1
102
RTVSPost2010Prop48
 90
       50
102
RTVSPost2010PropOp48
 70
     1
102
RTVSPost2010Prop49
280
     0
102
RTVSPost2010PropOp49
 70
     1
102
RTVSPost2010Prop50
 90
       50
102
RTVSPost2010PropOp50
 70
     1
102
RTVSPost2010Prop51ColorIndex
 90
      256
102
RTVSPost2010Prop51ColorRGB
 90
-16777216
102
RTVSPost2010PropOp51
 70
     0
102
RTVSPost2010Prop52
140
1.0
102
RTVSPost2010PropOp52
 70
     0
102
RTVSPost2010Prop53
 90
        2
102
RTVSPost2010PropOp53
 70
     1
102
RTVSPost2010Prop54
  1
strokes_ogs.tif
102
RTVSPost2010PropOp54
 70
     1
102
RTVSPost2010Prop55
280
     0
102
RTVSPost2010PropOp55
 70
     1
102
RTVSPost2010Prop56
140
1.0
102
RTVSPost2010PropOp56
 70
     1
102
RTVSPost2010Prop57
140
1.0
102
RTVSPost2010PropOp57
 70
     1
  0
XRECORD
  5
3AE
102
{ACAD_REACTORS
330
3AD
102
}
330
3AD
100
AcDbXrecord
280
     1
102
RTVSPropertyOp0
 70
     0
102
RTVSPropertyOp1
 70
     0
102
RTVSPropertyOp2
 70
     0
102
RTVSPropertyOp3
 70
     0
102
RTVSPropertyOp4
 70
     0
102
RTVSPropertyOp5
 70
     0
102
RTVSPropertyOp6
 70
     0
102
RTVSPropertyOp7
 70
     0
102
RTVSPropertyOp8
 70
     0
102
RTVSPropertyOp9
 70
     0
102
RTVSPropertyOp10
 70
     0
102
RTVSPropertyOp11
 70
     0
102
RTVSPropertyOp12
 70
     0
102
RTVSPropertyOp13
 70
     0
102
RTVSPropertyOp14
 70
     2
102
RTVSPropertyOp15
 70
     0
102
RTVSPropertyOp16
 70
     0
102
RTVSPropertyOp17
 70
     0
102
RTVSPropertyOp18
 70
     0
102
RTVSPropertyOp19
 70
     0
102
RTVSPropertyOp20
 70
     0
102
RTVSPropertyOp21
 70
     0
102
RTVSPropertyOp22
 70
     0
102
RTVSPropertyOp23
 70
     0
102
RTVSPropertyOp24
 70
     0
102
RTVSPropertyOp25
 70
     0
102
RTVSPropertyOp26
 70
     0
102
RTVSPropertyOp27
 70
     0
102
RTVSPropertyOp28
 70
     0
102
RTVSPropertyOp29
 70
     0
102
RTVSPropertyOp30
 70
     0
102
RTVSPropertyOp31
 70
     0
102
RTVSPropertyOp32
 70
     0
102
RTVSPropertyOp33
 70
     0
102
RTVSPropertyOp34
 70
     0
102
RTVSPropertyOp35
 70
     0
102
RTVSPropertyOp36
 70
     0
102
RTVSPropertyOp37
 70
     0
102
RTVSPropertyOp38
 70
     0
102
RTVSPropertyOp39
 70
     0
102
RTVSPropertyOp40
 70
     0
102
RTVSPropertyOp41
 70
     0
102
RTVSPropertyOp42
 70
     0
102
RTVSPropertyOp43
 70
     0
102
RTVSPropertyOp44
 70
     0
102
RTVSPropertyOp45
 70
     0
102
RTVSPropertyOp46
 70
     0
102
RTVSPropertyOp47
 70
     0
102
RTVSPropertyOp48
 70
     0
102
RTVSPropertyOp49
 70
     0
102
RTVSPropertyOp50
 70
     0
102
RTVSPropertyOp51
 70
     0
102
RTVSPropertyOp52
 70
     0
102
RTVSPropertyOp53
 70
     0
102
RTVSPropertyOp54
 70
     0
102
RTVSPropertyOp55
 70
     0
102
RTVSPropertyOp56
 70
     0
102
RTVSPropertyOp57
 70
     0
102
RTVSPost2010Prop28
280
     0
102
RTVSPost2010PropOp28
 70
     0
102
RTVSPost2010Prop29
280
     1
102
RTVSPost2010PropOp29
 70
     0
102
RTVSPost2010Prop30
280
     1
102
RTVSPost2010PropOp30
 70
     0
102
RTVSPost2010Prop31
280
     0
102
RTVSPost2010PropOp31
 70
     0
102
RTVSPost2010Prop32
280
     0
102
RTVSPost2010PropOp32
 70
     0
102
RTVSPost2010Prop33
280
     0
102
RTVSPost2010PropOp33
 70
     0
102
RTVSPost2010Prop34
280
     0
102
RTVSPost2010PropOp34
 70
     0
102
RTVSPost2010Prop35
280
     0
102
RTVSPost2010PropOp35
 70
     0
102
RTVSPost2010Prop36
280
     0
102
RTVSPost2010PropOp36
 70
     0
102
RTVSPost2010Prop37
 90
       50
102
RTVSPost2010PropOp37
 70
     0
102
RTVSPost2010Prop38
140
0.0
102
RTVSPost2010PropOp38
 70
     0
102
RTVSPost2010Prop39
140
1.0
102
RTVSPost2010PropOp39
 70
     0
102
RTVSPost2010Prop40
 90
        0
102
RTVSPost2010PropOp40
 70
     0
102
RTVSPost2010Prop41ColorIndex
 90
      178
102
RTVSPost2010Prop41ColorRGB
 90
        0
102
RTVSPost2010PropOp41
 70
     0
102
RTVSPost2010Prop42
 90
       50
102
RTVSPost2010PropOp42
 70
     0
102
RTVSPost2010Prop43
 90
        3
102
RTVSPost2010PropOp43
 70
     0
102
RTVSPost2010Prop44ColorIndex
 90
        5
102
RTVSPost2010Prop44ColorRGB
 90
      255
102
RTVSPost2010PropOp44
 70
     0
102
RTVSPost2010Prop45
280
     0
102
RTVSPost2010PropOp45
 70
     0
102
RTVSPost2010Prop46
 90
       50
102
RTVSPost2010PropOp46
 70
     0
102
RTVSPost2010Prop47
 90
       50
102
RTVSPost2010PropOp47
 70
     0
102
RTVSPost2010Prop48
 90
       50
102
RTVSPost2010PropOp48
 70
     0
102
RTVSPost2010Prop49
280
     0
102
RTVSPost2010PropOp49
 70
     0
102
RTVSPost2010Prop50
 90
       50
102
RTVSPost2010PropOp50
 70
     0
102
RTVSPost2010Prop51ColorIndex
 90
      256
102
RTVSPost2010Prop51ColorRGB
 90
-16777216
102
RTVSPost2010PropOp51
 70
     0
102
RTVSPost2010Prop52
140
1.0
102
RTVSPost2010PropOp52
 70
     0
102
RTVSPost2010Prop53
 90
        2
102
RTVSPost2010PropOp53
 70
     0
102
RTVSPost2010Prop54
  1
strokes_ogs.tif
102
RTVSPost2010PropOp54
 70
     0
102
RTVSPost2010Prop55
280
     0
102
RTVSPost2010PropOp55
 70
     0
102
RTVSPost2010Prop56
140
1.0
102
RTVSPost2010PropOp56
 70
     0
102
RTVSPost2010Prop57
140
1.0
102
RTVSPost2010PropOp57
 70
     0
  0
XRECORD
  5
39C
102
{ACAD_REACTORS
330
39B
102
}
330
39B
100
AcDbXrecord
280
     1
102
RTVSPropertyOp0
 70
     1
102
RTVSPropertyOp1
 70
     1
102
RTVSPropertyOp2
 70
     1
102
RTVSPropertyOp3
 70
     1
102
RTVSPropertyOp4
 70
     1
102
RTVSPropertyOp5
 70
     1
102
RTVSPropertyOp6
 70
     1
102
RTVSPropertyOp7
 70
     1
102
RTVSPropertyOp8
 70
     1
102
RTVSPropertyOp9
 70
     1
102
RTVSPropertyOp10
 70
     1
102
RTVSPropertyOp11
 70
     1
102
RTVSPropertyOp12
 70
     1
102
RTVSPropertyOp13
 70
     1
102
RTVSPropertyOp14
 70
     1
102
RTVSPropertyOp15
 70
     1
102
RTVSPropertyOp16
 70
     1
102
RTVSPropertyOp17
 70
     1
102
RTVSPropertyOp18
 70
     1
102
RTVSPropertyOp19
 70
     1
102
RTVSPropertyOp20
 70
     1
102
RTVSPropertyOp21
 70
     1
102
RTVSPropertyOp22
 70
     1
102
RTVSPropertyOp23
 70
     1
102
RTVSPropertyOp24
 70
     1
102
RTVSPropertyOp25
 70
     1
102
RTVSPropertyOp26
 70
     1
102
RTVSPropertyOp27
 70
     1
102
RTVSPropertyOp28
 70
     1
102
RTVSPropertyOp29
 70
     1
102
RTVSPropertyOp30
 70
     1
102
RTVSPropertyOp31
 70
     1
102
RTVSPropertyOp32
 70
     1
102
RTVSPropertyOp33
 70
     1
102
RTVSPropertyOp34
 70
     1
102
RTVSPropertyOp35
 70
     1
102
RTVSPropertyOp36
 70
     1
102
RTVSPropertyOp37
 70
     1
102
RTVSPropertyOp38
 70
     1
102
RTVSPropertyOp39
 70
     1
102
RTVSPropertyOp40
 70
     1
102
RTVSPropertyOp41
 70
     1
102
RTVSPropertyOp42
 70
     1
102
RTVSPropertyOp43
 70
     1
102
RTVSPropertyOp44
 70
     1
102
RTVSPropertyOp45
 70
     1
102
RTVSPropertyOp46
 70
     1
102
RTVSPropertyOp47
 70
     1
102
RTVSPropertyOp48
 70
     1
102
RTVSPropertyOp49
 70
     1
102
RTVSPropertyOp50
 70
     1
102
RTVSPropertyOp51
 70
     0
102
RTVSPropertyOp52
 70
     0
102
RTVSPropertyOp53
 70
     1
102
RTVSPropertyOp54
 70
     1
102
RTVSPropertyOp55
 70
     1
102
RTVSPropertyOp56
 70
     1
102
RTVSPropertyOp57
 70
     1
102
RTVSPost2010Prop28
280
     0
102
RTVSPost2010PropOp28
 70
     1
102
RTVSPost2010Prop29
280
     1
102
RTVSPost2010PropOp29
 70
     1
102
RTVSPost2010Prop30
280
     1
102
RTVSPost2010PropOp30
 70
     1
102
RTVSPost2010Prop31
280
     0
102
RTVSPost2010PropOp31
 70
     1
102
RTVSPost2010Prop32
280
     0
102
RTVSPost2010PropOp32
 70
     1
102
RTVSPost2010Prop33
280
     0
102
RTVSPost2010PropOp33
 70
     1
102
RTVSPost2010Prop34
280
     0
102
RTVSPost2010PropOp34
 70
     1
102
RTVSPost2010Prop35
280
     0
102
RTVSPost2010PropOp35
 70
     1
102
RTVSPost2010Prop36
280
     0
102
RTVSPost2010PropOp36
 70
     1
102
RTVSPost2010Prop37
 90
       50
102
RTVSPost2010PropOp37
 70
     1
102
RTVSPost2010Prop38
140
0.0
102
RTVSPost2010PropOp38
 70
     1
102
RTVSPost2010Prop39
140
1.0
102
RTVSPost2010PropOp39
 70
     1
102
RTVSPost2010Prop40
 90
        0
102
RTVSPost2010PropOp40
 70
     1
102
RTVSPost2010Prop41ColorIndex
 90
      178
102
RTVSPost2010Prop41ColorRGB
 90
        0
102
RTVSPost2010PropOp41
 70
     1
102
RTVSPost2010Prop42
 90
       50
102
RTVSPost2010PropOp42
 70
     1
102
RTVSPost2010Prop43
 90
        3
102
RTVSPost2010PropOp43
 70
     1
102
RTVSPost2010Prop44ColorIndex
 90
        5
102
RTVSPost2010Prop44ColorRGB
 90
      255
102
RTVSPost2010PropOp44
 70
     1
102
RTVSPost2010Prop45
280
     0
102
RTVSPost2010PropOp45
 70
     1
102
RTVSPost2010Prop46
 90
       50
102
RTVSPost2010PropOp46
 70
     1
102
RTVSPost2010Prop47
 90
       50
102
RTVSPost2010PropOp47
 70
     1
102
RTVSPost2010Prop48
 90
       50
102
RTVSPost2010PropOp48
 70
     1
102
RTVSPost2010Prop49
280
     0
102
RTVSPost2010PropOp49
 70
     1
102
RTVSPost2010Prop50
 90
       50
102
RTVSPost2010PropOp50
 70
     1
102
RTVSPost2010Prop51ColorIndex
 90
      256
102
RTVSPost2010Prop51ColorRGB
 90
-16777216
102
RTVSPost2010PropOp51
 70
     0
102
RTVSPost2010Prop52
140
1.0
102
RTVSPost2010PropOp52
 70
     0
102
RTVSPost2010Prop53
 90
        2
102
RTVSPost2010PropOp53
 70
     1
102
RTVSPost2010Prop54
  1
strokes_ogs.tif
102
RTVSPost2010PropOp54
 70
     1
102
RTVSPost2010Prop55
280
     0
102
RTVSPost2010PropOp55
 70
     1
102
RTVSPost2010Prop56
140
1.0
102
RTVSPost2010PropOp56
 70
     1
102
RTVSPost2010Prop57
140
1.0
102
RTVSPost2010PropOp57
 70
     1
  0
XRECORD
  5
3BA
102
{ACAD_REACTORS
330
3B9
102
}
330
3B9
100
AcDbXrecord
280
     1
102
RTVSPropertyOp0
 70
     1
102
RTVSPropertyOp1
 70
     1
102
RTVSPropertyOp2
 70
     1
102
RTVSPropertyOp3
 70
     1
102
RTVSPropertyOp4
 70
     1
102
RTVSPropertyOp5
 70
     1
102
RTVSPropertyOp6
 70
     1
102
RTVSPropertyOp7
 70
     1
102
RTVSPropertyOp8
 70
     1
102
RTVSPropertyOp9
 70
     1
102
RTVSPropertyOp10
 70
     1
102
RTVSPropertyOp11
 70
     1
102
RTVSPropertyOp12
 70
     1
102
RTVSPropertyOp13
 70
     1
102
RTVSPropertyOp14
 70
     1
102
RTVSPropertyOp15
 70
     1
102
RTVSPropertyOp16
 70
     1
102
RTVSPropertyOp17
 70
     1
102
RTVSPropertyOp18
 70
     1
102
RTVSPropertyOp19
 70
     1
102
RTVSPropertyOp20
 70
     1
102
RTVSPropertyOp21
 70
     1
102
RTVSPropertyOp22
 70
     1
102
RTVSPropertyOp23
 70
     1
102
RTVSPropertyOp24
 70
     1
102
RTVSPropertyOp25
 70
     1
102
RTVSPropertyOp26
 70
     1
102
RTVSPropertyOp27
 70
     1
102
RTVSPropertyOp28
 70
     1
102
RTVSPropertyOp29
 70
     1
102
RTVSPropertyOp30
 70
     1
102
RTVSPropertyOp31
 70
     1
102
RTVSPropertyOp32
 70
     1
102
RTVSPropertyOp33
 70
     1
102
RTVSPropertyOp34
 70
     1
102
RTVSPropertyOp35
 70
     1
102
RTVSPropertyOp36
 70
     1
102
RTVSPropertyOp37
 70
     1
102
RTVSPropertyOp38
 70
     1
102
RTVSPropertyOp39
 70
     1
102
RTVSPropertyOp40
 70
     1
102
RTVSPropertyOp41
 70
     1
102
RTVSPropertyOp42
 70
     1
102
RTVSPropertyOp43
 70
     1
102
RTVSPropertyOp44
 70
     1
102
RTVSPropertyOp45
 70
     1
102
RTVSPropertyOp46
 70
     1
102
RTVSPropertyOp47
 70
     1
102
RTVSPropertyOp48
 70
     1
102
RTVSPropertyOp49
 70
     1
102
RTVSPropertyOp50
 70
     1
102
RTVSPropertyOp51
 70
     0
102
RTVSPropertyOp52
 70
     0
102
RTVSPropertyOp53
 70
     1
102
RTVSPropertyOp54
 70
     1
102
RTVSPropertyOp55
 70
     1
102
RTVSPropertyOp56
 70
     1
102
RTVSPropertyOp57
 70
     1
102
RTVSPost2010Prop28
280
     0
102
RTVSPost2010PropOp28
 70
     1
102
RTVSPost2010Prop29
280
     1
102
RTVSPost2010PropOp29
 70
     1
102
RTVSPost2010Prop30
280
     1
102
RTVSPost2010PropOp30
 70
     1
102
RTVSPost2010Prop31
280
     0
102
RTVSPost2010PropOp31
 70
     1
102
RTVSPost2010Prop32
280
     0
102
RTVSPost2010PropOp32
 70
     1
102
RTVSPost2010Prop33
280
     0
102
RTVSPost2010PropOp33
 70
     1
102
RTVSPost2010Prop34
280
     0
102
RTVSPost2010PropOp34
 70
     1
102
RTVSPost2010Prop35
280
     0
102
RTVSPost2010PropOp35
 70
     1
102
RTVSPost2010Prop36
280
     0
102
RTVSPost2010PropOp36
 70
     1
102
RTVSPost2010Prop37
 90
       50
102
RTVSPost2010PropOp37
 70
     1
102
RTVSPost2010Prop38
140
0.0
102
RTVSPost2010PropOp38
 70
     1
102
RTVSPost2010Prop39
140
1.0
102
RTVSPost2010PropOp39
 70
     1
102
RTVSPost2010Prop40
 90
        0
102
RTVSPost2010PropOp40
 70
     1
102
RTVSPost2010Prop41ColorIndex
 90
      178
102
RTVSPost2010Prop41ColorRGB
 90
        0
102
RTVSPost2010PropOp41
 70
     1
102
RTVSPost2010Prop42
 90
       50
102
RTVSPost2010PropOp42
 70
     1
102
RTVSPost2010Prop43
 90
        3
102
RTVSPost2010PropOp43
 70
     1
102
RTVSPost2010Prop44ColorIndex
 90
        5
102
RTVSPost2010Prop44ColorRGB
 90
      255
102
RTVSPost2010PropOp44
 70
     1
102
RTVSPost2010Prop45
280
     0
102
RTVSPost2010PropOp45
 70
     1
102
RTVSPost2010Prop46
 90
       50
102
RTVSPost2010PropOp46
 70
     1
102
RTVSPost2010Prop47
 90
       50
102
RTVSPost2010PropOp47
 70
     1
102
RTVSPost2010Prop48
 90
       50
102
RTVSPost2010PropOp48
 70
     1
102
RTVSPost2010Prop49
280
     0
102
RTVSPost2010PropOp49
 70
     1
102
RTVSPost2010Prop50
 90
       50
102
RTVSPost2010PropOp50
 70
     1
102
RTVSPost2010Prop51ColorIndex
 90
      256
102
RTVSPost2010Prop51ColorRGB
 90
-16777216
102
RTVSPost2010PropOp51
 70
     0
102
RTVSPost2010Prop52
140
1.0
102
RTVSPost2010PropOp52
 70
     0
102
RTVSPost2010Prop53
 90
        2
102
RTVSPost2010PropOp53
 70
     1
102
RTVSPost2010Prop54
  1
strokes_ogs.tif
102
RTVSPost2010PropOp54
 70
     1
102
RTVSPost2010Prop55
280
     0
102
RTVSPost2010PropOp55
 70
     1
102
RTVSPost2010Prop56
140
1.0
102
RTVSPost2010PropOp56
 70
     1
102
RTVSPost2010Prop57
140
1.0
102
RTVSPost2010PropOp57
 70
     1
  0
XRECORD
  5
3B8
102
{ACAD_REACTORS
330
3B7
102
}
330
3B7
100
AcDbXrecord
280
     1
102
RTVSPropertyOp0
 70
     1
102
RTVSPropertyOp1
 70
     1
102
RTVSPropertyOp2
 70
     1
102
RTVSPropertyOp3
 70
     1
102
RTVSPropertyOp4
 70
     1
102
RTVSPropertyOp5
 70
     1
102
RTVSPropertyOp6
 70
     1
102
RTVSPropertyOp7
 70
     1
102
RTVSPropertyOp8
 70
     1
102
RTVSPropertyOp9
 70
     1
102
RTVSPropertyOp10
 70
     1
102
RTVSPropertyOp11
 70
     1
102
RTVSPropertyOp12
 70
     1
102
RTVSPropertyOp13
 70
     1
102
RTVSPropertyOp14
 70
     1
102
RTVSPropertyOp15
 70
     1
102
RTVSPropertyOp16
 70
     1
102
RTVSPropertyOp17
 70
     1
102
RTVSPropertyOp18
 70
     1
102
RTVSPropertyOp19
 70
     1
102
RTVSPropertyOp20
 70
     1
102
RTVSPropertyOp21
 70
     1
102
RTVSPropertyOp22
 70
     1
102
RTVSPropertyOp23
 70
     1
102
RTVSPropertyOp24
 70
     1
102
RTVSPropertyOp25
 70
     1
102
RTVSPropertyOp26
 70
     1
102
RTVSPropertyOp27
 70
     1
102
RTVSPropertyOp28
 70
     1
102
RTVSPropertyOp29
 70
     1
102
RTVSPropertyOp30
 70
     1
102
RTVSPropertyOp31
 70
     1
102
RTVSPropertyOp32
 70
     1
102
RTVSPropertyOp33
 70
     1
102
RTVSPropertyOp34
 70
     1
102
RTVSPropertyOp35
 70
     1
102
RTVSPropertyOp36
 70
     1
102
RTVSPropertyOp37
 70
     1
102
RTVSPropertyOp38
 70
     1
102
RTVSPropertyOp39
 70
     1
102
RTVSPropertyOp40
 70
     1
102
RTVSPropertyOp41
 70
     1
102
RTVSPropertyOp42
 70
     1
102
RTVSPropertyOp43
 70
     1
102
RTVSPropertyOp44
 70
     1
102
RTVSPropertyOp45
 70
     1
102
RTVSPropertyOp46
 70
     1
102
RTVSPropertyOp47
 70
     1
102
RTVSPropertyOp48
 70
     1
102
RTVSPropertyOp49
 70
     1
102
RTVSPropertyOp50
 70
     1
102
RTVSPropertyOp51
 70
     0
102
RTVSPropertyOp52
 70
     0
102
RTVSPropertyOp53
 70
     1
102
RTVSPropertyOp54
 70
     1
102
RTVSPropertyOp55
 70
     1
102
RTVSPropertyOp56
 70
     1
102
RTVSPropertyOp57
 70
     1
102
RTVSPost2010Prop28
280
     0
102
RTVSPost2010PropOp28
 70
     1
102
RTVSPost2010Prop29
280
     1
102
RTVSPost2010PropOp29
 70
     1
102
RTVSPost2010Prop30
280
     1
102
RTVSPost2010PropOp30
 70
     1
102
RTVSPost2010Prop31
280
     0
102
RTVSPost2010PropOp31
 70
     1
102
RTVSPost2010Prop32
280
     0
102
RTVSPost2010PropOp32
 70
     1
102
RTVSPost2010Prop33
280
     0
102
RTVSPost2010PropOp33
 70
     1
102
RTVSPost2010Prop34
280
     0
102
RTVSPost2010PropOp34
 70
     1
102
RTVSPost2010Prop35
280
     0
102
RTVSPost2010PropOp35
 70
     1
102
RTVSPost2010Prop36
280
     0
102
RTVSPost2010PropOp36
 70
     1
102
RTVSPost2010Prop37
 90
       50
102
RTVSPost2010PropOp37
 70
     1
102
RTVSPost2010Prop38
140
0.0
102
RTVSPost2010PropOp38
 70
     1
102
RTVSPost2010Prop39
140
1.0
102
RTVSPost2010PropOp39
 70
     1
102
RTVSPost2010Prop40
 90
        0
102
RTVSPost2010PropOp40
 70
     1
102
RTVSPost2010Prop41ColorIndex
 90
      178
102
RTVSPost2010Prop41ColorRGB
 90
        0
102
RTVSPost2010PropOp41
 70
     1
102
RTVSPost2010Prop42
 90
       50
102
RTVSPost2010PropOp42
 70
     1
102
RTVSPost2010Prop43
 90
        3
102
RTVSPost2010PropOp43
 70
     1
102
RTVSPost2010Prop44ColorIndex
 90
        5
102
RTVSPost2010Prop44ColorRGB
 90
      255
102
RTVSPost2010PropOp44
 70
     1
102
RTVSPost2010Prop45
280
     0
102
RTVSPost2010PropOp45
 70
     1
102
RTVSPost2010Prop46
 90
       50
102
RTVSPost2010PropOp46
 70
     1
102
RTVSPost2010Prop47
 90
       50
102
RTVSPost2010PropOp47
 70
     1
102
RTVSPost2010Prop48
 90
       50
102
RTVSPost2010PropOp48
 70
     1
102
RTVSPost2010Prop49
280
     0
102
RTVSPost2010PropOp49
 70
     1
102
RTVSPost2010Prop50
 90
       50
102
RTVSPost2010PropOp50
 70
     1
102
RTVSPost2010Prop51ColorIndex
 90
      256
102
RTVSPost2010Prop51ColorRGB
 90
-16777216
102
RTVSPost2010PropOp51
 70
     0
102
RTVSPost2010Prop52
140
1.0
102
RTVSPost2010PropOp52
 70
     0
102
RTVSPost2010Prop53
 90
        2
102
RTVSPost2010PropOp53
 70
     1
102
RTVSPost2010Prop54
  1
strokes_ogs.tif
102
RTVSPost2010PropOp54
 70
     1
102
RTVSPost2010Prop55
280
     0
102
RTVSPost2010PropOp55
 70
     1
102
RTVSPost2010Prop56
140
1.0
102
RTVSPost2010PropOp56
 70
     1
102
RTVSPost2010Prop57
140
1.0
102
RTVSPost2010PropOp57
 70
     1
  0
XRECORD
  5
3B2
102
{ACAD_REACTORS
330
3B1
102
}
330
3B1
100
AcDbXrecord
280
     1
102
RTVSPropertyOp0
 70
     1
102
RTVSPropertyOp1
 70
     1
102
RTVSPropertyOp2
 70
     1
102
RTVSPropertyOp3
 70
     1
102
RTVSPropertyOp4
 70
     1
102
RTVSPropertyOp5
 70
     1
102
RTVSPropertyOp6
 70
     1
102
RTVSPropertyOp7
 70
     1
102
RTVSPropertyOp8
 70
     1
102
RTVSPropertyOp9
 70
     1
102
RTVSPropertyOp10
 70
     1
102
RTVSPropertyOp11
 70
     1
102
RTVSPropertyOp12
 70
     1
102
RTVSPropertyOp13
 70
     1
102
RTVSPropertyOp14
 70
     1
102
RTVSPropertyOp15
 70
     1
102
RTVSPropertyOp16
 70
     1
102
RTVSPropertyOp17
 70
     1
102
RTVSPropertyOp18
 70
     1
102
RTVSPropertyOp19
 70
     1
102
RTVSPropertyOp20
 70
     1
102
RTVSPropertyOp21
 70
     1
102
RTVSPropertyOp22
 70
     1
102
RTVSPropertyOp23
 70
     1
102
RTVSPropertyOp24
 70
     1
102
RTVSPropertyOp25
 70
     1
102
RTVSPropertyOp26
 70
     1
102
RTVSPropertyOp27
 70
     1
102
RTVSPropertyOp28
 70
     1
102
RTVSPropertyOp29
 70
     1
102
RTVSPropertyOp30
 70
     1
102
RTVSPropertyOp31
 70
     1
102
RTVSPropertyOp32
 70
     1
102
RTVSPropertyOp33
 70
     1
102
RTVSPropertyOp34
 70
     1
102
RTVSPropertyOp35
 70
     1
102
RTVSPropertyOp36
 70
     1
102
RTVSPropertyOp37
 70
     1
102
RTVSPropertyOp38
 70
     1
102
RTVSPropertyOp39
 70
     1
102
RTVSPropertyOp40
 70
     1
102
RTVSPropertyOp41
 70
     1
102
RTVSPropertyOp42
 70
     1
102
RTVSPropertyOp43
 70
     1
102
RTVSPropertyOp44
 70
     1
102
RTVSPropertyOp45
 70
     1
102
RTVSPropertyOp46
 70
     1
102
RTVSPropertyOp47
 70
     1
102
RTVSPropertyOp48
 70
     1
102
RTVSPropertyOp49
 70
     1
102
RTVSPropertyOp50
 70
     1
102
RTVSPropertyOp51
 70
     0
102
RTVSPropertyOp52
 70
     0
102
RTVSPropertyOp53
 70
     1
102
RTVSPropertyOp54
 70
     1
102
RTVSPropertyOp55
 70
     1
102
RTVSPropertyOp56
 70
     1
102
RTVSPropertyOp57
 70
     1
102
RTVSPost2010Prop28
280
     0
102
RTVSPost2010PropOp28
 70
     1
102
RTVSPost2010Prop29
280
     1
102
RTVSPost2010PropOp29
 70
     1
102
RTVSPost2010Prop30
280
     1
102
RTVSPost2010PropOp30
 70
     1
102
RTVSPost2010Prop31
280
     0
102
RTVSPost2010PropOp31
 70
     1
102
RTVSPost2010Prop32
280
     0
102
RTVSPost2010PropOp32
 70
     1
102
RTVSPost2010Prop33
280
     0
102
RTVSPost2010PropOp33
 70
     1
102
RTVSPost2010Prop34
280
     0
102
RTVSPost2010PropOp34
 70
     1
102
RTVSPost2010Prop35
280
     0
102
RTVSPost2010PropOp35
 70
     1
102
RTVSPost2010Prop36
280
     0
102
RTVSPost2010PropOp36
 70
     1
102
RTVSPost2010Prop37
 90
       50
102
RTVSPost2010PropOp37
 70
     1
102
RTVSPost2010Prop38
140
0.0
102
RTVSPost2010PropOp38
 70
     1
102
RTVSPost2010Prop39
140
1.0
102
RTVSPost2010PropOp39
 70
     1
102
RTVSPost2010Prop40
 90
        0
102
RTVSPost2010PropOp40
 70
     1
102
RTVSPost2010Prop41ColorIndex
 90
      178
102
RTVSPost2010Prop41ColorRGB
 90
        0
102
RTVSPost2010PropOp41
 70
     1
102
RTVSPost2010Prop42
 90
       50
102
RTVSPost2010PropOp42
 70
     1
102
RTVSPost2010Prop43
 90
        3
102
RTVSPost2010PropOp43
 70
     1
102
RTVSPost2010Prop44ColorIndex
 90
        5
102
RTVSPost2010Prop44ColorRGB
 90
      255
102
RTVSPost2010PropOp44
 70
     1
102
RTVSPost2010Prop45
280
     0
102
RTVSPost2010PropOp45
 70
     1
102
RTVSPost2010Prop46
 90
       50
102
RTVSPost2010PropOp46
 70
     1
102
RTVSPost2010Prop47
 90
       50
102
RTVSPost2010PropOp47
 70
     1
102
RTVSPost2010Prop48
 90
       50
102
RTVSPost2010PropOp48
 70
     1
102
RTVSPost2010Prop49
280
     0
102
RTVSPost2010PropOp49
 70
     1
102
RTVSPost2010Prop50
 90
       50
102
RTVSPost2010PropOp50
 70
     1
102
RTVSPost2010Prop51ColorIndex
 90
      256
102
RTVSPost2010Prop51ColorRGB
 90
-16777216
102
RTVSPost2010PropOp51
 70
     0
102
RTVSPost2010Prop52
140
1.0
102
RTVSPost2010PropOp52
 70
     0
102
RTVSPost2010Prop53
 90
        2
102
RTVSPost2010PropOp53
 70
     1
102
RTVSPost2010Prop54
  1
strokes_ogs.tif
102
RTVSPost2010PropOp54
 70
     1
102
RTVSPost2010Prop55
280
     0
102
RTVSPost2010PropOp55
 70
     1
102
RTVSPost2010Prop56
140
1.0
102
RTVSPost2010PropOp56
 70
     1
102
RTVSPost2010Prop57
140
1.0
102
RTVSPost2010PropOp57
 70
     1
  0
XRECORD
  5
3B4
102
{ACAD_REACTORS
330
3B3
102
}
330
3B3
100
AcDbXrecord
280
     1
102
RTVSPropertyOp0
 70
     1
102
RTVSPropertyOp1
 70
     1
102
RTVSPropertyOp2
 70
     1
102
RTVSPropertyOp3
 70
     1
102
RTVSPropertyOp4
 70
     1
102
RTVSPropertyOp5
 70
     1
102
RTVSPropertyOp6
 70
     1
102
RTVSPropertyOp7
 70
     1
102
RTVSPropertyOp8
 70
     1
102
RTVSPropertyOp9
 70
     1
102
RTVSPropertyOp10
 70
     1
102
RTVSPropertyOp11
 70
     1
102
RTVSPropertyOp12
 70
     1
102
RTVSPropertyOp13
 70
     1
102
RTVSPropertyOp14
 70
     1
102
RTVSPropertyOp15
 70
     1
102
RTVSPropertyOp16
 70
     1
102
RTVSPropertyOp17
 70
     1
102
RTVSPropertyOp18
 70
     1
102
RTVSPropertyOp19
 70
     1
102
RTVSPropertyOp20
 70
     1
102
RTVSPropertyOp21
 70
     1
102
RTVSPropertyOp22
 70
     1
102
RTVSPropertyOp23
 70
     1
102
RTVSPropertyOp24
 70
     1
102
RTVSPropertyOp25
 70
     1
102
RTVSPropertyOp26
 70
     1
102
RTVSPropertyOp27
 70
     1
102
RTVSPropertyOp28
 70
     1
102
RTVSPropertyOp29
 70
     1
102
RTVSPropertyOp30
 70
     1
102
RTVSPropertyOp31
 70
     1
102
RTVSPropertyOp32
 70
     1
102
RTVSPropertyOp33
 70
     1
102
RTVSPropertyOp34
 70
     1
102
RTVSPropertyOp35
 70
     1
102
RTVSPropertyOp36
 70
     1
102
RTVSPropertyOp37
 70
     1
102
RTVSPropertyOp38
 70
     1
102
RTVSPropertyOp39
 70
     1
102
RTVSPropertyOp40
 70
     1
102
RTVSPropertyOp41
 70
     1
102
RTVSPropertyOp42
 70
     1
102
RTVSPropertyOp43
 70
     1
102
RTVSPropertyOp44
 70
     1
102
RTVSPropertyOp45
 70
     1
102
RTVSPropertyOp46
 70
     1
102
RTVSPropertyOp47
 70
     1
102
RTVSPropertyOp48
 70
     1
102
RTVSPropertyOp49
 70
     1
102
RTVSPropertyOp50
 70
     1
102
RTVSPropertyOp51
 70
     0
102
RTVSPropertyOp52
 70
     0
102
RTVSPropertyOp53
 70
     1
102
RTVSPropertyOp54
 70
     1
102
RTVSPropertyOp55
 70
     1
102
RTVSPropertyOp56
 70
     1
102
RTVSPropertyOp57
 70
     1
102
RTVSPost2010Prop28
280
     0
102
RTVSPost2010PropOp28
 70
     1
102
RTVSPost2010Prop29
280
     1
102
RTVSPost2010PropOp29
 70
     1
102
RTVSPost2010Prop30
280
     1
102
RTVSPost2010PropOp30
 70
     1
102
RTVSPost2010Prop31
280
     0
102
RTVSPost2010PropOp31
 70
     1
102
RTVSPost2010Prop32
280
     0
102
RTVSPost2010PropOp32
 70
     1
102
RTVSPost2010Prop33
280
     0
102
RTVSPost2010PropOp33
 70
     1
102
RTVSPost2010Prop34
280
     0
102
RTVSPost2010PropOp34
 70
     1
102
RTVSPost2010Prop35
280
     0
102
RTVSPost2010PropOp35
 70
     1
102
RTVSPost2010Prop36
280
     0
102
RTVSPost2010PropOp36
 70
     1
102
RTVSPost2010Prop37
 90
       50
102
RTVSPost2010PropOp37
 70
     1
102
RTVSPost2010Prop38
140
0.0
102
RTVSPost2010PropOp38
 70
     1
102
RTVSPost2010Prop39
140
1.0
102
RTVSPost2010PropOp39
 70
     1
102
RTVSPost2010Prop40
 90
        0
102
RTVSPost2010PropOp40
 70
     1
102
RTVSPost2010Prop41ColorIndex
 90
      178
102
RTVSPost2010Prop41ColorRGB
 90
        0
102
RTVSPost2010PropOp41
 70
     1
102
RTVSPost2010Prop42
 90
       50
102
RTVSPost2010PropOp42
 70
     1
102
RTVSPost2010Prop43
 90
        3
102
RTVSPost2010PropOp43
 70
     1
102
RTVSPost2010Prop44ColorIndex
 90
        5
102
RTVSPost2010Prop44ColorRGB
 90
      255
102
RTVSPost2010PropOp44
 70
     1
102
RTVSPost2010Prop45
280
     0
102
RTVSPost2010PropOp45
 70
     1
102
RTVSPost2010Prop46
 90
       50
102
RTVSPost2010PropOp46
 70
     1
102
RTVSPost2010Prop47
 90
       50
102
RTVSPost2010PropOp47
 70
     1
102
RTVSPost2010Prop48
 90
       50
102
RTVSPost2010PropOp48
 70
     1
102
RTVSPost2010Prop49
280
     0
102
RTVSPost2010PropOp49
 70
     1
102
RTVSPost2010Prop50
 90
       50
102
RTVSPost2010PropOp50
 70
     1
102
RTVSPost2010Prop51ColorIndex
 90
      256
102
RTVSPost2010Prop51ColorRGB
 90
-16777216
102
RTVSPost2010PropOp51
 70
     0
102
RTVSPost2010Prop52
140
1.0
102
RTVSPost2010PropOp52
 70
     0
102
RTVSPost2010Prop53
 90
        2
102
RTVSPost2010PropOp53
 70
     1
102
RTVSPost2010Prop54
  1
strokes_ogs.tif
102
RTVSPost2010PropOp54
 70
     1
102
RTVSPost2010Prop55
280
     0
102
RTVSPost2010PropOp55
 70
     1
102
RTVSPost2010Prop56
140
1.0
102
RTVSPost2010PropOp56
 70
     1
102
RTVSPost2010Prop57
140
1.0
102
RTVSPost2010PropOp57
 70
     1
  0
XRECORD
  5
3A4
102
{ACAD_REACTORS
330
3A3
102
}
330
3A3
100
AcDbXrecord
280
     1
102
RTVSPropertyOp0
 70
     1
102
RTVSPropertyOp1
 70
     1
102
RTVSPropertyOp2
 70
     1
102
RTVSPropertyOp3
 70
     1
102
RTVSPropertyOp4
 70
     1
102
RTVSPropertyOp5
 70
     1
102
RTVSPropertyOp6
 70
     1
102
RTVSPropertyOp7
 70
     1
102
RTVSPropertyOp8
 70
     1
102
RTVSPropertyOp9
 70
     1
102
RTVSPropertyOp10
 70
     1
102
RTVSPropertyOp11
 70
     1
102
RTVSPropertyOp12
 70
     1
102
RTVSPropertyOp13
 70
     1
102
RTVSPropertyOp14
 70
     1
102
RTVSPropertyOp15
 70
     1
102
RTVSPropertyOp16
 70
     1
102
RTVSPropertyOp17
 70
     1
102
RTVSPropertyOp18
 70
     1
102
RTVSPropertyOp19
 70
     1
102
RTVSPropertyOp20
 70
     1
102
RTVSPropertyOp21
 70
     1
102
RTVSPropertyOp22
 70
     1
102
RTVSPropertyOp23
 70
     1
102
RTVSPropertyOp24
 70
     1
102
RTVSPropertyOp25
 70
     1
102
RTVSPropertyOp26
 70
     1
102
RTVSPropertyOp27
 70
     1
102
RTVSPropertyOp28
 70
     1
102
RTVSPropertyOp29
 70
     1
102
RTVSPropertyOp30
 70
     1
102
RTVSPropertyOp31
 70
     1
102
RTVSPropertyOp32
 70
     1
102
RTVSPropertyOp33
 70
     1
102
RTVSPropertyOp34
 70
     1
102
RTVSPropertyOp35
 70
     1
102
RTVSPropertyOp36
 70
     1
102
RTVSPropertyOp37
 70
     1
102
RTVSPropertyOp38
 70
     1
102
RTVSPropertyOp39
 70
     1
102
RTVSPropertyOp40
 70
     1
102
RTVSPropertyOp41
 70
     1
102
RTVSPropertyOp42
 70
     1
102
RTVSPropertyOp43
 70
     1
102
RTVSPropertyOp44
 70
     1
102
RTVSPropertyOp45
 70
     1
102
RTVSPropertyOp46
 70
     1
102
RTVSPropertyOp47
 70
     1
102
RTVSPropertyOp48
 70
     1
102
RTVSPropertyOp49
 70
     1
102
RTVSPropertyOp50
 70
     1
102
RTVSPropertyOp51
 70
     0
102
RTVSPropertyOp52
 70
     0
102
RTVSPropertyOp53
 70
     1
102
RTVSPropertyOp54
 70
     1
102
RTVSPropertyOp55
 70
     1
102
RTVSPropertyOp56
 70
     1
102
RTVSPropertyOp57
 70
     1
102
RTVSPost2010Prop28
280
     0
102
RTVSPost2010PropOp28
 70
     1
102
RTVSPost2010Prop29
280
     1
102
RTVSPost2010PropOp29
 70
     1
102
RTVSPost2010Prop30
280
     1
102
RTVSPost2010PropOp30
 70
     1
102
RTVSPost2010Prop31
280
     0
102
RTVSPost2010PropOp31
 70
     1
102
RTVSPost2010Prop32
280
     0
102
RTVSPost2010PropOp32
 70
     1
102
RTVSPost2010Prop33
280
     0
102
RTVSPost2010PropOp33
 70
     1
102
RTVSPost2010Prop34
280
     0
102
RTVSPost2010PropOp34
 70
     1
102
RTVSPost2010Prop35
280
     0
102
RTVSPost2010PropOp35
 70
     1
102
RTVSPost2010Prop36
280
     0
102
RTVSPost2010PropOp36
 70
     1
102
RTVSPost2010Prop37
 90
       50
102
RTVSPost2010PropOp37
 70
     1
102
RTVSPost2010Prop38
140
0.0
102
RTVSPost2010PropOp38
 70
     1
102
RTVSPost2010Prop39
140
1.0
102
RTVSPost2010PropOp39
 70
     1
102
RTVSPost2010Prop40
 90
        0
102
RTVSPost2010PropOp40
 70
     1
102
RTVSPost2010Prop41ColorIndex
 90
      178
102
RTVSPost2010Prop41ColorRGB
 90
        0
102
RTVSPost2010PropOp41
 70
     1
102
RTVSPost2010Prop42
 90
       50
102
RTVSPost2010PropOp42
 70
     1
102
RTVSPost2010Prop43
 90
        3
102
RTVSPost2010PropOp43
 70
     1
102
RTVSPost2010Prop44ColorIndex
 90
        5
102
RTVSPost2010Prop44ColorRGB
 90
      255
102
RTVSPost2010PropOp44
 70
     1
102
RTVSPost2010Prop45
280
     0
102
RTVSPost2010PropOp45
 70
     1
102
RTVSPost2010Prop46
 90
       50
102
RTVSPost2010PropOp46
 70
     1
102
RTVSPost2010Prop47
 90
       50
102
RTVSPost2010PropOp47
 70
     1
102
RTVSPost2010Prop48
 90
       50
102
RTVSPost2010PropOp48
 70
     1
102
RTVSPost2010Prop49
280
     0
102
RTVSPost2010PropOp49
 70
     1
102
RTVSPost2010Prop50
 90
       50
102
RTVSPost2010PropOp50
 70
     1
102
RTVSPost2010Prop51ColorIndex
 90
      256
102
RTVSPost2010Prop51ColorRGB
 90
-16777216
102
RTVSPost2010PropOp51
 70
     0
102
RTVSPost2010Prop52
140
1.0
102
RTVSPost2010PropOp52
 70
     0
102
RTVSPost2010Prop53
 90
        2
102
RTVSPost2010PropOp53
 70
     1
102
RTVSPost2010Prop54
  1
strokes_ogs.tif
102
RTVSPost2010PropOp54
 70
     1
102
RTVSPost2010Prop55
280
     0
102
RTVSPost2010PropOp55
 70
     1
102
RTVSPost2010Prop56
140
1.0
102
RTVSPost2010PropOp56
 70
     1
102
RTVSPost2010Prop57
140
1.0
102
RTVSPost2010PropOp57
 70
     1
  0
XRECORD
  5
396
102
{ACAD_REACTORS
330
395
102
}
330
395
100
AcDbXrecord
280
     1
102
RTVSPropertyOp0
 70
     1
102
RTVSPropertyOp1
 70
     1
102
RTVSPropertyOp2
 70
     1
102
RTVSPropertyOp3
 70
     1
102
RTVSPropertyOp4
 70
     1
102
RTVSPropertyOp5
 70
     1
102
RTVSPropertyOp6
 70
     1
102
RTVSPropertyOp7
 70
     1
102
RTVSPropertyOp8
 70
     1
102
RTVSPropertyOp9
 70
     1
102
RTVSPropertyOp10
 70
     1
102
RTVSPropertyOp11
 70
     1
102
RTVSPropertyOp12
 70
     1
102
RTVSPropertyOp13
 70
     1
102
RTVSPropertyOp14
 70
     1
102
RTVSPropertyOp15
 70
     1
102
RTVSPropertyOp16
 70
     1
102
RTVSPropertyOp17
 70
     1
102
RTVSPropertyOp18
 70
     1
102
RTVSPropertyOp19
 70
     1
102
RTVSPropertyOp20
 70
     1
102
RTVSPropertyOp21
 70
     1
102
RTVSPropertyOp22
 70
     1
102
RTVSPropertyOp23
 70
     1
102
RTVSPropertyOp24
 70
     1
102
RTVSPropertyOp25
 70
     1
102
RTVSPropertyOp26
 70
     1
102
RTVSPropertyOp27
 70
     1
102
RTVSPropertyOp28
 70
     1
102
RTVSPropertyOp29
 70
     1
102
RTVSPropertyOp30
 70
     1
102
RTVSPropertyOp31
 70
     1
102
RTVSPropertyOp32
 70
     1
102
RTVSPropertyOp33
 70
     1
102
RTVSPropertyOp34
 70
     1
102
RTVSPropertyOp35
 70
     1
102
RTVSPropertyOp36
 70
     1
102
RTVSPropertyOp37
 70
     1
102
RTVSPropertyOp38
 70
     1
102
RTVSPropertyOp39
 70
     1
102
RTVSPropertyOp40
 70
     1
102
RTVSPropertyOp41
 70
     1
102
RTVSPropertyOp42
 70
     1
102
RTVSPropertyOp43
 70
     1
102
RTVSPropertyOp44
 70
     1
102
RTVSPropertyOp45
 70
     1
102
RTVSPropertyOp46
 70
     1
102
RTVSPropertyOp47
 70
     1
102
RTVSPropertyOp48
 70
     1
102
RTVSPropertyOp49
 70
     1
102
RTVSPropertyOp50
 70
     1
102
RTVSPropertyOp51
 70
     0
102
RTVSPropertyOp52
 70
     0
102
RTVSPropertyOp53
 70
     1
102
RTVSPropertyOp54
 70
     1
102
RTVSPropertyOp55
 70
     1
102
RTVSPropertyOp56
 70
     1
102
RTVSPropertyOp57
 70
     1
102
RTVSPost2010Prop28
280
     0
102
RTVSPost2010PropOp28
 70
     1
102
RTVSPost2010Prop29
280
     1
102
RTVSPost2010PropOp29
 70
     1
102
RTVSPost2010Prop30
280
     1
102
RTVSPost2010PropOp30
 70
     1
102
RTVSPost2010Prop31
280
     0
102
RTVSPost2010PropOp31
 70
     1
102
RTVSPost2010Prop32
280
     0
102
RTVSPost2010PropOp32
 70
     1
102
RTVSPost2010Prop33
280
     0
102
RTVSPost2010PropOp33
 70
     1
102
RTVSPost2010Prop34
280
     0
102
RTVSPost2010PropOp34
 70
     1
102
RTVSPost2010Prop35
280
     0
102
RTVSPost2010PropOp35
 70
     1
102
RTVSPost2010Prop36
280
     0
102
RTVSPost2010PropOp36
 70
     1
102
RTVSPost2010Prop37
 90
       50
102
RTVSPost2010PropOp37
 70
     1
102
RTVSPost2010Prop38
140
0.0
102
RTVSPost2010PropOp38
 70
     1
102
RTVSPost2010Prop39
140
1.0
102
RTVSPost2010PropOp39
 70
     1
102
RTVSPost2010Prop40
 90
        0
102
RTVSPost2010PropOp40
 70
     1
102
RTVSPost2010Prop41ColorIndex
 90
      178
102
RTVSPost2010Prop41ColorRGB
 90
        0
102
RTVSPost2010PropOp41
 70
     1
102
RTVSPost2010Prop42
 90
       50
102
RTVSPost2010PropOp42
 70
     1
102
RTVSPost2010Prop43
 90
        3
102
RTVSPost2010PropOp43
 70
     1
102
RTVSPost2010Prop44ColorIndex
 90
        5
102
RTVSPost2010Prop44ColorRGB
 90
      255
102
RTVSPost2010PropOp44
 70
     1
102
RTVSPost2010Prop45
280
     0
102
RTVSPost2010PropOp45
 70
     1
102
RTVSPost2010Prop46
 90
       50
102
RTVSPost2010PropOp46
 70
     1
102
RTVSPost2010Prop47
 90
       50
102
RTVSPost2010PropOp47
 70
     1
102
RTVSPost2010Prop48
 90
       50
102
RTVSPost2010PropOp48
 70
     1
102
RTVSPost2010Prop49
280
     0
102
RTVSPost2010PropOp49
 70
     1
102
RTVSPost2010Prop50
 90
       50
102
RTVSPost2010PropOp50
 70
     1
102
RTVSPost2010Prop51ColorIndex
 90
      256
102
RTVSPost2010Prop51ColorRGB
 90
-16777216
102
RTVSPost2010PropOp51
 70
     0
102
RTVSPost2010Prop52
140
1.0
102
RTVSPost2010PropOp52
 70
     0
102
RTVSPost2010Prop53
 90
        2
102
RTVSPost2010PropOp53
 70
     1
102
RTVSPost2010Prop54
  1
strokes_ogs.tif
102
RTVSPost2010PropOp54
 70
     1
102
RTVSPost2010Prop55
280
     0
102
RTVSPost2010PropOp55
 70
     1
102
RTVSPost2010Prop56
140
1.0
102
RTVSPost2010PropOp56
 70
     1
102
RTVSPost2010Prop57
140
1.0
102
RTVSPost2010PropOp57
 70
     1
  0
XRECORD
  5
3B6
102
{ACAD_REACTORS
330
3B5
102
}
330
3B5
100
AcDbXrecord
280
     1
102
RTVSPropertyOp0
 70
     1
102
RTVSPropertyOp1
 70
     1
102
RTVSPropertyOp2
 70
     1
102
RTVSPropertyOp3
 70
     1
102
RTVSPropertyOp4
 70
     1
102
RTVSPropertyOp5
 70
     1
102
RTVSPropertyOp6
 70
     1
102
RTVSPropertyOp7
 70
     1
102
RTVSPropertyOp8
 70
     1
102
RTVSPropertyOp9
 70
     1
102
RTVSPropertyOp10
 70
     1
102
RTVSPropertyOp11
 70
     1
102
RTVSPropertyOp12
 70
     1
102
RTVSPropertyOp13
 70
     1
102
RTVSPropertyOp14
 70
     1
102
RTVSPropertyOp15
 70
     1
102
RTVSPropertyOp16
 70
     1
102
RTVSPropertyOp17
 70
     1
102
RTVSPropertyOp18
 70
     1
102
RTVSPropertyOp19
 70
     1
102
RTVSPropertyOp20
 70
     1
102
RTVSPropertyOp21
 70
     1
102
RTVSPropertyOp22
 70
     1
102
RTVSPropertyOp23
 70
     1
102
RTVSPropertyOp24
 70
     1
102
RTVSPropertyOp25
 70
     1
102
RTVSPropertyOp26
 70
     1
102
RTVSPropertyOp27
 70
     1
102
RTVSPropertyOp28
 70
     1
102
RTVSPropertyOp29
 70
     1
102
RTVSPropertyOp30
 70
     1
102
RTVSPropertyOp31
 70
     1
102
RTVSPropertyOp32
 70
     1
102
RTVSPropertyOp33
 70
     1
102
RTVSPropertyOp34
 70
     1
102
RTVSPropertyOp35
 70
     1
102
RTVSPropertyOp36
 70
     1
102
RTVSPropertyOp37
 70
     1
102
RTVSPropertyOp38
 70
     1
102
RTVSPropertyOp39
 70
     1
102
RTVSPropertyOp40
 70
     1
102
RTVSPropertyOp41
 70
     1
102
RTVSPropertyOp42
 70
     1
102
RTVSPropertyOp43
 70
     1
102
RTVSPropertyOp44
 70
     1
102
RTVSPropertyOp45
 70
     1
102
RTVSPropertyOp46
 70
     1
102
RTVSPropertyOp47
 70
     1
102
RTVSPropertyOp48
 70
     1
102
RTVSPropertyOp49
 70
     1
102
RTVSPropertyOp50
 70
     1
102
RTVSPropertyOp51
 70
     0
102
RTVSPropertyOp52
 70
     0
102
RTVSPropertyOp53
 70
     1
102
RTVSPropertyOp54
 70
     1
102
RTVSPropertyOp55
 70
     1
102
RTVSPropertyOp56
 70
     1
102
RTVSPropertyOp57
 70
     1
102
RTVSPost2010Prop28
280
     0
102
RTVSPost2010PropOp28
 70
     1
102
RTVSPost2010Prop29
280
     1
102
RTVSPost2010PropOp29
 70
     1
102
RTVSPost2010Prop30
280
     1
102
RTVSPost2010PropOp30
 70
     1
102
RTVSPost2010Prop31
280
     0
102
RTVSPost2010PropOp31
 70
     1
102
RTVSPost2010Prop32
280
     0
102
RTVSPost2010PropOp32
 70
     1
102
RTVSPost2010Prop33
280
     0
102
RTVSPost2010PropOp33
 70
     1
102
RTVSPost2010Prop34
280
     0
102
RTVSPost2010PropOp34
 70
     1
102
RTVSPost2010Prop35
280
     0
102
RTVSPost2010PropOp35
 70
     1
102
RTVSPost2010Prop36
280
     0
102
RTVSPost2010PropOp36
 70
     1
102
RTVSPost2010Prop37
 90
       50
102
RTVSPost2010PropOp37
 70
     1
102
RTVSPost2010Prop38
140
0.0
102
RTVSPost2010PropOp38
 70
     1
102
RTVSPost2010Prop39
140
1.0
102
RTVSPost2010PropOp39
 70
     1
102
RTVSPost2010Prop40
 90
        0
102
RTVSPost2010PropOp40
 70
     1
102
RTVSPost2010Prop41ColorIndex
 90
      178
102
RTVSPost2010Prop41ColorRGB
 90
        0
102
RTVSPost2010PropOp41
 70
     1
102
RTVSPost2010Prop42
 90
       50
102
RTVSPost2010PropOp42
 70
     1
102
RTVSPost2010Prop43
 90
        3
102
RTVSPost2010PropOp43
 70
     1
102
RTVSPost2010Prop44ColorIndex
 90
        5
102
RTVSPost2010Prop44ColorRGB
 90
      255
102
RTVSPost2010PropOp44
 70
     1
102
RTVSPost2010Prop45
280
     0
102
RTVSPost2010PropOp45
 70
     1
102
RTVSPost2010Prop46
 90
       50
102
RTVSPost2010PropOp46
 70
     1
102
RTVSPost2010Prop47
 90
       50
102
RTVSPost2010PropOp47
 70
     1
102
RTVSPost2010Prop48
 90
       50
102
RTVSPost2010PropOp48
 70
     1
102
RTVSPost2010Prop49
280
     0
102
RTVSPost2010PropOp49
 70
     1
102
RTVSPost2010Prop50
 90
       50
102
RTVSPost2010PropOp50
 70
     1
102
RTVSPost2010Prop51ColorIndex
 90
      256
102
RTVSPost2010Prop51ColorRGB
 90
-16777216
102
RTVSPost2010PropOp51
 70
     0
102
RTVSPost2010Prop52
140
1.0
102
RTVSPost2010PropOp52
 70
     0
102
RTVSPost2010Prop53
 90
        2
102
RTVSPost2010PropOp53
 70
     1
102
RTVSPost2010Prop54
  1
strokes_ogs.tif
102
RTVSPost2010PropOp54
 70
     1
102
RTVSPost2010Prop55
280
     0
102
RTVSPost2010PropOp55
 70
     1
102
RTVSPost2010Prop56
140
1.0
102
RTVSPost2010PropOp56
 70
     1
102
RTVSPost2010Prop57
140
1.0
102
RTVSPost2010PropOp57
 70
     1
  0
ENDSEC
  0
EOF
