  0
SECTION
  2
HEADER
  9
$ACADVER
  1
AC1021
  9
$ACADMAINTVER
 70
    25
  9
$DWGCODEPAGE
  3
ANSI_1252
  9
$INSBASE
 10
0.0
 20
0.0
 30
0.0
  9
$EXTMIN
 10
1.000000000000000E+20
 20
1.000000000000000E+20
 30
1.000000000000000E+20
  9
$EXTMAX
 10
-1.000000000000000E+20
 20
-1.000000000000000E+20
 30
-1.000000000000000E+20
  9
$LIMMIN
 10
0.0
 20
0.0
  9
$LIMMAX
 10
12.0
 20
9.0
  9
$ORTHOMODE
 70
     0
  9
$REGENMODE
 70
     1
  9
$FILLMODE
 70
     1
  9
$QTEXTMODE
 70
     0
  9
$MIRRTEXT
 70
     1
  9
$LTSCALE
 40
1.0
  9
$ATTMODE
 70
     1
  9
$TEXTSIZE
 40
0.2
  9
$TRACEWID
 40
0.05
  9
$TEXTSTYLE
  7
Standard
  9
$CLAYER
  8
Graypants_Bow120
  9
$CELTYPE
  6
ByLayer
  9
$CECOLOR
 62
   256
  9
$CELTSCALE
 40
1.0
  9
$DISPSILH
 70
     0
  9
$DIMSCALE
 40
1.0
  9
$DIMASZ
 40
0.18
  9
$DIMEXO
 40
0.0625
  9
$DIMDLI
 40
0.38
  9
$DIMRND
 40
0.0
  9
$DIMDLE
 40
0.0
  9
$DIMEXE
 40
0.18
  9
$DIMTP
 40
0.0
  9
$DIMTM
 40
0.0
  9
$DIMTXT
 40
0.18
  9
$DIMCEN
 40
0.09
  9
$DIMTSZ
 40
0.0
  9
$DIMTOL
 70
     0
  9
$DIMLIM
 70
     0
  9
$DIMTIH
 70
     1
  9
$DIMTOH
 70
     1
  9
$DIMSE1
 70
     0
  9
$DIMSE2
 70
     0
  9
$DIMTAD
 70
     0
  9
$DIMZIN
 70
     0
  9
$DIMBLK
  1

  9
$DIMASO
 70
     1
  9
$DIMSHO
 70
     1
  9
$DIMPOST
  1

  9
$DIMAPOST
  1

  9
$DIMALT
 70
     0
  9
$DIMALTD
 70
     2
  9
$DIMALTF
 40
25.4
  9
$DIMLFAC
 40
1.0
  9
$DIMTOFL
 70
     0
  9
$DIMTVP
 40
0.0
  9
$DIMTIX
 70
     0
  9
$DIMSOXD
 70
     0
  9
$DIMSAH
 70
     0
  9
$DIMBLK1
  1

  9
$DIMBLK2
  1

  9
$DIMSTYLE
  2
STANDARD_ACAD
  9
$DIMCLRD
 70
     0
  9
$DIMCLRE
 70
     0
  9
$DIMCLRT
 70
     0
  9
$DIMTFAC
 40
1.0
  9
$DIMGAP
 40
0.09
  9
$DIMJUST
 70
     0
  9
$DIMSD1
 70
     0
  9
$DIMSD2
 70
     0
  9
$DIMTOLJ
 70
     1
  9
$DIMTZIN
 70
     0
  9
$DIMALTZ
 70
     0
  9
$DIMALTTZ
 70
     0
  9
$DIMUPT
 70
     0
  9
$DIMDEC
 70
     4
  9
$DIMTDEC
 70
     4
  9
$DIMALTU
 70
     2
  9
$DIMALTTD
 70
     2
  9
$DIMTXSTY
  7
Standard
  9
$DIMAUNIT
 70
     0
  9
$DIMADEC
 70
     0
  9
$DIMALTRND
 40
0.0
  9
$DIMAZIN
 70
     0
  9
$DIMDSEP
 70
    46
  9
$DIMATFIT
 70
     3
  9
$DIMFRAC
 70
     0
  9
$DIMLDRBLK
  1

  9
$DIMLUNIT
 70
     2
  9
$DIMLWD
 70
    -2
  9
$DIMLWE
 70
    -2
  9
$DIMTMOVE
 70
     2
  9
$DIMFXL
 40
1.0
  9
$DIMFXLON
 70
     0
  9
$DIMJOGANG
 40
0.7853981633974483
  9
$DIMTFILL
 70
     0
  9
$DIMTFILLCLR
 70
     0
  9
$DIMARCSYM
 70
     0
  9
$DIMLTYPE
  6

  9
$DIMLTEX1
  6

  9
$DIMLTEX2
  6

  9
$LUNITS
 70
     2
  9
$LUPREC
 70
     3
  9
$SKETCHINC
 40
0.1
  9
$FILLETRAD
 40
0.5
  9
$AUNITS
 70
     0
  9
$AUPREC
 70
     0
  9
$MENU
  1
.
  9
$ELEVATION
 40
0.0
  9
$PELEVATION
 40
0.0
  9
$THICKNESS
 40
0.0
  9
$LIMCHECK
 70
     0
  9
$CHAMFERA
 40
0.0
  9
$CHAMFERB
 40
0.0
  9
$CHAMFERC
 40
0.0
  9
$CHAMFERD
 40
0.0
  9
$SKPOLY
 70
     0
  9
$TDCREATE
 40
2460850.625004387
  9
$TDUCREATE
 40
2460850.95833772
  9
$TDUPDATE
 40
2460850.625023287
  9
$TDUUPDATE
 40
2460850.95835662
  9
$TDINDWG
 40
0.0000000116
  9
$TDUSRTIMER
 40
0.0000000116
  9
$USRTIMER
 70
     1
  9
$ANGBASE
 50
0.0
  9
$ANGDIR
 70
     0
  9
$PDMODE
 70
     0
  9
$PDSIZE
 40
0.0
  9
$PLINEWID
 40
0.0
  9
$SPLFRAME
 70
     0
  9
$SPLINETYPE
 70
     6
  9
$SPLINESEGS
 70
     8
  9
$HANDSEED
  5
3A5
  9
$SURFTAB1
 70
     6
  9
$SURFTAB2
 70
     6
  9
$SURFTYPE
 70
     6
  9
$SURFU
 70
     6
  9
$SURFV
 70
     6
  9
$UCSBASE
  2

  9
$UCSNAME
  2

  9
$UCSORG
 10
0.0
 20
0.0
 30
0.0
  9
$UCSXDIR
 10
1.0
 20
0.0
 30
0.0
  9
$UCSYDIR
 10
0.0
 20
1.0
 30
0.0
  9
$UCSORTHOREF
  2

  9
$UCSORTHOVIEW
 70
     0
  9
$UCSORGTOP
 10
0.0
 20
0.0
 30
0.0
  9
$UCSORGBOTTOM
 10
0.0
 20
0.0
 30
0.0
  9
$UCSORGLEFT
 10
0.0
 20
0.0
 30
0.0
  9
$UCSORGRIGHT
 10
0.0
 20
0.0
 30
0.0
  9
$UCSORGFRONT
 10
0.0
 20
0.0
 30
0.0
  9
$UCSORGBACK
 10
0.0
 20
0.0
 30
0.0
  9
$PUCSBASE
  2

  9
$PUCSNAME
  2

  9
$PUCSORG
 10
0.0
 20
0.0
 30
0.0
  9
$PUCSXDIR
 10
1.0
 20
0.0
 30
0.0
  9
$PUCSYDIR
 10
0.0
 20
1.0
 30
0.0
  9
$PUCSORTHOREF
  2

  9
$PUCSORTHOVIEW
 70
     0
  9
$PUCSORGTOP
 10
0.0
 20
0.0
 30
0.0
  9
$PUCSORGBOTTOM
 10
0.0
 20
0.0
 30
0.0
  9
$PUCSORGLEFT
 10
0.0
 20
0.0
 30
0.0
  9
$PUCSORGRIGHT
 10
0.0
 20
0.0
 30
0.0
  9
$PUCSORGFRONT
 10
0.0
 20
0.0
 30
0.0
  9
$PUCSORGBACK
 10
0.0
 20
0.0
 30
0.0
  9
$USERI1
 70
     0
  9
$USERI2
 70
     0
  9
$USERI3
 70
     0
  9
$USERI4
 70
     0
  9
$USERI5
 70
     0
  9
$USERR1
 40
0.0
  9
$USERR2
 40
0.0
  9
$USERR3
 40
0.0
  9
$USERR4
 40
0.0
  9
$USERR5
 40
0.0
  9
$WORLDVIEW
 70
     1
  9
$SHADEDGE
 70
     3
  9
$SHADEDIF
 70
    70
  9
$TILEMODE
 70
     1
  9
$MAXACTVP
 70
    64
  9
$PINSBASE
 10
0.0
 20
0.0
 30
0.0
  9
$PLIMCHECK
 70
     0
  9
$PEXTMIN
 10
1.000000000000000E+20
 20
1.000000000000000E+20
 30
1.000000000000000E+20
  9
$PEXTMAX
 10
-1.000000000000000E+20
 20
-1.000000000000000E+20
 30
-1.000000000000000E+20
  9
$PLIMMIN
 10
0.0
 20
0.0
  9
$PLIMMAX
 10
12.0
 20
9.0
  9
$UNITMODE
 70
     0
  9
$VISRETAIN
 70
     1
  9
$PLINEGEN
 70
     0
  9
$PSLTSCALE
 70
     1
  9
$TREEDEPTH
 70
  3020
  9
$CMLSTYLE
  2
Standard
  9
$CMLJUST
 70
     0
  9
$CMLSCALE
 40
1.0
  9
$PROXYGRAPHICS
 70
     1
  9
$MEASUREMENT
 70
     1
  9
$CELWEIGHT
370
    -1
  9
$ENDCAPS
280
     0
  9
$JOINSTYLE
280
     0
  9
$LWDISPLAY
290
     0
  9
$INSUNITS
 70
     4
  9
$HYPERLINKBASE
  1

  9
$STYLESHEET
  1

  9
$XEDIT
290
     1
  9
$CEPSNTYPE
380
     0
  9
$PSTYLEMODE
290
     1
  9
$FINGERPRINTGUID
  2
{a2505e04-51f6-3043-a282-25b5fa26432f}
  9
$VERSIONGUID
  2
{FAEB1C32-E019-11D5-929B-00C0DF256EC4}
  9
$EXTNAMES
290
     1
  9
$PSVPSCALE
 40
0.0
  9
$OLESTARTUP
290
     0
  9
$SORTENTS
280
   127
  9
$INDEXCTL
280
     0
  9
$HIDETEXT
280
     1
  9
$XCLIPFRAME
290
     0
  9
$HALOGAP
280
     0
  9
$OBSCOLOR
 70
   257
  9
$OBSLTYPE
280
     0
  9
$INTERSECTIONDISPLAY
280
     0
  9
$INTERSECTIONCOLOR
 70
   257
  9
$DIMASSOC
280
     2
  9
$PROJECTNAME
  1

  9
$CAMERADISPLAY
290
     0
  9
$LENSLENGTH
 40
50.0
  9
$CAMERAHEIGHT
 40
0.0
  9
$STEPSPERSEC
 40
2.0
  9
$STEPSIZE
 40
6.0
  9
$3DDWFPREC
 40
2.0
  9
$PSOLWIDTH
 40
0.25
  9
$PSOLHEIGHT
 40
4.0
  9
$LOFTANG1
 40
1.570796326794897
  9
$LOFTANG2
 40
1.570796326794897
  9
$LOFTMAG1
 40
0.0
  9
$LOFTMAG2
 40
0.0
  9
$LOFTPARAM
 70
     7
  9
$LOFTNORMALS
280
     1
  9
$LATITUDE
 40
37.795
  9
$LONGITUDE
 40
-122.394
  9
$NORTHDIRECTION
 40
0.0
  9
$TIMEZONE
 70
 -8000
  9
$LIGHTGLYPHDISPLAY
280
     1
  9
$TILEMODELIGHTSYNCH
280
     1
  9
$CMATERIAL
347
44
  9
$SOLIDHIST
280
     0
  9
$SHOWHIST
280
     1
  9
$DWFFRAME
280
     2
  9
$DGNFRAME
280
     2
  9
$REALWORLDSCALE
290
     1
  9
$INTERFERECOLOR
 62
   256
  9
$CSHADOW
280
     0
  9
$SHADOWPLANELOCATION
 40
0.0
  0
ENDSEC
  0
SECTION
  2
CLASSES
  0
CLASS
  1
ACDBDICTIONARYWDFLT
  2
AcDbDictionaryWithDefault
  3
ObjectDBX Classes
 90
        0
 91
        3
280
     0
281
     0
  0
CLASS
  1
VISUALSTYLE
  2
AcDbVisualStyle
  3
ObjectDBX Classes
 90
     4095
 91
        3
280
     0
281
     0
  0
CLASS
  1
MATERIAL
  2
AcDbMaterial
  3
ObjectDBX Classes
 90
     1153
 91
        3
280
     0
281
     0
  0
CLASS
  1
SCALE
  2
AcDbScale
  3
ObjectDBX Classes
 90
     1153
 91
        3
280
     0
281
     0
  0
CLASS
  1
TABLESTYLE
  2
AcDbTableStyle
  3
ObjectDBX Classes
 90
     4095
 91
        3
280
     0
281
     0
  0
CLASS
  1
MLEADERSTYLE
  2
AcDbMLeaderStyle
  3
ACDB_MLEADERSTYLE_CLASS
 90
     4095
 91
        3
280
     0
281
     0
  0
CLASS
  1
SUN
  2
AcDbSun
  3
SCENEOE
 90
     1153
 91
        3
280
     0
281
     0
  0
CLASS
  1
DICTIONARYVAR
  2
AcDbDictionaryVar
  3
ObjectDBX Classes
 90
        0
 91
        3
280
     0
281
     0
  0
CLASS
  1
CELLSTYLEMAP
  2
AcDbCellStyleMap
  3
ObjectDBX Classes
 90
     1152
 91
        3
280
     0
281
     0
  0
ENDSEC
  0
SECTION
  2
TABLES
  0
TABLE
  2
VPORT
  5
8
330
0
100
AcDbSymbolTable
 70
     1
  0
VPORT
  5
29
330
8
100
AcDbSymbolTableRecord
100
AcDbViewportTableRecord
  2
*Active
 70
     0
 10
0.0
 20
0.0
 11
1.0
 21
1.0
 12
10.42990654205607
 22
4.5
 13
0.0
 23
0.0
 14
0.5
 24
0.5
 15
0.5
 25
0.5
 16
0.0
 26
0.0
 36
1.0
 17
0.0
 27
0.0
 37
0.0
 40
9.0
 41
1.972972972850329
 42
50.0
 43
0.0
 44
0.0
 50
0.0
 51
0.0
 71
     0
 72
   100
 73
     1
 74
     3
 75
     0
 76
     0
 77
     0
 78
     0
281
     0
 65
     1
110
0.0
120
0.0
130
0.0
111
1.0
121
0.0
131
0.0
112
0.0
122
1.0
132
0.0
 79
     0
146
0.0
348
2F
 60
     3
 61
     5
292
     1
282
     1
141
0.0
142
0.0
 63
   250
361
6D
  0
ENDTAB
  0
TABLE
  2
LTYPE
  5
5
330
0
100
AcDbSymbolTable
 70
     2
  0
LTYPE
  5
14
330
5
100
AcDbSymbolTableRecord
100
AcDbLinetypeTableRecord
  2
ByBlock
 70
     0
  3

 72
    65
 73
     0
 40
0.0
  0
LTYPE
  5
15
330
5
100
AcDbSymbolTableRecord
100
AcDbLinetypeTableRecord
  2
ByLayer
 70
     0
  3

 72
    65
 73
     0
 40
0.0
  0
LTYPE
  5
16
330
5
100
AcDbSymbolTableRecord
100
AcDbLinetypeTableRecord
  2
Continuous
 70
     0
  3
Solid line
 72
    65
 73
     0
 40
0.0
  0
LTYPE
  5
162
330
5
100
AcDbSymbolTableRecord
100
AcDbLinetypeTableRecord
  2
Hidden
 70
     0
  3

 72
    65
 73
     2
 40
4.0
 49
2.0
 74
     0
 49
-2.0
 74
     0
  0
ENDTAB
  0
TABLE
  2
LAYER
  5
2
330
0
100
AcDbSymbolTable
 70
     2
  0
LAYER
  5
10
330
2
100
AcDbSymbolTableRecord
100
AcDbLayerTableRecord
  2
0
 70
     0
 62
     7
  6
Continuous
370
    -3
390
F
347
46
  0
LAYER
  5
6E
330
2
100
AcDbSymbolTableRecord
100
AcDbLayerTableRecord
  2
Graypants_Bow120
 70
     0
 62
    36
420
  8866048
  6
Continuous
370
    -3
390
F
347
46
  0
ENDTAB
  0
TABLE
  2
STYLE
  5
3
330
0
100
AcDbSymbolTable
 70
     1
  0
STYLE
  5
11
330
3
100
AcDbSymbolTableRecord
100
AcDbTextStyleTableRecord
  2
Standard
 70
     0
 40
0.0
 41
1.0
 50
0.0
 71
     0
 42
0.2
  3
txt
  4

  0
ENDTAB
  0
TABLE
  2
VIEW
  5
6
330
0
100
AcDbSymbolTable
 70
     0
  0
ENDTAB
  0
TABLE
  2
UCS
  5
7
330
0
100
AcDbSymbolTable
 70
     0
  0
ENDTAB
  0
TABLE
  2
APPID
  5
9
330
0
100
AcDbSymbolTable
 70
     2
  0
APPID
  5
12
330
9
100
AcDbSymbolTableRecord
100
AcDbRegAppTableRecord
  2
ACAD
 70
     0
  0
APPID
  5
39D
330
9
100
AcDbSymbolTableRecord
100
AcDbRegAppTableRecord
  2
ACAD_MLEADERVER
 70
     0
  0
ENDTAB
  0
TABLE
  2
DIMSTYLE
  5
A
330
0
100
AcDbSymbolTable
 70
     1
100
AcDbDimStyleTable
  0
DIMSTYLE
105
27
330
A
100
AcDbSymbolTableRecord
100
AcDbDimStyleTableRecord
  2
STANDARD_ACAD
 70
     0
178
     0
340
11
  0
ENDTAB
  0
TABLE
  2
BLOCK_RECORD
  5
1
330
0
100
AcDbSymbolTable
 70
     1
  0
BLOCK_RECORD
  5
1F
330
1
100
AcDbSymbolTableRecord
100
AcDbBlockTableRecord
  2
*Model_Space
340
22
 70
     0
280
     1
281
     0
  0
BLOCK_RECORD
  5
1B
330
1
100
AcDbSymbolTableRecord
100
AcDbBlockTableRecord
  2
*Paper_Space
340
1E
 70
     0
280
     1
281
     0
  0
BLOCK_RECORD
  5
23
330
1
100
AcDbSymbolTableRecord
100
AcDbBlockTableRecord
  2
*Paper_Space0
340
26
 70
     0
280
     1
281
     0
  0
ENDTAB
  0
ENDSEC
  0
SECTION
  2
BLOCKS
  0
BLOCK
  5
20
330
1F
100
AcDbEntity
  8
0
100
AcDbBlockBegin
  2
*Model_Space
 70
     0
 10
0.0
 20
0.0
 30
0.0
  3
*Model_Space
  1

  0
ENDBLK
  5
21
330
1F
100
AcDbEntity
  8
0
100
AcDbBlockEnd
  0
BLOCK
  5
1C
330
1B
100
AcDbEntity
 67
     1
  8
0
100
AcDbBlockBegin
  2
*Paper_Space
 70
     0
 10
0.0
 20
0.0
 30
0.0
  3
*Paper_Space
  1

  0
ENDBLK
  5
1D
330
1B
100
AcDbEntity
 67
     1
  8
0
100
AcDbBlockEnd
  0
BLOCK
  5
24
330
23
100
AcDbEntity
  8
0
100
AcDbBlockBegin
  2
*Paper_Space0
 70
     0
 10
0.0
 20
0.0
 30
0.0
  3
*Paper_Space0
  1

  0
ENDBLK
  5
25
330
23
100
AcDbEntity
  8
0
100
AcDbBlockEnd
  0
ENDSEC
  0
SECTION
  2
ENTITIES
  0
ARC
  5
6F
330
1F
100
AcDbEntity
  8
Graypants_Bow120
370
    -3
100
AcDbCircle
 10
-0.0000000000056396
 20
-1806.421740421191
 30
0.0
 40
15.99999999999984
100
AcDbArc
 50
359.9999999999992
 51
82.62947495982615
  0
LINE
  5
70
330
1F
100
AcDbEntity
  8
Graypants_Bow120
370
    -3
100
AcDbLine
 10
1.899999999994179
 20
-1774.821740421191
 30
0.0
 11
1.899999999994179
 21
-1775.050640112998
 31
0.0
  0
LINE
  5
71
330
1F
100
AcDbEntity
  8
Graypants_Bow120
370
    -3
100
AcDbLine
 10
1.499999999996703
 20
-1765.867981473604
 30
0.0
 11
2.249999999990791
 21
-1774.821740421202
 31
0.0
  0
LINE
  5
72
330
1F
100
AcDbEntity
  8
Graypants_Bow120
370
    -3
100
AcDbLine
 10
-2.250000000002387
 20
-1774.821740421202
 30
0.0
 11
-1.500000000008185
 21
-1765.867981473604
 31
0.0
  0
LINE
  5
73
330
1F
100
AcDbEntity
  8
Graypants_Bow120
370
    -3
100
AcDbLine
 10
1.000000000027399
 20
-1765.621740421181
 30
0.0
 11
1.500000000021146
 21
-1765.86798147355
 31
0.0
  0
LINE
  5
74
330
1F
100
AcDbEntity
  8
Graypants_Bow120
370
    -3
100
AcDbLine
 10
-1.500000000032628
 20
-1765.86798147355
 30
0.0
 11
-1.000000000038995
 21
-1765.621740421181
 31
0.0
  0
LINE
  5
75
330
1F
100
AcDbEntity
  8
Graypants_Bow120
370
    -3
100
AcDbLine
 10
-0.0000000000056843
 20
-1774.821740420391
 30
0.0
 11
0.0001600114561597
 21
-1774.821740421987
 31
0.0
  0
LINE
  5
76
330
1F
100
AcDbEntity
  8
Graypants_Bow120
370
    -3
100
AcDbLine
 10
-1.900000000005775
 20
-1775.050640112998
 30
0.0
 11
-1.900000000005775
 21
-1774.821740421191
 31
0.0
  0
LINE
  5
77
330
1F
100
AcDbEntity
  8
Graypants_Bow120
370
    -3
100
AcDbLine
 10
-0.0000562368145438
 20
-1774.821740420588
 30
0.0
 11
0.0001600114561597
 21
-1774.821740421987
 31
0.0
  0
CIRCLE
  5
78
330
1F
100
AcDbEntity
  8
Graypants_Bow120
370
    -3
100
AcDbCircle
 10
-0.000000000005788
 20
-1782.821740421191
 30
0.0
 40
7.75
  0
LINE
  5
79
330
1F
100
AcDbEntity
  8
Graypants_Bow120
370
    -3
100
AcDbLine
 10
1.499999999994316
 20
-1765.867981473604
 30
0.0
 11
-1.500000000005798
 21
-1765.867981473604
 31
0.0
  0
ARC
  5
7A
330
1F
100
AcDbEntity
  8
Graypants_Bow120
370
    -3
100
AcDbCircle
 10
0.0000000000059117
 20
-1900.171740421191
 30
0.0
 40
12.99999999999989
210
0.0
220
0.0
230
-1.0
100
AcDbArc
 50
180.000000000003
 51
359.999999999997
  0
LINE
  5
7B
330
1F
100
AcDbEntity
  8
Graypants_Bow120
370
    -3
100
AcDbLine
 10
31.0
 20
-952.6804664107319
 30
0.0
 11
30.0
 21
-952.6804664107319
 31
0.0
  0
LINE
  5
7C
330
1F
100
AcDbEntity
  8
Graypants_Bow120
370
    -3
100
AcDbLine
 10
-30.0
 20
-952.6804664107331
 30
0.0
 11
30.0
 21
-952.6804664107319
 31
0.0
  0
LINE
  5
7D
330
1F
100
AcDbEntity
  8
Graypants_Bow120
370
    -3
100
AcDbLine
 10
-30.0
 20
-952.6804664107331
 30
0.0
 11
-31.0
 21
-952.6804664107332
 31
0.0
  0
LINE
  5
7E
330
1F
100
AcDbEntity
  8
Graypants_Bow120
370
    -3
100
AcDbLine
 10
30.0
 20
-953.6804664107319
 30
0.0
 11
31.0
 21
-953.6804664107319
 31
0.0
  0
LINE
  5
7F
330
1F
100
AcDbEntity
  8
Graypants_Bow120
370
    -3
100
AcDbLine
 10
31.0
 20
-953.6804664107319
 30
0.0
 11
31.0
 21
-952.6804664107319
 31
0.0
  0
LINE
  5
80
330
1F
100
AcDbEntity
  8
Graypants_Bow120
370
    -3
100
AcDbLine
 10
-31.0
 20
-953.6804664107332
 30
0.0
 11
-30.0
 21
-953.6804664107331
 31
0.0
  0
LINE
  5
81
330
1F
100
AcDbEntity
  8
Graypants_Bow120
370
    -3
100
AcDbLine
 10
-29.99999999999909
 20
-912.6804664107428
 30
0.0
 11
-29.99999999999909
 21
-952.6804664107319
 31
0.0
  0
LINE
  5
82
330
1F
100
AcDbEntity
  8
Graypants_Bow120
370
    -3
100
AcDbLine
 10
30.00000000000477
 20
-912.6804664107428
 30
0.0
 11
30.00000000000477
 21
-952.6804664107319
 31
0.0
  0
LINE
  5
83
330
1F
100
AcDbEntity
  8
Graypants_Bow120
370
    -3
100
AcDbLine
 10
30.00000000000477
 20
-912.6804664107428
 30
0.0
 11
-29.99999999999909
 21
-912.6804664107428
 31
0.0
  0
LINE
  5
84
330
1F
100
AcDbEntity
  8
Graypants_Bow120
370
    -3
100
AcDbLine
 10
-31.0
 20
-953.6804664107332
 30
0.0
 11
-31.0
 21
-952.6804664107332
 31
0.0
  0
LINE
  5
85
330
1F
100
AcDbEntity
  8
Graypants_Bow120
370
    -3
100
AcDbLine
 10
0.7453368967564984
 20
-953.6804664339728
 30
0.0
 11
0.749999999994202
 21
-1765.621740421181
 31
0.0
  0
LINE
  5
86
330
1F
100
AcDbEntity
  8
Graypants_Bow120
370
    -3
100
AcDbLine
 10
-0.750000000005798
 20
-1765.621740421181
 30
0.0
 11
-0.7453368967679808
 21
-953.6804664339728
 31
0.0
  0
ARC
  5
87
330
1F
100
AcDbEntity
  8
Graypants_Bow120
370
    -3
100
AcDbCircle
 10
0.000000000005788
 20
-1782.821740421191
 30
0.0
 40
8.000000000000227
210
0.0
220
0.0
230
-1.0
100
AcDbArc
 50
270.0000000000001
 51
89.99999999999991
  0
ARC
  5
88
330
1F
100
AcDbEntity
  8
Graypants_Bow120
370
    -3
100
AcDbCircle
 10
0.000000000005788
 20
-1782.821740421191
 30
0.0
 40
7.999999999999773
210
0.0
220
0.0
230
-1.0
100
AcDbArc
 50
89.99999999999991
 51
270.0000000000001
  0
CIRCLE
  5
89
330
1F
100
AcDbEntity
  8
Graypants_Bow120
370
    -3
100
AcDbCircle
 10
0.0000000000059642
 20
-1806.421740421192
 30
0.0
 40
15.49999999999983
210
0.0
220
0.0
230
-1.0
  0
LINE
  5
8A
330
1F
100
AcDbEntity
  8
Graypants_Bow120
370
    -3
100
AcDbLine
 10
-2.250000000002387
 20
-1774.821740421202
 30
0.0
 11
2.249999999990791
 21
-1774.821740421202
 31
0.0
  0
LINE
  5
8B
330
1F
100
AcDbEntity
  8
Graypants_Bow120
370
    -3
100
AcDbLine
 10
1.000000000027399
 20
-1765.621740421181
 30
0.0
 11
-1.000000000038995
 21
-1765.621740421181
 31
0.0
  0
LINE
  5
8C
330
1F
100
AcDbEntity
  8
Graypants_Bow120
370
    -3
100
AcDbLine
 10
-30.0
 20
-953.6804664107331
 30
0.0
 11
30.0
 21
-953.6804664107319
 31
0.0
  0
LINE
  5
8D
330
1F
100
AcDbEntity
  8
Graypants_Bow120
370
    -3
100
AcDbLine
 10
343.9304664107467
 20
-1774.821740421191
 30
0.0
 11
343.9304664107467
 21
-1790.821740421191
 31
0.0
  0
LINE
  5
8E
330
1F
100
AcDbEntity
  8
Graypants_Bow120
370
    -3
100
AcDbLine
 10
595.1804664107467
 20
-1765.867981473604
 30
0.0
 11
592.1804664107467
 21
-1765.867981473604
 31
0.0
  0
LINE
  5
8F
330
1F
100
AcDbEntity
  8
Graypants_Bow120
370
    -3
100
AcDbLine
 10
1295.180466410747
 20
-1765.867981473589
 30
0.0
 11
1292.180466410747
 21
-1765.867981473589
 31
0.0
  0
LINE
  5
90
330
1F
100
AcDbEntity
  8
Graypants_Bow120
370
    -3
100
AcDbLine
 10
1473.180466410743
 20
-1790.553943811022
 30
0.0
 11
1473.580466408475
 21
-1790.821740419877
 31
0.0
  0
LINE
  5
91
330
1F
100
AcDbEntity
  8
Graypants_Bow120
370
    -3
100
AcDbLine
 10
1471.430466410746
 20
-1790.553943811022
 30
0.0
 11
1471.680466410746
 21
-1790.722111183903
 31
0.0
  0
LINE
  5
92
330
1F
100
AcDbEntity
  8
Graypants_Bow120
370
    -3
100
AcDbLine
 10
1471.430466410746
 20
-1790.553943811022
 30
0.0
 11
1401.930466410751
 21
-1790.553943811022
 31
0.0
  0
LINE
  5
93
330
1F
100
AcDbEntity
  8
Graypants_Bow120
370
    -3
100
AcDbLine
 10
1401.930466410751
 20
-1790.553943811022
 30
0.0
 11
1401.680466410751
 21
-1790.722111183903
 31
0.0
  0
LINE
  5
94
330
1F
100
AcDbEntity
  8
Graypants_Bow120
370
    -3
100
AcDbLine
 10
1471.680466410743
 20
-1790.553943811022
 30
0.0
 11
1473.180466410743
 21
-1790.553943811022
 31
0.0
  0
LINE
  5
95
330
1F
100
AcDbEntity
  8
Graypants_Bow120
370
    -3
100
AcDbLine
 10
415.9304664107476
 20
-1790.553943811022
 30
0.0
 11
415.6804664107481
 21
-1790.722111183903
 31
0.0
  0
LINE
  5
96
330
1F
100
AcDbEntity
  8
Graypants_Bow120
370
    -3
100
AcDbLine
 10
415.9304664107476
 20
-1790.553943811022
 30
0.0
 11
485.4304664107426
 21
-1790.553943811022
 31
0.0
  0
LINE
  5
97
330
1F
100
AcDbEntity
  8
Graypants_Bow120
370
    -3
100
AcDbLine
 10
485.4304664107426
 20
-1790.553943811022
 30
0.0
 11
485.6804664107426
 21
-1790.722111183903
 31
0.0
  0
LINE
  5
98
330
1F
100
AcDbEntity
  8
Graypants_Bow120
370
    -3
100
AcDbLine
 10
415.6804664107513
 20
-1790.553943811022
 30
0.0
 11
414.1804664107513
 21
-1790.553943811022
 31
0.0
  0
LINE
  5
99
330
1F
100
AcDbEntity
  8
Graypants_Bow120
370
    -3
100
AcDbLine
 10
1543.680466410747
 20
-1775.071740421191
 30
0.0
 11
1543.680466410747
 21
-1790.571740421191
 31
0.0
  0
LINE
  5
9A
330
1F
100
AcDbEntity
  8
Graypants_Bow120
370
    -3
100
AcDbLine
 10
1543.430466410747
 20
-1790.821740421191
 30
0.0
 11
1543.430466410747
 21
-1774.821740421191
 31
0.0
  0
LINE
  5
9B
330
1F
100
AcDbEntity
  8
Graypants_Bow120
370
    -3
100
AcDbLine
 10
1473.180466410743
 20
-1806.421740421191
 30
0.0
 11
1473.180466410743
 21
-1790.553943811022
 31
0.0
  0
LINE
  5
9C
330
1F
100
AcDbEntity
  8
Graypants_Bow120
370
    -3
100
AcDbLine
 10
1473.680466410743
 20
-1806.421740421191
 30
0.0
 11
1473.680466410743
 21
-1821.921740421191
 31
0.0
  0
LINE
  5
9D
330
1F
100
AcDbEntity
  8
Graypants_Bow120
370
    -3
100
AcDbLine
 10
1471.430466410746
 20
-1806.421740421192
 30
0.0
 11
1471.430466410746
 21
-1822.421740421191
 31
0.0
  0
LINE
  5
9E
330
1F
100
AcDbEntity
  8
Graypants_Bow120
370
    -3
100
AcDbLine
 10
1471.430466410746
 20
-1790.553943811022
 30
0.0
 11
1471.430466410746
 21
-1806.421740421192
 31
0.0
  0
LINE
  5
9F
330
1F
100
AcDbEntity
  8
Graypants_Bow120
370
    -3
100
AcDbLine
 10
414.1804664107508
 20
-1806.421740421191
 30
0.0
 11
414.1804664107513
 21
-1790.553943811022
 31
0.0
  0
LINE
  5
A0
330
1F
100
AcDbEntity
  8
Graypants_Bow120
370
    -3
100
AcDbLine
 10
413.6804664107513
 20
-1806.421740421191
 30
0.0
 11
413.680466410751
 21
-1821.921740421191
 31
0.0
  0
LINE
  5
A1
330
1F
100
AcDbEntity
  8
Graypants_Bow120
370
    -3
100
AcDbLine
 10
415.9304664107481
 20
-1806.421740421192
 30
0.0
 11
415.9304664107478
 21
-1822.421740421191
 31
0.0
  0
LINE
  5
A2
330
1F
100
AcDbEntity
  8
Graypants_Bow120
370
    -3
100
AcDbLine
 10
415.9304664107476
 20
-1790.553943811022
 30
0.0
 11
415.9304664107478
 21
-1806.421740421192
 31
0.0
  0
LINE
  5
A3
330
1F
100
AcDbEntity
  8
Graypants_Bow120
370
    -3
100
AcDbLine
 10
343.6804664107467
 20
-1775.071740421191
 30
0.0
 11
343.9304664107467
 21
-1774.821740421191
 31
0.0
  0
LINE
  5
A4
330
1F
100
AcDbEntity
  8
Graypants_Bow120
370
    -3
100
AcDbLine
 10
343.9304664107469
 20
-1790.821740421191
 30
0.0
 11
343.6804664107469
 21
-1790.571740421191
 31
0.0
  0
LINE
  5
A5
330
1F
100
AcDbEntity
  8
Graypants_Bow120
370
    -3
100
AcDbLine
 10
343.6804664107467
 20
-1790.571740421191
 30
0.0
 11
343.6804664107467
 21
-1775.071740421191
 31
0.0
  0
LINE
  5
A6
330
1F
100
AcDbEntity
  8
Graypants_Bow120
370
    -3
100
AcDbLine
 10
345.6804664107467
 20
-1790.821740421191
 30
0.0
 11
343.9304664107467
 21
-1790.821740421191
 31
0.0
  0
LINE
  5
A7
330
1F
100
AcDbEntity
  8
Graypants_Bow120
370
    -3
100
AcDbLine
 10
343.9304664107469
 20
-1774.821740421191
 30
0.0
 11
345.6804664107469
 21
-1774.821740421191
 31
0.0
  0
LINE
  5
A8
330
1F
100
AcDbEntity
  8
Graypants_Bow120
370
    -3
100
AcDbLine
 10
595.1804664107492
 20
-1765.867981473604
 30
0.0
 11
595.9304664107433
 21
-1774.821740421202
 31
0.0
  0
LINE
  5
A9
330
1F
100
AcDbEntity
  8
Graypants_Bow120
370
    -3
100
AcDbLine
 10
591.4304664107501
 20
-1774.821740421202
 30
0.0
 11
592.1804664107444
 21
-1765.867981473604
 31
0.0
  0
LINE
  5
AA
330
1F
100
AcDbEntity
  8
Graypants_Bow120
370
    -3
100
AcDbLine
 10
591.4304664107501
 20
-1774.821740421202
 30
0.0
 11
595.9304664107433
 21
-1774.821740421202
 31
0.0
  0
LINE
  5
AB
330
1F
100
AcDbEntity
  8
Graypants_Bow120
370
    -3
100
AcDbLine
 10
594.6804664107799
 20
-1765.621740421181
 30
0.0
 11
595.1804664107735
 21
-1765.86798147355
 31
0.0
  0
LINE
  5
AC
330
1F
100
AcDbEntity
  8
Graypants_Bow120
370
    -3
100
AcDbLine
 10
592.1804664107199
 20
-1765.867981473549
 30
0.0
 11
592.6804664107135
 21
-1765.621740421181
 31
0.0
  0
ARC
  5
AD
330
1F
100
AcDbEntity
  8
Graypants_Bow120
370
    -3
100
AcDbCircle
 10
-593.6804664114326
 20
-1767.222397837498
 30
0.0
 40
8.000000481305676
210
0.0
220
0.0
230
-1.0
100
AcDbArc
 50
251.7900442749035
 51
288.2099555220136
  0
LINE
  5
AE
330
1F
100
AcDbEntity
  8
Graypants_Bow120
370
    -3
100
AcDbLine
 10
1295.180466410749
 20
-1765.867981473589
 30
0.0
 11
1295.930466410744
 21
-1774.821740421187
 31
0.0
  0
LINE
  5
AF
330
1F
100
AcDbEntity
  8
Graypants_Bow120
370
    -3
100
AcDbLine
 10
1291.43046641075
 20
-1774.821740421187
 30
0.0
 11
1292.180466410745
 21
-1765.867981473589
 31
0.0
  0
LINE
  5
B0
330
1F
100
AcDbEntity
  8
Graypants_Bow120
370
    -3
100
AcDbLine
 10
1291.43046641075
 20
-1774.821740421187
 30
0.0
 11
1295.930466410744
 21
-1774.821740421187
 31
0.0
  0
ARC
  5
B1
330
1F
100
AcDbEntity
  8
Graypants_Bow120
370
    -3
100
AcDbCircle
 10
-1293.680466411434
 20
-1767.222397837481
 30
0.0
 40
8.000000481308236
210
0.0
220
0.0
230
-1.0
100
AcDbArc
 50
251.7900442749155
 51
288.2099555220154
  0
POLYLINE
  5
B2
330
1F
100
AcDbEntity
  8
Graypants_Bow120
370
    -3
100
AcDb2dPolyline
 66
     1
 10
0.0
 20
0.0
 30
0.0
  0
VERTEX
  5
B3
330
B2
100
AcDbEntity
  8
Graypants_Bow120
370
    -3
100
AcDbVertex
100
AcDb2dVertex
 10
1440.180466410746
 20
-1774.82174042079
 30
0.0
  0
VERTEX
  5
B4
330
B2
100
AcDbEntity
  8
Graypants_Bow120
370
    -3
100
AcDbVertex
100
AcDb2dVertex
 10
1439.909435139269
 20
-1774.936549297597
 30
0.0
  0
VERTEX
  5
B5
330
B2
100
AcDbEntity
  8
Graypants_Bow120
370
    -3
100
AcDbVertex
100
AcDb2dVertex
 10
1439.58638965065
 20
-1775.063236062658
 30
0.0
  0
VERTEX
  5
B6
330
B2
100
AcDbEntity
  8
Graypants_Bow120
370
    -3
100
AcDbVertex
100
AcDb2dVertex
 10
1439.382685660824
 20
-1775.137209233066
 30
0.0
  0
VERTEX
  5
B7
330
B2
100
AcDbEntity
  8
Graypants_Bow120
370
    -3
100
AcDbVertex
100
AcDb2dVertex
 10
1439.154743024483
 20
-1775.214372626376
 30
0.0
  0
VERTEX
  5
B8
330
B2
100
AcDbEntity
  8
Graypants_Bow120
370
    -3
100
AcDbVertex
100
AcDb2dVertex
 10
1438.904158870376
 20
-1775.292150528365
 30
0.0
  0
VERTEX
  5
B9
330
B2
100
AcDbEntity
  8
Graypants_Bow120
370
    -3
100
AcDbVertex
100
AcDb2dVertex
 10
1438.631030769709
 20
-1775.368237800156
 30
0.0
  0
VERTEX
  5
BA
330
B2
100
AcDbEntity
  8
Graypants_Bow120
370
    -3
100
AcDbVertex
100
AcDb2dVertex
 10
1438.339519830995
 20
-1775.439169992124
 30
0.0
  0
VERTEX
  5
BB
330
B2
100
AcDbEntity
  8
Graypants_Bow120
370
    -3
100
AcDbVertex
100
AcDb2dVertex
 10
1438.188058198542
 20
-1775.471722017315
 30
0.0
  0
VERTEX
  5
BC
330
B2
100
AcDbEntity
  8
Graypants_Bow120
370
    -3
100
AcDbVertex
100
AcDb2dVertex
 10
1438.032750054932
 20
-1775.501995134871
 30
0.0
  0
VERTEX
  5
BD
330
B2
100
AcDbEntity
  8
Graypants_Bow120
370
    -3
100
AcDbVertex
100
AcDb2dVertex
 10
1437.873152187166
 20
-1775.529762918022
 30
0.0
  0
VERTEX
  5
BE
330
B2
100
AcDbEntity
  8
Graypants_Bow120
370
    -3
100
AcDbVertex
100
AcDb2dVertex
 10
1437.70947420919
 20
-1775.554715955564
 30
0.0
  0
VERTEX
  5
BF
330
B2
100
AcDbEntity
  8
Graypants_Bow120
370
    -3
100
AcDbVertex
100
AcDb2dVertex
 10
1437.542663559598
 20
-1775.576477625526
 30
0.0
  0
VERTEX
  5
C0
330
B2
100
AcDbEntity
  8
Graypants_Bow120
370
    -3
100
AcDbVertex
100
AcDb2dVertex
 10
1437.373667676983
 20
-1775.594671305937
 30
0.0
  0
VERTEX
  5
C1
330
B2
100
AcDbEntity
  8
Graypants_Bow120
370
    -3
100
AcDbVertex
100
AcDb2dVertex
 10
1437.203416435004
 20
-1775.60900820398
 30
0.0
  0
VERTEX
  5
C2
330
B2
100
AcDbEntity
  8
Graypants_Bow120
370
    -3
100
AcDbVertex
100
AcDb2dVertex
 10
1437.032204690321
 20
-1775.619395470064
 30
0.0
  0
VERTEX
  5
C3
330
B2
100
AcDbEntity
  8
Graypants_Bow120
370
    -3
100
AcDbVertex
100
AcDb2dVertex
 10
1436.860027356036
 20
-1775.625750397046
 30
0.0
  0
VERTEX
  5
C4
330
B2
100
AcDbEntity
  8
Graypants_Bow120
370
    -3
100
AcDbVertex
100
AcDb2dVertex
 10
1436.686879345247
 20
-1775.627990277786
 30
0.0
  0
VERTEX
  5
C5
330
B2
100
AcDbEntity
  8
Graypants_Bow120
370
    -3
100
AcDbVertex
100
AcDb2dVertex
 10
1436.512793222948
 20
-1775.62599430304
 30
0.0
  0
VERTEX
  5
C6
330
B2
100
AcDbEntity
  8
Graypants_Bow120
370
    -3
100
AcDbVertex
100
AcDb2dVertex
 10
1436.338594060441
 20
-1775.619794561114
 30
0.0
  0
VERTEX
  5
C7
330
B2
100
AcDbEntity
  8
Graypants_Bow120
370
    -3
100
AcDbVertex
100
AcDb2dVertex
 10
1436.165465530293
 20
-1775.60953769119
 30
0.0
  0
VERTEX
  5
C8
330
B2
100
AcDbEntity
  8
Graypants_Bow120
370
    -3
100
AcDbVertex
100
AcDb2dVertex
 10
1435.994591305068
 20
-1775.595370332449
 30
0.0
  0
VERTEX
  5
C9
330
B2
100
AcDbEntity
  8
Graypants_Bow120
370
    -3
100
AcDbVertex
100
AcDb2dVertex
 10
1435.826256698409
 20
-1775.577446445954
 30
0.0
  0
VERTEX
  5
CA
330
B2
100
AcDbEntity
  8
Graypants_Bow120
370
    -3
100
AcDbVertex
100
AcDb2dVertex
 10
1435.660124935873
 20
-1775.555977688762
 30
0.0
  0
VERTEX
  5
CB
330
B2
100
AcDbEntity
  8
Graypants_Bow120
370
    -3
100
AcDbVertex
100
AcDb2dVertex
 10
1435.496446557887
 20
-1775.531197244054
 30
0.0
  0
VERTEX
  5
CC
330
B2
100
AcDbEntity
  8
Graypants_Bow120
370
    -3
100
AcDbVertex
100
AcDb2dVertex
 10
1435.335472104885
 20
-1775.503338295006
 30
0.0
  0
VERTEX
  5
CD
330
B2
100
AcDbEntity
  8
Graypants_Bow120
370
    -3
100
AcDbVertex
100
AcDb2dVertex
 10
1435.178316210921
 20
-1775.472839831763
 30
0.0
  0
VERTEX
  5
CE
330
B2
100
AcDbEntity
  8
Graypants_Bow120
370
    -3
100
AcDbVertex
100
AcDb2dVertex
 10
1435.025855901786
 20
-1775.440173465665
 30
0.0
  0
VERTEX
  5
CF
330
B2
100
AcDbEntity
  8
Graypants_Bow120
370
    -3
100
AcDbVertex
100
AcDb2dVertex
 10
1434.734598550115
 20
-1775.369465484789
 30
0.0
  0
VERTEX
  5
D0
330
B2
100
AcDbEntity
  8
Graypants_Bow120
370
    -3
100
AcDbVertex
100
AcDb2dVertex
 10
1434.461114487832
 20
-1775.293408311701
 30
0.0
  0
VERTEX
  5
D1
330
B2
100
AcDbEntity
  8
Graypants_Bow120
370
    -3
100
AcDbVertex
100
AcDb2dVertex
 10
1434.208992688452
 20
-1775.215283798315
 30
0.0
  0
VERTEX
  5
D2
330
B2
100
AcDbEntity
  8
Graypants_Bow120
370
    -3
100
AcDbVertex
100
AcDb2dVertex
 10
1433.981512753398
 20
-1775.138371367876
 30
0.0
  0
VERTEX
  5
D3
330
B2
100
AcDbEntity
  8
Graypants_Bow120
370
    -3
100
AcDbVertex
100
AcDb2dVertex
 10
1433.77838538605
 20
-1775.064674334792
 30
0.0
  0
VERTEX
  5
D4
330
B2
100
AcDbEntity
  8
Graypants_Bow120
370
    -3
100
AcDbVertex
100
AcDb2dVertex
 10
1433.453386728374
 20
-1774.937322670301
 30
0.0
  0
VERTEX
  5
D5
330
B2
100
AcDbEntity
  8
Graypants_Bow120
370
    -3
100
AcDbVertex
100
AcDb2dVertex
 10
1433.180467361152
 20
-1774.821740837393
 30
0.0
  0
SEQEND
  5
D6
330
B2
100
AcDbEntity
  8
Graypants_Bow120
370
    -3
  0
POLYLINE
  5
D7
330
1F
100
AcDbEntity
  8
Graypants_Bow120
370
    -3
100
AcDb2dPolyline
 66
     1
 10
0.0
 20
0.0
 30
0.0
  0
VERTEX
  5
D8
330
D7
100
AcDbEntity
  8
Graypants_Bow120
370
    -3
100
AcDbVertex
100
AcDb2dVertex
 10
454.1804664107472
 20
-1774.821740420391
 30
0.0
  0
VERTEX
  5
D9
330
D7
100
AcDbEntity
  8
Graypants_Bow120
370
    -3
100
AcDbVertex
100
AcDb2dVertex
 10
454.1804653450097
 20
-1774.821740890167
 30
0.0
  0
VERTEX
  5
DA
330
D7
100
AcDbEntity
  8
Graypants_Bow120
370
    -3
100
AcDbVertex
100
AcDb2dVertex
 10
453.9094351392697
 20
-1774.936549297197
 30
0.0
  0
VERTEX
  5
DB
330
D7
100
AcDbEntity
  8
Graypants_Bow120
370
    -3
100
AcDbVertex
100
AcDb2dVertex
 10
453.5863896506504
 20
-1775.063236062258
 30
0.0
  0
VERTEX
  5
DC
330
D7
100
AcDbEntity
  8
Graypants_Bow120
370
    -3
100
AcDbVertex
100
AcDb2dVertex
 10
453.3826856608244
 20
-1775.137209232666
 30
0.0
  0
VERTEX
  5
DD
330
D7
100
AcDbEntity
  8
Graypants_Bow120
370
    -3
100
AcDbVertex
100
AcDb2dVertex
 10
453.1547430244834
 20
-1775.214372625976
 30
0.0
  0
VERTEX
  5
DE
330
D7
100
AcDbEntity
  8
Graypants_Bow120
370
    -3
100
AcDbVertex
100
AcDb2dVertex
 10
452.904158870377
 20
-1775.292150527966
 30
0.0
  0
VERTEX
  5
DF
330
D7
100
AcDbEntity
  8
Graypants_Bow120
370
    -3
100
AcDbVertex
100
AcDb2dVertex
 10
452.6310307697095
 20
-1775.368237799756
 30
0.0
  0
VERTEX
  5
E0
330
D7
100
AcDbEntity
  8
Graypants_Bow120
370
    -3
100
AcDbVertex
100
AcDb2dVertex
 10
452.3395198309951
 20
-1775.439169991724
 30
0.0
  0
VERTEX
  5
E1
330
D7
100
AcDbEntity
  8
Graypants_Bow120
370
    -3
100
AcDbVertex
100
AcDb2dVertex
 10
452.1880581985425
 20
-1775.471722016915
 30
0.0
  0
VERTEX
  5
E2
330
D7
100
AcDbEntity
  8
Graypants_Bow120
370
    -3
100
AcDbVertex
100
AcDb2dVertex
 10
452.0327500549322
 20
-1775.501995134471
 30
0.0
  0
VERTEX
  5
E3
330
D7
100
AcDbEntity
  8
Graypants_Bow120
370
    -3
100
AcDbVertex
100
AcDb2dVertex
 10
451.8731521871663
 20
-1775.529762917622
 30
0.0
  0
VERTEX
  5
E4
330
D7
100
AcDbEntity
  8
Graypants_Bow120
370
    -3
100
AcDbVertex
100
AcDb2dVertex
 10
451.7094742091901
 20
-1775.554715955164
 30
0.0
  0
VERTEX
  5
E5
330
D7
100
AcDbEntity
  8
Graypants_Bow120
370
    -3
100
AcDbVertex
100
AcDb2dVertex
 10
451.5426635595978
 20
-1775.576477625127
 30
0.0
  0
VERTEX
  5
E6
330
D7
100
AcDbEntity
  8
Graypants_Bow120
370
    -3
100
AcDbVertex
100
AcDb2dVertex
 10
451.373667676983
 20
-1775.594671305537
 30
0.0
  0
VERTEX
  5
E7
330
D7
100
AcDbEntity
  8
Graypants_Bow120
370
    -3
100
AcDbVertex
100
AcDb2dVertex
 10
451.2034164350036
 20
-1775.60900820358
 30
0.0
  0
VERTEX
  5
E8
330
D7
100
AcDbEntity
  8
Graypants_Bow120
370
    -3
100
AcDbVertex
100
AcDb2dVertex
 10
451.0322046903214
 20
-1775.619395469664
 30
0.0
  0
VERTEX
  5
E9
330
D7
100
AcDbEntity
  8
Graypants_Bow120
370
    -3
100
AcDbVertex
100
AcDb2dVertex
 10
450.8600273560361
 20
-1775.625750396646
 30
0.0
  0
VERTEX
  5
EA
330
D7
100
AcDbEntity
  8
Graypants_Bow120
370
    -3
100
AcDbVertex
100
AcDb2dVertex
 10
450.6868793452476
 20
-1775.627990277386
 30
0.0
  0
VERTEX
  5
EB
330
D7
100
AcDbEntity
  8
Graypants_Bow120
370
    -3
100
AcDbVertex
100
AcDb2dVertex
 10
450.5127932229483
 20
-1775.62599430264
 30
0.0
  0
VERTEX
  5
EC
330
D7
100
AcDbEntity
  8
Graypants_Bow120
370
    -3
100
AcDbVertex
100
AcDb2dVertex
 10
450.3385940604416
 20
-1775.619794560714
 30
0.0
  0
VERTEX
  5
ED
330
D7
100
AcDbEntity
  8
Graypants_Bow120
370
    -3
100
AcDbVertex
100
AcDb2dVertex
 10
450.1654655302929
 20
-1775.60953769079
 30
0.0
  0
VERTEX
  5
EE
330
D7
100
AcDbEntity
  8
Graypants_Bow120
370
    -3
100
AcDbVertex
100
AcDb2dVertex
 10
449.9945913050676
 20
-1775.595370332049
 30
0.0
  0
VERTEX
  5
EF
330
D7
100
AcDbEntity
  8
Graypants_Bow120
370
    -3
100
AcDbVertex
100
AcDb2dVertex
 10
449.8262566984097
 20
-1775.577446445554
 30
0.0
  0
VERTEX
  5
F0
330
D7
100
AcDbEntity
  8
Graypants_Bow120
370
    -3
100
AcDbVertex
100
AcDb2dVertex
 10
449.6601249358729
 20
-1775.555977688362
 30
0.0
  0
VERTEX
  5
F1
330
D7
100
AcDbEntity
  8
Graypants_Bow120
370
    -3
100
AcDbVertex
100
AcDb2dVertex
 10
449.4964465578878
 20
-1775.531197243653
 30
0.0
  0
VERTEX
  5
F2
330
D7
100
AcDbEntity
  8
Graypants_Bow120
370
    -3
100
AcDbVertex
100
AcDb2dVertex
 10
449.3354721048851
 20
-1775.503338294606
 30
0.0
  0
VERTEX
  5
F3
330
D7
100
AcDbEntity
  8
Graypants_Bow120
370
    -3
100
AcDbVertex
100
AcDb2dVertex
 10
449.1783162109216
 20
-1775.472839831363
 30
0.0
  0
VERTEX
  5
F4
330
D7
100
AcDbEntity
  8
Graypants_Bow120
370
    -3
100
AcDbVertex
100
AcDb2dVertex
 10
449.0258559017864
 20
-1775.440173465265
 30
0.0
  0
VERTEX
  5
F5
330
D7
100
AcDbEntity
  8
Graypants_Bow120
370
    -3
100
AcDbVertex
100
AcDb2dVertex
 10
448.7345985501155
 20
-1775.369465484389
 30
0.0
  0
VERTEX
  5
F6
330
D7
100
AcDbEntity
  8
Graypants_Bow120
370
    -3
100
AcDbVertex
100
AcDb2dVertex
 10
448.461114487832
 20
-1775.2934083113
 30
0.0
  0
VERTEX
  5
F7
330
D7
100
AcDbEntity
  8
Graypants_Bow120
370
    -3
100
AcDbVertex
100
AcDb2dVertex
 10
448.2089926884527
 20
-1775.215283797915
 30
0.0
  0
VERTEX
  5
F8
330
D7
100
AcDbEntity
  8
Graypants_Bow120
370
    -3
100
AcDbVertex
100
AcDb2dVertex
 10
447.9815127533986
 20
-1775.138371367475
 30
0.0
  0
VERTEX
  5
F9
330
D7
100
AcDbEntity
  8
Graypants_Bow120
370
    -3
100
AcDbVertex
100
AcDb2dVertex
 10
447.7783853860509
 20
-1775.064674334392
 30
0.0
  0
VERTEX
  5
FA
330
D7
100
AcDbEntity
  8
Graypants_Bow120
370
    -3
100
AcDbVertex
100
AcDb2dVertex
 10
447.4533867283743
 20
-1774.9373226699
 30
0.0
  0
VERTEX
  5
FB
330
D7
100
AcDbEntity
  8
Graypants_Bow120
370
    -3
100
AcDbVertex
100
AcDb2dVertex
 10
447.1804673611523
 20
-1774.821740836993
 30
0.0
  0
SEQEND
  5
FC
330
D7
100
AcDbEntity
  8
Graypants_Bow120
370
    -3
  0
LINE
  5
FD
330
1F
100
AcDbEntity
  8
Graypants_Bow120
370
    -3
100
AcDbLine
 10
345.6804664107469
 20
-1774.821740421191
 30
0.0
 11
447.1804664009178
 21
-1774.821740421191
 31
0.0
  0
LINE
  5
FE
330
1F
100
AcDbEntity
  8
Graypants_Bow120
370
    -3
100
AcDbLine
 10
454.1804664107469
 20
-1774.821740421191
 30
0.0
 11
591.1804664104643
 21
-1774.821740421191
 31
0.0
  0
LINE
  5
FF
330
1F
100
AcDbEntity
  8
Graypants_Bow120
370
    -3
100
AcDbLine
 10
596.1804664107465
 20
-1774.821740421191
 30
0.0
 11
1291.180466410464
 21
-1774.821740421191
 31
0.0
  0
LINE
  5
100
330
1F
100
AcDbEntity
  8
Graypants_Bow120
370
    -3
100
AcDbLine
 10
1296.180466410746
 20
-1774.821740421191
 30
0.0
 11
1433.180466400917
 21
-1774.821740421191
 31
0.0
  0
LINE
  5
101
330
1F
100
AcDbEntity
  8
Graypants_Bow120
370
    -3
100
AcDbLine
 10
1440.180466410747
 20
-1774.821740421191
 30
0.0
 11
1541.680466410747
 21
-1774.821740421191
 31
0.0
  0
LINE
  5
102
330
1F
100
AcDbEntity
  8
Graypants_Bow120
370
    -3
100
AcDbLine
 10
1541.680466410747
 20
-1790.821740421191
 30
0.0
 11
1473.580466415926
 21
-1790.821740421191
 31
0.0
  0
LINE
  5
103
330
1F
100
AcDbEntity
  8
Graypants_Bow120
370
    -3
100
AcDbLine
 10
1401.680466410751
 20
-1790.821740421191
 30
0.0
 11
485.6804664107426
 21
-1790.821740421191
 31
0.0
  0
LINE
  5
104
330
1F
100
AcDbEntity
  8
Graypants_Bow120
370
    -3
100
AcDbLine
 10
413.7804664055679
 20
-1790.821740421191
 30
0.0
 11
345.6804664107472
 21
-1790.821740421191
 31
0.0
  0
LINE
  5
105
330
1F
100
AcDbEntity
  8
Graypants_Bow120
370
    -3
100
AcDbLine
 10
1543.430466410747
 20
-1774.821740421191
 30
0.0
 11
1543.680466410747
 21
-1775.071740421191
 31
0.0
  0
LINE
  5
106
330
1F
100
AcDbEntity
  8
Graypants_Bow120
370
    -3
100
AcDbLine
 10
1543.680466410747
 20
-1790.571740421191
 30
0.0
 11
1543.430466410747
 21
-1790.821740421191
 31
0.0
  0
LINE
  5
107
330
1F
100
AcDbEntity
  8
Graypants_Bow120
370
    -3
100
AcDbLine
 10
1543.430466410747
 20
-1790.821740421191
 30
0.0
 11
1541.680466410747
 21
-1790.821740421191
 31
0.0
  0
LINE
  5
108
330
1F
100
AcDbEntity
  8
Graypants_Bow120
370
    -3
100
AcDbLine
 10
1541.680466410747
 20
-1774.821740421191
 30
0.0
 11
1543.430466410747
 21
-1774.821740421191
 31
0.0
  0
LINE
  5
109
330
1F
100
AcDbEntity
  8
Graypants_Bow120
370
    -3
100
AcDbLine
 10
1473.680466410743
 20
-1821.921740421191
 30
0.0
 11
1473.180466410743
 21
-1822.421740421191
 31
0.0
  0
LINE
  5
10A
330
1F
100
AcDbEntity
  8
Graypants_Bow120
370
    -3
100
AcDbLine
 10
1473.580466409234
 20
-1790.821740419683
 30
0.0
 11
1473.680466410743
 21
-1790.921740421191
 31
0.0
  0
LINE
  5
10B
330
1F
100
AcDbEntity
  8
Graypants_Bow120
370
    -3
100
AcDbLine
 10
1473.680466410743
 20
-1790.921740421191
 30
0.0
 11
1473.680466410743
 21
-1806.421740421191
 31
0.0
  0
LINE
  5
10C
330
1F
100
AcDbEntity
  8
Graypants_Bow120
370
    -3
100
AcDbLine
 10
1473.180466410742
 20
-1822.421740421191
 30
0.0
 11
1471.680466410743
 21
-1822.421740421191
 31
0.0
  0
LINE
  5
10D
330
1F
100
AcDbEntity
  8
Graypants_Bow120
370
    -3
100
AcDbLine
 10
1471.680466410746
 20
-1822.171740421192
 30
0.0
 11
1471.430466410746
 21
-1822.421740421191
 31
0.0
  0
LINE
  5
10E
330
1F
100
AcDbEntity
  8
Graypants_Bow120
370
    -3
100
AcDbLine
 10
1471.430466410746
 20
-1822.421740421191
 30
0.0
 11
1401.930466410751
 21
-1822.421740421191
 31
0.0
  0
LINE
  5
10F
330
1F
100
AcDbEntity
  8
Graypants_Bow120
370
    -3
100
AcDbLine
 10
1401.930466410751
 20
-1822.421740421191
 30
0.0
 11
1401.680466410751
 21
-1822.171740421192
 31
0.0
  0
LINE
  5
110
330
1F
100
AcDbEntity
  8
Graypants_Bow120
370
    -3
100
AcDbLine
 10
413.6804664107513
 20
-1790.921740421191
 30
0.0
 11
413.78046641226
 21
-1790.821740419683
 31
0.0
  0
LINE
  5
111
330
1F
100
AcDbEntity
  8
Graypants_Bow120
370
    -3
100
AcDbLine
 10
414.1804664107513
 20
-1822.421740421191
 30
0.0
 11
413.6804664107513
 21
-1821.921740421191
 31
0.0
  0
LINE
  5
112
330
1F
100
AcDbEntity
  8
Graypants_Bow120
370
    -3
100
AcDbLine
 10
413.6804664107513
 20
-1790.921740421191
 30
0.0
 11
413.6804664107513
 21
-1806.421740421191
 31
0.0
  0
LINE
  5
113
330
1F
100
AcDbEntity
  8
Graypants_Bow120
370
    -3
100
AcDbLine
 10
415.6804664107513
 20
-1822.421740421191
 30
0.0
 11
414.1804664107513
 21
-1822.421740421191
 31
0.0
  0
LINE
  5
114
330
1F
100
AcDbEntity
  8
Graypants_Bow120
370
    -3
100
AcDbLine
 10
415.9304664107481
 20
-1822.421740421191
 30
0.0
 11
415.6804664107481
 21
-1822.171740421192
 31
0.0
  0
LINE
  5
115
330
1F
100
AcDbEntity
  8
Graypants_Bow120
370
    -3
100
AcDbLine
 10
485.4304664107428
 20
-1822.421740421191
 30
0.0
 11
415.9304664107481
 21
-1822.421740421191
 31
0.0
  0
LINE
  5
116
330
1F
100
AcDbEntity
  8
Graypants_Bow120
370
    -3
100
AcDbLine
 10
485.6804664107426
 20
-1822.171740421192
 30
0.0
 11
485.4304664107428
 21
-1822.421740421191
 31
0.0
  0
LINE
  5
117
330
1F
100
AcDbEntity
  8
Graypants_Bow120
370
    -3
100
AcDbLine
 10
1473.180466410743
 20
-1822.421740421191
 30
0.0
 11
1473.180466410743
 21
-1806.421740421191
 31
0.0
  0
LINE
  5
118
330
1F
100
AcDbEntity
  8
Graypants_Bow120
370
    -3
100
AcDbLine
 10
414.1804664107505
 20
-1822.421740421191
 30
0.0
 11
414.1804664107508
 21
-1806.421740421191
 31
0.0
  0
LINE
  5
119
330
1F
100
AcDbEntity
  8
Graypants_Bow120
370
    -3
100
AcDbLine
 10
414.1804664107513
 20
-1790.553943811022
 30
0.0
 11
413.7807615550537
 21
-1790.821545846308
 31
0.0
  0
LINE
  5
11A
330
1F
100
AcDbEntity
  8
Graypants_Bow120
370
    -3
100
AcDbLine
 10
1315.680466410743
 20
-952.6804664107419
 30
0.0
 11
1314.680466410743
 21
-952.6804664107419
 31
0.0
  0
LINE
  5
11B
330
1F
100
AcDbEntity
  8
Graypants_Bow120
370
    -3
100
AcDbLine
 10
572.6804664107426
 20
-952.6804664107317
 30
0.0
 11
1314.680466410743
 21
-952.6804664107419
 31
0.0
  0
LINE
  5
11C
330
1F
100
AcDbEntity
  8
Graypants_Bow120
370
    -3
100
AcDbLine
 10
572.6804664107426
 20
-952.6804664107317
 30
0.0
 11
571.6804664107426
 21
-952.6804664107317
 31
0.0
  0
LINE
  5
11D
330
1F
100
AcDbEntity
  8
Graypants_Bow120
370
    -3
100
AcDbLine
 10
571.6804664107426
 20
-953.6804664107317
 30
0.0
 11
571.6804664107426
 21
-952.6804664107317
 31
0.0
  0
LINE
  5
11E
330
1F
100
AcDbEntity
  8
Graypants_Bow120
370
    -3
100
AcDbLine
 10
571.6804664107426
 20
-953.6804664107317
 30
0.0
 11
572.6804664107426
 21
-953.6804664107317
 31
0.0
  0
LINE
  5
11F
330
1F
100
AcDbEntity
  8
Graypants_Bow120
370
    -3
100
AcDbLine
 10
1314.680466410743
 20
-953.6804664107419
 30
0.0
 11
1315.680466410743
 21
-953.6804664107419
 31
0.0
  0
LINE
  5
120
330
1F
100
AcDbEntity
  8
Graypants_Bow120
370
    -3
100
AcDbLine
 10
1315.680466410743
 20
-953.6804664107419
 30
0.0
 11
1315.680466410743
 21
-952.6804664107419
 31
0.0
  0
LINE
  5
121
330
1F
100
AcDbEntity
  8
Graypants_Bow120
370
    -3
100
AcDbLine
 10
1314.680466410743
 20
-912.6804664107426
 30
0.0
 11
1314.680466410743
 21
-952.6804664107317
 31
0.0
  0
LINE
  5
122
330
1F
100
AcDbEntity
  8
Graypants_Bow120
370
    -3
100
AcDbLine
 10
1314.680466410743
 20
-912.6804664107426
 30
0.0
 11
572.6804664107435
 21
-912.6804664107426
 31
0.0
  0
LINE
  5
123
330
1F
100
AcDbEntity
  8
Graypants_Bow120
370
    -3
100
AcDbLine
 10
572.6804664107435
 20
-912.6804664107426
 30
0.0
 11
572.6804664107435
 21
-952.6804664107317
 31
0.0
  0
LINE
  5
124
330
1F
100
AcDbEntity
  8
Graypants_Bow120
370
    -3
100
AcDbLine
 10
592.9304664107467
 20
-1765.621740421181
 30
0.0
 11
592.9304472286506
 21
-953.6804664107365
 31
0.0
  0
LINE
  5
125
330
1F
100
AcDbEntity
  8
Graypants_Bow120
370
    -3
100
AcDbLine
 10
594.4257415648872
 20
-953.6804664344959
 30
0.0
 11
594.4304664107467
 21
-1765.621740421181
 31
0.0
  0
LINE
  5
126
330
1F
100
AcDbEntity
  8
Graypants_Bow120
370
    -3
100
AcDbLine
 10
1292.930466410747
 20
-1765.621740421166
 30
0.0
 11
1292.930447228651
 21
-953.6804664107423
 31
0.0
  0
LINE
  5
127
330
1F
100
AcDbEntity
  8
Graypants_Bow120
370
    -3
100
AcDbLine
 10
1294.425741564887
 20
-953.6804664107423
 30
0.0
 11
1294.430466410747
 21
-1765.621740421166
 31
0.0
  0
LINE
  5
128
330
1F
100
AcDbEntity
  8
Graypants_Bow120
370
    -3
100
AcDbLine
 10
594.6804664107799
 20
-1765.621740421181
 30
0.0
 11
592.6804664107135
 21
-1765.621740421181
 31
0.0
  0
LINE
  5
129
330
1F
100
AcDbEntity
  8
Graypants_Bow120
370
    -3
100
AcDbLine
 10
1294.68046641078
 20
-1765.621740421166
 30
0.0
 11
1292.680466410714
 21
-1765.621740421166
 31
0.0
  0
LINE
  5
12A
330
1F
100
AcDbEntity
  8
Graypants_Bow120
370
    -3
100
AcDbLine
 10
1401.930466410751
 20
-1806.421740421191
 30
0.0
 11
1401.930466410751
 21
-1822.421740421191
 31
0.0
  0
LINE
  5
12B
330
1F
100
AcDbEntity
  8
Graypants_Bow120
370
    -3
100
AcDbLine
 10
1401.930466410751
 20
-1790.553943811022
 30
0.0
 11
1401.930466410751
 21
-1806.421740421191
 31
0.0
  0
LINE
  5
12C
330
1F
100
AcDbEntity
  8
Graypants_Bow120
370
    -3
100
AcDbLine
 10
1401.680466410751
 20
-1806.421740421191
 30
0.0
 11
1401.680466410751
 21
-1822.171740421192
 31
0.0
  0
LINE
  5
12D
330
1F
100
AcDbEntity
  8
Graypants_Bow120
370
    -3
100
AcDbLine
 10
1401.680466410751
 20
-1790.722111183903
 30
0.0
 11
1401.680466410751
 21
-1806.421740421191
 31
0.0
  0
LINE
  5
12E
330
1F
100
AcDbEntity
  8
Graypants_Bow120
370
    -3
100
AcDbLine
 10
485.4304664107428
 20
-1806.421740421191
 30
0.0
 11
485.4304664107431
 21
-1822.421740421191
 31
0.0
  0
LINE
  5
12F
330
1F
100
AcDbEntity
  8
Graypants_Bow120
370
    -3
100
AcDbLine
 10
485.4304664107426
 20
-1790.553943811022
 30
0.0
 11
485.4304664107426
 21
-1806.421740421191
 31
0.0
  0
LINE
  5
130
330
1F
100
AcDbEntity
  8
Graypants_Bow120
370
    -3
100
AcDbLine
 10
485.6804664107426
 20
-1806.421740421191
 30
0.0
 11
485.6804664107426
 21
-1822.171740421192
 31
0.0
  0
LINE
  5
131
330
1F
100
AcDbEntity
  8
Graypants_Bow120
370
    -3
100
AcDbLine
 10
485.6804664107426
 20
-1790.722111183903
 30
0.0
 11
485.6804664107426
 21
-1806.421740421191
 31
0.0
  0
LINE
  5
132
330
1F
100
AcDbEntity
  8
Graypants_Bow120
370
    -3
100
AcDbLine
 10
1471.680466410756
 20
-1822.421740421191
 30
0.0
 11
1471.680466410743
 21
-1790.553943811022
 31
0.0
  0
LINE
  5
133
330
1F
100
AcDbEntity
  8
Graypants_Bow120
370
    -3
100
AcDbLine
 10
415.6804664107513
 20
-1822.421740421191
 30
0.0
 11
415.6804664107513
 21
-1790.553943811022
 31
0.0
  0
LINE
  5
134
330
1F
100
AcDbEntity
  8
Graypants_Bow120
370
    -3
100
AcDbLine
 10
572.6804664107426
 20
-953.6804664107317
 30
0.0
 11
1314.680466410743
 21
-953.6804664107419
 31
0.0
  0
LINE
  5
135
330
1F
100
AcDbEntity
  8
Graypants_Bow120
370
    -3
100
AcDbLine
 10
-0.000000000005798
 20
-599.9999999999959
 30
0.0
 11
-7.750000000005798
 21
-599.9999999999959
 31
0.0
  0
LINE
  5
136
330
1F
100
AcDbEntity
  8
Graypants_Bow120
370
    -3
100
AcDbLine
 10
-0.000000000005798
 20
-599.7499999999959
 30
0.0
 11
7.999999999994202
 21
-599.7499999999959
 31
0.0
  0
LINE
  5
137
330
1F
100
AcDbEntity
  8
Graypants_Bow120
370
    -3
100
AcDbLine
 10
-0.0000000000005684
 20
600.0000000000041
 30
0.0
 11
7.749999999994316
 21
600.0000000000041
 31
0.0
  0
LINE
  5
138
330
1F
100
AcDbEntity
  8
Graypants_Bow120
370
    -3
100
AcDbLine
 10
-0.0000000000004547
 20
599.7500000000041
 30
0.0
 11
-8.000000000005684
 21
599.7500000000041
 31
0.0
  0
LINE
  5
139
330
1F
100
AcDbEntity
  8
Graypants_Bow120
370
    -3
100
AcDbLine
 10
15.9999999999942
 20
529.5
 30
0.0
 11
8.000125801459241
 21
529.4999999999995
 31
0.0
  0
LINE
  5
13A
330
1F
100
AcDbEntity
  8
Graypants_Bow120
370
    -3
100
AcDbLine
 10
15.9999999999942
 20
-529.4999999999918
 30
0.0
 11
8.000091696197943
 21
-529.4999999999916
 31
0.0
  0
LINE
  5
13B
330
1F
100
AcDbEntity
  8
Graypants_Bow120
370
    -3
100
AcDbLine
 10
-7.750000000005798
 20
-599.9999999999959
 30
0.0
 11
-8.000000000005798
 21
-599.7499999999959
 31
0.0
  0
LINE
  5
13C
330
1F
100
AcDbEntity
  8
Graypants_Bow120
370
    -3
100
AcDbLine
 10
7.999999999994202
 20
-599.7499999999959
 30
0.0
 11
7.749999999994202
 21
-599.9999999999959
 31
0.0
  0
LINE
  5
13D
330
1F
100
AcDbEntity
  8
Graypants_Bow120
370
    -3
100
AcDbLine
 10
7.749999999994202
 20
-599.9999999999959
 30
0.0
 11
-0.000000000005798
 21
-599.9999999999959
 31
0.0
  0
LINE
  5
13E
330
1F
100
AcDbEntity
  8
Graypants_Bow120
370
    -3
100
AcDbLine
 10
7.999999999994202
 20
-597.9999999999959
 30
0.0
 11
7.999999999994202
 21
-599.7499999999959
 31
0.0
  0
LINE
  5
13F
330
1F
100
AcDbEntity
  8
Graypants_Bow120
370
    -3
100
AcDbLine
 10
-8.000000000005798
 20
-599.7499999999959
 30
0.0
 11
-8.000000000005798
 21
-597.9999999999959
 31
0.0
  0
LINE
  5
140
330
1F
100
AcDbEntity
  8
Graypants_Bow120
370
    -3
100
AcDbLine
 10
7.749999999994316
 20
600.0000000000041
 30
0.0
 11
7.999999999994316
 21
599.7500000000041
 31
0.0
  0
LINE
  5
141
330
1F
100
AcDbEntity
  8
Graypants_Bow120
370
    -3
100
AcDbLine
 10
-8.000000000005684
 20
599.7500000000041
 30
0.0
 11
-7.750000000005684
 21
600.0000000000041
 31
0.0
  0
LINE
  5
142
330
1F
100
AcDbEntity
  8
Graypants_Bow120
370
    -3
100
AcDbLine
 10
-7.750000000005684
 20
600.0000000000041
 30
0.0
 11
-0.0000000000005684
 21
600.0000000000041
 31
0.0
  0
LINE
  5
143
330
1F
100
AcDbEntity
  8
Graypants_Bow120
370
    -3
100
AcDbLine
 10
-8.000000000005684
 20
598.0000000000041
 30
0.0
 11
-8.000000000005684
 21
599.7500000000041
 31
0.0
  0
LINE
  5
144
330
1F
100
AcDbEntity
  8
Graypants_Bow120
370
    -3
100
AcDbLine
 10
7.999999999994316
 20
599.7500000000041
 30
0.0
 11
7.999999999994316
 21
598.0000000000041
 31
0.0
  0
LINE
  5
145
330
1F
100
AcDbEntity
  8
Graypants_Bow120
370
    -3
100
AcDbLine
 10
15.49999999999409
 20
529.9999999999995
 30
0.0
 11
15.99999999999409
 21
529.4999999999995
 31
0.0
  0
LINE
  5
146
330
1F
100
AcDbEntity
  8
Graypants_Bow120
370
    -3
100
AcDbLine
 10
-16.0000000000058
 20
529.5
 30
0.0
 11
-15.50000000000591
 21
529.9999999999995
 31
0.0
  0
LINE
  5
147
330
1F
100
AcDbEntity
  8
Graypants_Bow120
370
    -3
100
AcDbLine
 10
15.99999999999409
 20
529.4999999999995
 30
0.0
 11
15.99999999999409
 21
527.9999999999995
 31
0.0
  0
LINE
  5
148
330
1F
100
AcDbEntity
  8
Graypants_Bow120
370
    -3
100
AcDbLine
 10
-16.00000000000591
 20
527.9999999999995
 30
0.0
 11
-16.00000000000591
 21
529.4999999999995
 31
0.0
  0
LINE
  5
149
330
1F
100
AcDbEntity
  8
Graypants_Bow120
370
    -3
100
AcDbLine
 10
15.7499999999942
 20
528.0000000000032
 30
0.0
 11
15.9999999999942
 21
527.7500000000032
 31
0.0
  0
LINE
  5
14A
330
1F
100
AcDbEntity
  8
Graypants_Bow120
370
    -3
100
AcDbLine
 10
-16.00000000000591
 20
527.7500000000032
 30
0.0
 11
-15.75000000000591
 21
528.0000000000032
 31
0.0
  0
LINE
  5
14B
330
1F
100
AcDbEntity
  8
Graypants_Bow120
370
    -3
100
AcDbLine
 10
15.9999999999942
 20
527.7500000000032
 30
0.0
 11
15.9999999999942
 21
458.2500000000082
 31
0.0
  0
LINE
  5
14C
330
1F
100
AcDbEntity
  8
Graypants_Bow120
370
    -3
100
AcDbLine
 10
-16.0000000000058
 20
458.2500000000082
 30
0.0
 11
-16.0000000000058
 21
527.7500000000032
 31
0.0
  0
LINE
  5
14D
330
1F
100
AcDbEntity
  8
Graypants_Bow120
370
    -3
100
AcDbLine
 10
15.9999999999942
 20
458.2500000000082
 30
0.0
 11
15.7499999999942
 21
458.0000000000082
 31
0.0
  0
LINE
  5
14E
330
1F
100
AcDbEntity
  8
Graypants_Bow120
370
    -3
100
AcDbLine
 10
-15.75000000000591
 20
458.0000000000082
 30
0.0
 11
-16.00000000000591
 21
458.2500000000082
 31
0.0
  0
LINE
  5
14F
330
1F
100
AcDbEntity
  8
Graypants_Bow120
370
    -3
100
AcDbLine
 10
15.99999999999397
 20
-529.4999999999918
 30
0.0
 11
15.49999999999409
 21
-529.9999999999916
 31
0.0
  0
LINE
  5
150
330
1F
100
AcDbEntity
  8
Graypants_Bow120
370
    -3
100
AcDbLine
 10
-15.50000000000591
 20
-529.9999999999916
 30
0.0
 11
-16.0000000000058
 21
-529.4999999999918
 31
0.0
  0
LINE
  5
151
330
1F
100
AcDbEntity
  8
Graypants_Bow120
370
    -3
100
AcDbLine
 10
-16.00000000000591
 20
-529.4999999999918
 30
0.0
 11
-16.00000000000591
 21
-527.9999999999918
 31
0.0
  0
LINE
  5
152
330
1F
100
AcDbEntity
  8
Graypants_Bow120
370
    -3
100
AcDbLine
 10
15.99999999999409
 20
-527.9999999999918
 30
0.0
 11
15.99999999999409
 21
-529.4999999999918
 31
0.0
  0
LINE
  5
153
330
1F
100
AcDbEntity
  8
Graypants_Bow120
370
    -3
100
AcDbLine
 10
15.9999999999942
 20
-527.749999999995
 30
0.0
 11
15.7499999999942
 21
-527.999999999995
 31
0.0
  0
LINE
  5
154
330
1F
100
AcDbEntity
  8
Graypants_Bow120
370
    -3
100
AcDbLine
 10
-15.75000000000591
 20
-527.999999999995
 30
0.0
 11
-16.00000000000591
 21
-527.749999999995
 31
0.0
  0
LINE
  5
155
330
1F
100
AcDbEntity
  8
Graypants_Bow120
370
    -3
100
AcDbLine
 10
15.9999999999942
 20
-458.25
 30
0.0
 11
15.9999999999942
 21
-527.749999999995
 31
0.0
  0
LINE
  5
156
330
1F
100
AcDbEntity
  8
Graypants_Bow120
370
    -3
100
AcDbLine
 10
-16.0000000000058
 20
-527.749999999995
 30
0.0
 11
-16.0000000000058
 21
-458.25
 31
0.0
  0
LINE
  5
157
330
1F
100
AcDbEntity
  8
Graypants_Bow120
370
    -3
100
AcDbLine
 10
15.7499999999942
 20
-458.0000000000002
 30
0.0
 11
15.9999999999942
 21
-458.25
 31
0.0
  0
LINE
  5
158
330
1F
100
AcDbEntity
  8
Graypants_Bow120
370
    -3
100
AcDbLine
 10
-16.00000000000591
 20
-458.25
 30
0.0
 11
-15.75000000000591
 21
-458.0000000000002
 31
0.0
  0
LINE
  5
159
330
1F
100
AcDbEntity
  8
Graypants_Bow120
370
    -3
100
AcDbLine
 10
-8.000000000005798
 20
-599.7499999999959
 30
0.0
 11
-0.000000000005798
 21
-599.7499999999959
 31
0.0
  0
LINE
  5
15A
330
1F
100
AcDbEntity
  8
Graypants_Bow120
370
    -3
100
AcDbLine
 10
7.999999999994202
 20
599.7500000000041
 30
0.0
 11
-0.0000000000004547
 21
599.7500000000041
 31
0.0
  0
LINE
  5
15B
330
1F
100
AcDbEntity
  8
Graypants_Bow120
370
    -3
100
AcDbLine
 10
-8.000000000005741
 20
529.4999999999998
 30
0.0
 11
-16.00000000000581
 21
529.5000000000006
 31
0.0
  0
LINE
  5
15C
330
1F
100
AcDbEntity
  8
Graypants_Bow120
370
    -3
100
AcDbLine
 10
-16.00000000000601
 20
527.750000000003
 30
0.0
 11
-7.999544372324354
 21
527.750000000003
 31
0.0
  0
LINE
  5
15D
330
1F
100
AcDbEntity
  8
Graypants_Bow120
370
    -3
100
AcDbLine
 10
8.00039705553826
 20
527.750000000003
 30
0.0
 11
15.9999999999942
 21
527.7500000000032
 31
0.0
  0
LINE
  5
15E
330
1F
100
AcDbEntity
  8
Graypants_Bow120
370
    -3
100
AcDbLine
 10
-16.000000000006
 20
-527.7499999999947
 30
0.0
 11
-7.999559818044678
 21
-527.7499999999948
 31
0.0
  0
LINE
  5
15F
330
1F
100
AcDbEntity
  8
Graypants_Bow120
370
    -3
100
AcDbLine
 10
8.000381609395133
 20
-527.7499999999952
 30
0.0
 11
15.9999999999942
 21
-527.749999999995
 31
0.0
  0
LINE
  5
160
330
1F
100
AcDbEntity
  8
Graypants_Bow120
370
    -3
100
AcDbLine
 10
8.00012846711997
 20
529.9999999999995
 30
0.0
 11
15.49999999999409
 21
529.9999999999995
 31
0.0
  0
LINE
  5
161
330
1F
100
AcDbEntity
  8
Graypants_Bow120
370
    -3
100
AcDbLine
 10
8.000089030618053
 20
-529.9999999999917
 30
0.0
 11
15.49999999999409
 21
-529.9999999999918
 31
0.0
  0
ARC
  5
163
330
1F
100
AcDbEntity
  8
Graypants_Bow120
  6
Hidden
370
    -3
100
AcDbCircle
 10
-30.00000000000031
 20
371.0000000000003
 30
0.0
 40
0.9999999999996589
210
0.0
220
0.0
230
-1.0
100
AcDbArc
 50
89.99999999998208
 51
180.0000000000196
  0
LINE
  5
164
330
1F
100
AcDbEntity
  8
Graypants_Bow120
  6
Hidden
370
    -3
100
AcDbLine
 10
31.0
 20
-371.0
 30
0.0
 11
31.0
 21
371.0
 31
0.0
  0
ARC
  5
165
330
1F
100
AcDbEntity
  8
Graypants_Bow120
  6
Hidden
370
    -3
100
AcDbCircle
 10
-30.0000000000001
 20
-371.0000000000001
 30
0.0
 40
0.9999999999999005
210
0.0
220
0.0
230
-1.0
100
AcDbArc
 50
179.9999999999935
 51
270.0000000000057
  0
ARC
  5
166
330
1F
100
AcDbEntity
  8
Graypants_Bow120
  6
Hidden
370
    -3
100
AcDbCircle
 10
29.99999999999994
 20
-370.9999999999999
 30
0.0
 40
1.000000000000057
210
0.0
220
0.0
230
-1.0
100
AcDbArc
 50
270.0000000000032
 51
359.9999999999968
  0
LINE
  5
167
330
1F
100
AcDbEntity
  8
Graypants_Bow120
  6
Hidden
370
    -3
100
AcDbLine
 10
-31.0
 20
371.0
 30
0.0
 11
-31.0
 21
-371.0
 31
0.0
  0
ARC
  5
168
330
1F
100
AcDbEntity
  8
Graypants_Bow120
  6
Hidden
370
    -3
100
AcDbCircle
 10
30.00000000000016
 20
371.0000000000002
 30
0.0
 40
0.9999999999998437
210
0.0
220
0.0
230
-1.0
100
AcDbArc
 50
359.9999999999902
 51
90.00000000000895
  0
LINE
  5
169
330
1F
100
AcDbEntity
  8
Graypants_Bow120
370
    -3
100
AcDbLine
 10
-8.000000000005864
 20
-529.4999999999916
 30
0.0
 11
-16.00000000000587
 21
-529.4999999999917
 31
0.0
  0
ARC
  5
16A
330
1F
100
AcDbEntity
  8
Graypants_Bow120
370
    -3
100
AcDbCircle
 10
0.0000281184102846
 20
492.9999999953786
 30
0.0
 40
3.500000004738866
210
0.0
220
0.0
230
-1.0
100
AcDbArc
 50
270.000460304547
 51
332.9999999999979
  0
CIRCLE
  5
16B
330
1F
100
AcDbEntity
  8
Graypants_Bow120
370
    -3
100
AcDbCircle
 10
-0.0000000356537839
 20
493.0000000002006
 30
0.0
 40
3.500000009900258
210
0.0
220
0.0
230
-1.0
  0
CIRCLE
  5
16C
330
1F
100
AcDbEntity
  8
Graypants_Bow120
370
    -3
100
AcDbCircle
 10
-0.0000000356538976
 20
-492.9999999997992
 30
0.0
 40
3.500000009900258
210
0.0
220
0.0
230
-1.0
  0
LINE
  5
16D
330
1F
100
AcDbEntity
  8
Graypants_Bow120
370
    -3
100
AcDbLine
 10
-7.999823617891789
 20
528.0000000000008
 30
0.0
 11
-16.0000000000058
 21
528.0000000000068
 31
0.0
  0
LINE
  5
16E
330
1F
100
AcDbEntity
  8
Graypants_Bow120
370
    -3
100
AcDbLine
 10
-16.00000000000527
 20
458.2500000000081
 30
0.0
 11
-7.999914886904331
 21
458.2500000000083
 31
0.0
  0
LINE
  5
16F
330
1F
100
AcDbEntity
  8
Graypants_Bow120
370
    -3
100
AcDbLine
 10
7.999999999994413
 20
458.2500000000084
 30
0.0
 11
15.9999999999942
 21
458.2500000000082
 31
0.0
  0
LINE
  5
170
330
1F
100
AcDbEntity
  8
Graypants_Bow120
370
    -3
100
AcDbLine
 10
7.999999999994242
 20
458.0000000000081
 30
0.0
 11
15.7499999999942
 21
458.0000000000082
 31
0.0
  0
LINE
  5
171
330
1F
100
AcDbEntity
  8
Graypants_Bow120
370
    -3
100
AcDbLine
 10
-7.999841729364608
 20
-527.9999999999918
 30
0.0
 11
-16.0000000000058
 21
-527.9999999999918
 31
0.0
  0
LINE
  5
172
330
1F
100
AcDbEntity
  8
Graypants_Bow120
370
    -3
100
AcDbLine
 10
-16.00000000000565
 20
-458.2499999999999
 30
0.0
 11
-7.999750460739375
 21
-458.2500000000002
 31
0.0
  0
LINE
  5
173
330
1F
100
AcDbEntity
  8
Graypants_Bow120
370
    -3
100
AcDbLine
 10
8.0001909627583
 20
-458.25
 30
0.0
 11
15.9999999999942
 21
-458.25
 31
0.0
  0
LINE
  5
174
330
1F
100
AcDbEntity
  8
Graypants_Bow120
370
    -3
100
AcDbLine
 10
7.999999999994249
 20
-458.0000000000003
 30
0.0
 11
15.7499999999942
 21
-458.0000000000002
 31
0.0
  0
LINE
  5
175
330
1F
100
AcDbEntity
  8
Graypants_Bow120
370
    -3
100
AcDbLine
 10
-15.75000000000591
 20
-458.0000000000002
 30
0.0
 11
-8.000000000005727
 21
-458.0000000000002
 31
0.0
  0
LINE
  5
176
330
1F
100
AcDbEntity
  8
Graypants_Bow120
370
    -3
100
AcDbLine
 10
-15.50000000000568
 20
530.0
 30
0.0
 11
-7.999812955669432
 21
529.9999999999997
 31
0.0
  0
LINE
  5
177
330
1F
100
AcDbEntity
  8
Graypants_Bow120
370
    -3
100
AcDbLine
 10
15.99999999999409
 20
528.0000000000055
 30
0.0
 11
8.000117804636353
 21
528.0000000000005
 31
0.0
  0
LINE
  5
178
330
1F
100
AcDbEntity
  8
Graypants_Bow120
370
    -3
100
AcDbLine
 10
-15.75000000000591
 20
458.0000000000082
 30
0.0
 11
-8.000000000005693
 21
458.0000000000084
 31
0.0
  0
LINE
  5
179
330
1F
100
AcDbEntity
  8
Graypants_Bow120
370
    -3
100
AcDbLine
 10
-15.50000000000568
 20
-529.9999999999918
 30
0.0
 11
-7.99985239177731
 21
-529.9999999999915
 31
0.0
  0
LINE
  5
17A
330
1F
100
AcDbEntity
  8
Graypants_Bow120
370
    -3
100
AcDbLine
 10
15.99999999999409
 20
-527.9999999999918
 30
0.0
 11
8.000099693014102
 21
-527.9999999999918
 31
0.0
  0
LINE
  5
17B
330
1F
100
AcDbEntity
  8
Graypants_Bow120
  6
Hidden
370
    -3
100
AcDbLine
 10
-30.0
 20
-372.0
 30
0.0
 11
30.0
 21
-372.0
 31
0.0
  0
LINE
  5
17C
330
1F
100
AcDbEntity
  8
Graypants_Bow120
  6
Hidden
370
    -3
100
AcDbLine
 10
30.0
 20
372.0
 30
0.0
 11
-30.0
 21
372.0
 31
0.0
  0
LINE
  5
17D
330
1F
100
AcDbEntity
  8
Graypants_Bow120
  6
Hidden
370
    -3
100
AcDbLine
 10
-29.99999999999909
 20
-370.9999999999993
 30
0.0
 11
-29.99999999999909
 21
371.0
 31
0.0
  0
LINE
  5
17E
330
1F
100
AcDbEntity
  8
Graypants_Bow120
  6
Hidden
370
    -3
100
AcDbLine
 10
-29.99999999999909
 20
371.0
 30
0.0
 11
30.00000000000477
 21
371.0
 31
0.0
  0
LINE
  5
17F
330
1F
100
AcDbEntity
  8
Graypants_Bow120
  6
Hidden
370
    -3
100
AcDbLine
 10
30.00000000000477
 20
371.0
 30
0.0
 11
30.00000000000477
 21
-370.9999999999993
 31
0.0
  0
LINE
  5
180
330
1F
100
AcDbEntity
  8
Graypants_Bow120
  6
Hidden
370
    -3
100
AcDbLine
 10
30.00000000000477
 20
-370.9999999999993
 30
0.0
 11
-29.99999999999909
 21
-370.9999999999993
 31
0.0
  0
ARC
  5
181
330
1F
100
AcDbEntity
  8
Graypants_Bow120
370
    -3
100
AcDbCircle
 10
0.0000018397340654
 20
349.9999999999679
 30
0.0
 40
2.500000000246527
210
0.0
220
0.0
230
-1.0
100
AcDbArc
 50
269.9999560327026
 51
269.9913346537588
  0
ARC
  5
182
330
1F
100
AcDbEntity
  8
Graypants_Bow120
370
    -3
100
AcDbCircle
 10
-0.0000000393502316
 20
350.0000000000053
 30
0.0
 40
0.7499999999997158
210
0.0
220
0.0
230
-1.0
100
AcDbArc
 50
89.99999999997137
 51
180.032397618153
  0
ARC
  5
183
330
1F
100
AcDbEntity
  8
Graypants_Bow120
370
    -3
100
AcDbCircle
 10
-0.0000000393489046
 20
350.0000000000113
 30
0.0
 40
0.7500000000063092
210
0.0
220
0.0
230
-1.0
100
AcDbArc
 50
243.0000000001573
 51
269.9999999999273
  0
ARC
  5
184
330
1F
100
AcDbEntity
  8
Graypants_Bow120
370
    -3
100
AcDbCircle
 10
-0.0000000393502686
 20
350.0000000000045
 30
0.0
 40
0.7499999999996433
210
0.0
220
0.0
230
-1.0
100
AcDbArc
 50
180.0323976180965
 51
243.0000000000142
  0
ARC
  5
185
330
1F
100
AcDbEntity
  8
Graypants_Bow120
370
    -3
100
AcDbCircle
 10
-0.0000000393498231
 20
350.0000000000051
 30
0.0
 40
0.7499999999999075
210
0.0
220
0.0
230
-1.0
100
AcDbArc
 50
359.9676023819339
 51
90.00000000000256
  0
LINE
  5
186
330
1F
100
AcDbEntity
  8
Graypants_Bow120
370
    -3
100
AcDbLine
 10
0.7500000393498567
 20
350.000000000005
 30
0.0
 11
0.7451848981910416
 21
349.9995786388286
 31
0.0
  0
ARC
  5
187
330
1F
100
AcDbEntity
  8
Graypants_Bow120
370
    -3
100
AcDbCircle
 10
-0.0000000393501978
 20
350.0000000000053
 30
0.0
 40
0.7500000000003411
210
0.0
220
0.0
230
-1.0
100
AcDbArc
 50
270.000000000026
 51
359.9676023819122
  0
ARC
  5
188
330
1F
100
AcDbEntity
  8
Graypants_Bow120
370
    -3
100
AcDbCircle
 10
0.0000000000071481
 20
-349.9999999999897
 30
0.0
 40
0.750000000006195
210
0.0
220
0.0
230
-1.0
100
AcDbArc
 50
243.000000000117
 51
269.9999999998968
  0
ARC
  5
189
330
1F
100
AcDbEntity
  8
Graypants_Bow120
370
    -3
100
AcDbCircle
 10
0.0000000000063535
 20
-349.9999999999953
 30
0.0
 40
0.7500000000006105
210
0.0
220
0.0
230
-1.0
100
AcDbArc
 50
180.0323976180748
 51
242.9999999999789
  0
ARC
  5
18A
330
1F
100
AcDbEntity
  8
Graypants_Bow120
370
    -3
100
AcDbCircle
 10
0.0000000000060894
 20
-349.9999999999956
 30
0.0
 40
0.74999999999965
210
0.0
220
0.0
230
-1.0
100
AcDbArc
 50
359.9676023819164
 51
90.00000000002227
  0
ARC
  5
18B
330
1F
100
AcDbEntity
  8
Graypants_Bow120
370
    -3
100
AcDbCircle
 10
0.0000000000054954
 20
-349.9999999999956
 30
0.0
 40
0.7499999999997158
210
0.0
220
0.0
230
-1.0
100
AcDbArc
 50
89.9999999999769
 51
180.0323976180488
  0
LINE
  5
18C
330
1F
100
AcDbEntity
  8
Graypants_Bow120
370
    -3
100
AcDbLine
 10
-0.000000000005798
 20
-349.2499999999959
 30
0.0
 11
-0.000000000005798
 21
-349.2548877896329
 31
0.0
  0
ARC
  5
18D
330
1F
100
AcDbEntity
  8
Graypants_Bow120
370
    -3
100
AcDbCircle
 10
0.0000000000050306
 20
-349.9999999999952
 30
0.0
 40
0.750000000000739
210
0.0
220
0.0
230
-1.0
100
AcDbArc
 50
270.0000000000586
 51
359.9676023818818
  0
ARC
  5
18E
330
1F
100
AcDbEntity
  8
Graypants_Bow120
370
    -3
100
AcDbCircle
 10
0.0000018539922985
 20
-350.0000000000316
 30
0.0
 40
2.500000000246962
210
0.0
220
0.0
230
-1.0
100
AcDbArc
 50
269.9999566078931
 51
269.9913347779694
  0
ARC
  5
18F
330
1F
100
AcDbEntity
  8
Graypants_Bow120
370
    -3
100
AcDbCircle
 10
-0.0000000810320788
 20
350.0000000211895
 30
0.0
 40
2.499999953318154
210
0.0
220
0.0
230
-1.0
100
AcDbArc
 50
153.0000000017685
 51
153.051443449863
  0
ARC
  5
190
330
1F
100
AcDbEntity
  8
Graypants_Bow120
370
    -3
100
AcDbCircle
 10
-0.0000004990564988
 20
-349.9999997462513
 30
0.0
 40
2.499999440209483
210
0.0
220
0.0
230
-1.0
100
AcDbArc
 50
152.9999999918283
 51
153.0514436246471
  0
CIRCLE
  5
191
330
1F
100
AcDbEntity
  8
Graypants_Bow120
370
    -3
100
AcDbCircle
 10
-0.000000039349401
 20
350.000000000005
 30
0.0
 40
1.000000000033651
210
0.0
220
0.0
230
-1.0
  0
CIRCLE
  5
192
330
1F
100
AcDbEntity
  8
Graypants_Bow120
370
    -3
100
AcDbCircle
 10
-0.0000000393495215
 20
350.0000000000045
 30
0.0
 40
1.500000000000455
210
0.0
220
0.0
230
-1.0
  0
CIRCLE
  5
193
330
1F
100
AcDbEntity
  8
Graypants_Bow120
370
    -3
100
AcDbCircle
 10
0.0000000393501044
 20
350.0000000000045
 30
0.0
 40
2.249999999996874
  0
CIRCLE
  5
194
330
1F
100
AcDbEntity
  8
Graypants_Bow120
370
    -3
100
AcDbCircle
 10
0.0000000000058081
 20
-349.9999999999955
 30
0.0
 40
1.000000000033197
210
0.0
220
0.0
230
-1.0
  0
CIRCLE
  5
195
330
1F
100
AcDbEntity
  8
Graypants_Bow120
370
    -3
100
AcDbCircle
 10
0.0000000000059086
 20
-349.9999999999957
 30
0.0
 40
1.500000000000227
210
0.0
220
0.0
230
-1.0
  0
CIRCLE
  5
196
330
1F
100
AcDbEntity
  8
Graypants_Bow120
370
    -3
100
AcDbCircle
 10
-0.0000000000058081
 20
-349.9999999999957
 30
0.0
 40
2.249999999996589
  0
LINE
  5
197
330
1F
100
AcDbEntity
  8
Graypants_Bow120
370
    -3
100
AcDbLine
 10
-8.000000000005798
 20
0.0000000000004547
 30
0.0
 11
-8.000000000005798
 21
598.0000000000041
 31
0.0
  0
LINE
  5
198
330
1F
100
AcDbEntity
  8
Graypants_Bow120
370
    -3
100
AcDbLine
 10
7.999999999994202
 20
598.0000000000041
 30
0.0
 11
7.999999999994202
 21
0.0000000000004547
 31
0.0
  0
LINE
  5
199
330
1F
100
AcDbEntity
  8
Graypants_Bow120
370
    -3
100
AcDbLine
 10
7.999999999994202
 20
0.0000000000004547
 30
0.0
 11
7.999999999994202
 21
-597.9999999999959
 31
0.0
  0
LINE
  5
19A
330
1F
100
AcDbEntity
  8
Graypants_Bow120
370
    -3
100
AcDbLine
 10
-8.000000000005798
 20
-597.9999999999959
 30
0.0
 11
-8.000000000005798
 21
0.0000000000004547
 31
0.0
  0
LINE
  5
19B
330
1F
100
AcDbEntity
  8
Graypants_Bow120
100
AcDbLine
 10
-8.000000000005798
 20
-597.9999999999959
 30
0.0
 11
7.999999999994202
 21
-597.9999999999959
 31
0.0
  0
LINE
  5
19C
330
1F
100
AcDbEntity
  8
Graypants_Bow120
100
AcDbLine
 10
-8.000000000005798
 20
598.0000000000041
 30
0.0
 11
7.999999999994202
 21
598.0000000000041
 31
0.0
  0
LINE
  5
19D
330
1F
100
AcDbEntity
  8
Graypants_Bow120
100
AcDbLine
 10
345.6804664107469
 20
-1774.821740421191
 30
0.0
 11
345.6804664107467
 21
-1790.821740421191
 31
0.0
  0
LINE
  5
19E
330
1F
100
AcDbEntity
  8
Graypants_Bow120
100
AcDbLine
 10
1541.680466410747
 20
-1774.821740421191
 30
0.0
 11
1541.680466410747
 21
-1790.821740421191
 31
0.0
  0
LINE
  5
19F
330
1F
100
AcDbEntity
  8
Graypants_Bow120
100
AcDbLine
 10
1292.180466410745
 20
-1765.867981473589
 30
0.0
 11
1292.680466410714
 21
-1765.621740421166
 31
0.0
  0
LINE
  5
1A0
330
1F
100
AcDbEntity
  8
Graypants_Bow120
100
AcDbLine
 10
1294.68046641078
 20
-1765.621740421166
 30
0.0
 11
1295.180466410749
 21
-1765.867981473589
 31
0.0
  0
LINE
  5
1A1
330
1F
100
AcDbEntity
  8
Graypants_Bow120
370
    -3
100
AcDbLine
 10
12.99999999999409
 20
0.0000000000004547
 30
0.0
 11
12.99999999999386
 21
-458.0000000000001
 31
0.0
  0
LINE
  5
1A2
330
1F
100
AcDbEntity
  8
Graypants_Bow120
370
    -3
100
AcDbLine
 10
-13.00000000000614
 20
-458.0000000000003
 30
0.0
 11
-13.00000000000591
 21
-1.000000000000455
 31
0.0
  0
LINE
  5
1A3
330
1F
100
AcDbEntity
  8
Graypants_Bow120
370
    -3
100
AcDbLine
 10
12.9999999999942
 20
458.0000000000082
 30
0.0
 11
12.99999999999409
 21
0.0000000000004547
 31
0.0
  0
LINE
  5
1A4
330
1F
100
AcDbEntity
  8
Graypants_Bow120
370
    -3
100
AcDbLine
 10
-13.00000000000591
 20
0.0000000000004547
 30
0.0
 11
-13.0000000000058
 21
458.0000000000081
 31
0.0
  0
ARC
  5
1A5
330
1F
100
AcDbEntity
  8
Graypants_Bow120
370
    -3
100
AcDbCircle
 10
-0.000000000005646
 20
-1806.421740421192
 30
0.0
 40
16.00000000000008
100
AcDbArc
 50
97.37052504017552
 51
0.0
  0
LINE
  5
1A6
330
1F
100
AcDbEntity
  8
Graypants_Bow120
370
    -3
100
AcDbLine
 10
-13.00000000000603
 20
-1900.171740421192
 30
0.0
 11
-13.00000000000614
 21
-1815.74911947428
 31
0.0
  0
LINE
  5
1A7
330
1F
100
AcDbEntity
  8
Graypants_Bow120
370
    -3
100
AcDbLine
 10
12.99999999999397
 20
-1900.171740421192
 30
0.0
 11
12.99999999999386
 21
-1815.749119474281
 31
0.0
  0
POLYLINE
  5
1A8
330
1F
100
AcDbEntity
  8
Graypants_Bow120
370
    -3
100
AcDb2dPolyline
 66
     1
 10
0.0
 20
0.0
 30
0.0
  0
VERTEX
  5
1A9
330
1A8
100
AcDbEntity
  8
Graypants_Bow120
370
    -3
100
AcDbVertex
100
AcDb2dVertex
 10
1401.680466410751
 20
-1819.681999253047
 30
0.0
  0
VERTEX
  5
1AA
330
1A8
100
AcDbEntity
  8
Graypants_Bow120
370
    -3
100
AcDbVertex
100
AcDb2dVertex
 10
1397.419343800779
 20
-1819.828942537069
 30
0.0
  0
VERTEX
  5
1AB
330
1A8
100
AcDbEntity
  8
Graypants_Bow120
370
    -3
100
AcDbVertex
100
AcDb2dVertex
 10
1393.188179199371
 20
-1820.007297359607
 30
0.0
  0
VERTEX
  5
1AC
330
1A8
100
AcDbEntity
  8
Graypants_Bow120
370
    -3
100
AcDbVertex
100
AcDb2dVertex
 10
1388.986864769533
 20
-1820.216388385513
 30
0.0
  0
VERTEX
  5
1AD
330
1A8
100
AcDbEntity
  8
Graypants_Bow120
370
    -3
100
AcDbVertex
100
AcDb2dVertex
 10
1384.815292674272
 20
-1820.455540279635
 30
0.0
  0
VERTEX
  5
1AE
330
1A8
100
AcDbEntity
  8
Graypants_Bow120
370
    -3
100
AcDbVertex
100
AcDb2dVertex
 10
1380.673355076595
 20
-1820.724077706824
 30
0.0
  0
VERTEX
  5
1AF
330
1A8
100
AcDbEntity
  8
Graypants_Bow120
370
    -3
100
AcDbVertex
100
AcDb2dVertex
 10
1376.56094413951
 20
-1821.02132533193
 30
0.0
  0
VERTEX
  5
1B0
330
1A8
100
AcDbEntity
  8
Graypants_Bow120
370
    -3
100
AcDbVertex
100
AcDb2dVertex
 10
1372.477952026021
 20
-1821.346607819803
 30
0.0
  0
VERTEX
  5
1B1
330
1A8
100
AcDbEntity
  8
Graypants_Bow120
370
    -3
100
AcDbVertex
100
AcDb2dVertex
 10
1368.424270899137
 20
-1821.699249835292
 30
0.0
  0
VERTEX
  5
1B2
330
1A8
100
AcDbEntity
  8
Graypants_Bow120
370
    -3
100
AcDbVertex
100
AcDb2dVertex
 10
1364.399792921865
 20
-1822.078576043249
 30
0.0
  0
VERTEX
  5
1B3
330
1A8
100
AcDbEntity
  8
Graypants_Bow120
370
    -3
100
AcDbVertex
100
AcDb2dVertex
 10
1360.40441025721
 20
-1822.483911108522
 30
0.0
  0
VERTEX
  5
1B4
330
1A8
100
AcDbEntity
  8
Graypants_Bow120
370
    -3
100
AcDbVertex
100
AcDb2dVertex
 10
1356.438015068181
 20
-1822.914579695962
 30
0.0
  0
VERTEX
  5
1B5
330
1A8
100
AcDbEntity
  8
Graypants_Bow120
370
    -3
100
AcDbVertex
100
AcDb2dVertex
 10
1352.500499517783
 20
-1823.369906470418
 30
0.0
  0
VERTEX
  5
1B6
330
1A8
100
AcDbEntity
  8
Graypants_Bow120
370
    -3
100
AcDbVertex
100
AcDb2dVertex
 10
1348.591755769024
 20
-1823.849216096741
 30
0.0
  0
VERTEX
  5
1B7
330
1A8
100
AcDbEntity
  8
Graypants_Bow120
370
    -3
100
AcDbVertex
100
AcDb2dVertex
 10
1344.71167598491
 20
-1824.351833239781
 30
0.0
  0
VERTEX
  5
1B8
330
1A8
100
AcDbEntity
  8
Graypants_Bow120
370
    -3
100
AcDbVertex
100
AcDb2dVertex
 10
1340.860152328449
 20
-1824.877082564388
 30
0.0
  0
VERTEX
  5
1B9
330
1A8
100
AcDbEntity
  8
Graypants_Bow120
370
    -3
100
AcDbVertex
100
AcDb2dVertex
 10
1337.037076962647
 20
-1825.424288735412
 30
0.0
  0
VERTEX
  5
1BA
330
1A8
100
AcDbEntity
  8
Graypants_Bow120
370
    -3
100
AcDbVertex
100
AcDb2dVertex
 10
1332.315052546912
 20
-1826.135265735055
 30
0.0
  0
VERTEX
  5
1BB
330
1A8
100
AcDbEntity
  8
Graypants_Bow120
370
    -3
100
AcDbVertex
100
AcDb2dVertex
 10
1327.633455761037
 20
-1826.877938503564
 30
0.0
  0
VERTEX
  5
1BC
330
1A8
100
AcDbEntity
  8
Graypants_Bow120
370
    -3
100
AcDbVertex
100
AcDb2dVertex
 10
1322.991921086485
 20
-1827.651028246099
 30
0.0
  0
VERTEX
  5
1BD
330
1A8
100
AcDbEntity
  8
Graypants_Bow120
370
    -3
100
AcDbVertex
100
AcDb2dVertex
 10
1318.39008300472
 20
-1828.453256167825
 30
0.0
  0
VERTEX
  5
1BE
330
1A8
100
AcDbEntity
  8
Graypants_Bow120
370
    -3
100
AcDbVertex
100
AcDb2dVertex
 10
1313.827575997208
 20
-1829.283343473904
 30
0.0
  0
VERTEX
  5
1BF
330
1A8
100
AcDbEntity
  8
Graypants_Bow120
370
    -3
100
AcDbVertex
100
AcDb2dVertex
 10
1309.304034545412
 20
-1830.140011369499
 30
0.0
  0
VERTEX
  5
1C0
330
1A8
100
AcDbEntity
  8
Graypants_Bow120
370
    -3
100
AcDbVertex
100
AcDb2dVertex
 10
1304.819093130797
 20
-1831.021981059772
 30
0.0
  0
VERTEX
  5
1C1
330
1A8
100
AcDbEntity
  8
Graypants_Bow120
370
    -3
100
AcDbVertex
100
AcDb2dVertex
 10
1300.372386234827
 20
-1831.927973749888
 30
0.0
  0
VERTEX
  5
1C2
330
1A8
100
AcDbEntity
  8
Graypants_Bow120
370
    -3
100
AcDbVertex
100
AcDb2dVertex
 10
1295.963548338967
 20
-1832.856710645008
 30
0.0
  0
VERTEX
  5
1C3
330
1A8
100
AcDbEntity
  8
Graypants_Bow120
370
    -3
100
AcDbVertex
100
AcDb2dVertex
 10
1291.592213924682
 20
-1833.806912950296
 30
0.0
  0
VERTEX
  5
1C4
330
1A8
100
AcDbEntity
  8
Graypants_Bow120
370
    -3
100
AcDbVertex
100
AcDb2dVertex
 10
1287.258017473434
 20
-1834.777301870914
 30
0.0
  0
VERTEX
  5
1C5
330
1A8
100
AcDbEntity
  8
Graypants_Bow120
370
    -3
100
AcDbVertex
100
AcDb2dVertex
 10
1282.96059346669
 20
-1835.766598612026
 30
0.0
  0
VERTEX
  5
1C6
330
1A8
100
AcDbEntity
  8
Graypants_Bow120
370
    -3
100
AcDbVertex
100
AcDb2dVertex
 10
1278.699576385912
 20
-1836.773524378793
 30
0.0
  0
VERTEX
  5
1C7
330
1A8
100
AcDbEntity
  8
Graypants_Bow120
370
    -3
100
AcDbVertex
100
AcDb2dVertex
 10
1274.474600712567
 20
-1837.796800376379
 30
0.0
  0
VERTEX
  5
1C8
330
1A8
100
AcDbEntity
  8
Graypants_Bow120
370
    -3
100
AcDbVertex
100
AcDb2dVertex
 10
1270.285300928118
 20
-1838.835147809948
 30
0.0
  0
VERTEX
  5
1C9
330
1A8
100
AcDbEntity
  8
Graypants_Bow120
370
    -3
100
AcDbVertex
100
AcDb2dVertex
 10
1266.131311514029
 20
-1839.887287884661
 30
0.0
  0
VERTEX
  5
1CA
330
1A8
100
AcDbEntity
  8
Graypants_Bow120
370
    -3
100
AcDbVertex
100
AcDb2dVertex
 10
1262.010230438448
 20
-1840.952413241194
 30
0.0
  0
VERTEX
  5
1CB
330
1A8
100
AcDbEntity
  8
Graypants_Bow120
370
    -3
100
AcDbVertex
100
AcDb2dVertex
 10
1257.919620385295
 20
-1842.029939126254
 30
0.0
  0
VERTEX
  5
1CC
330
1A8
100
AcDbEntity
  8
Graypants_Bow120
370
    -3
100
AcDbVertex
100
AcDb2dVertex
 10
1253.859062909693
 20
-1843.11892065405
 30
0.0
  0
VERTEX
  5
1CD
330
1A8
100
AcDbEntity
  8
Graypants_Bow120
370
    -3
100
AcDbVertex
100
AcDb2dVertex
 10
1249.828139566761
 20
-1844.218412938795
 30
0.0
  0
VERTEX
  5
1CE
330
1A8
100
AcDbEntity
  8
Graypants_Bow120
370
    -3
100
AcDbVertex
100
AcDb2dVertex
 10
1245.826431911624
 20
-1845.327471094699
 30
0.0
  0
VERTEX
  5
1CF
330
1A8
100
AcDbEntity
  8
Graypants_Bow120
370
    -3
100
AcDbVertex
100
AcDb2dVertex
 10
1241.853521499404
 20
-1846.445150235972
 30
0.0
  0
VERTEX
  5
1D0
330
1A8
100
AcDbEntity
  8
Graypants_Bow120
370
    -3
100
AcDbVertex
100
AcDb2dVertex
 10
1237.908989885221
 20
-1847.570505476824
 30
0.0
  0
VERTEX
  5
1D1
330
1A8
100
AcDbEntity
  8
Graypants_Bow120
370
    -3
100
AcDbVertex
100
AcDb2dVertex
 10
1233.992418624198
 20
-1848.702591931467
 30
0.0
  0
VERTEX
  5
1D2
330
1A8
100
AcDbEntity
  8
Graypants_Bow120
370
    -3
100
AcDbVertex
100
AcDb2dVertex
 10
1230.103389271458
 20
-1849.840464714111
 30
0.0
  0
VERTEX
  5
1D3
330
1A8
100
AcDbEntity
  8
Graypants_Bow120
370
    -3
100
AcDbVertex
100
AcDb2dVertex
 10
1226.241483382122
 20
-1850.983178938967
 30
0.0
  0
VERTEX
  5
1D4
330
1A8
100
AcDbEntity
  8
Graypants_Bow120
370
    -3
100
AcDbVertex
100
AcDb2dVertex
 10
1222.406282511312
 20
-1852.129789720246
 30
0.0
  0
VERTEX
  5
1D5
330
1A8
100
AcDbEntity
  8
Graypants_Bow120
370
    -3
100
AcDbVertex
100
AcDb2dVertex
 10
1218.597368214151
 20
-1853.279352172157
 30
0.0
  0
VERTEX
  5
1D6
330
1A8
100
AcDbEntity
  8
Graypants_Bow120
370
    -3
100
AcDbVertex
100
AcDb2dVertex
 10
1211.056725561262
 20
-1855.583552544721
 30
0.0
  0
VERTEX
  5
1D7
330
1A8
100
AcDbEntity
  8
Graypants_Bow120
370
    -3
100
AcDbVertex
100
AcDb2dVertex
 10
1203.616207864431
 20
-1857.888220970345
 30
0.0
  0
VERTEX
  5
1D8
330
1A8
100
AcDbEntity
  8
Graypants_Bow120
370
    -3
100
AcDbVertex
100
AcDb2dVertex
 10
1196.394418989239
 20
-1860.148171494625
 30
0.0
  0
VERTEX
  5
1D9
330
1A8
100
AcDbEntity
  8
Graypants_Bow120
370
    -3
100
AcDbVertex
100
AcDb2dVertex
 10
1189.163944120763
 20
-1862.428234820313
 30
0.0
  0
VERTEX
  5
1DA
330
1A8
100
AcDbEntity
  8
Graypants_Bow120
370
    -3
100
AcDbVertex
100
AcDb2dVertex
 10
1160.802537698449
 20
-1871.437248116081
 30
0.0
  0
VERTEX
  5
1DB
330
1A8
100
AcDbEntity
  8
Graypants_Bow120
370
    -3
100
AcDbVertex
100
AcDb2dVertex
 10
1153.844885455176
 20
-1873.635615165515
 30
0.0
  0
VERTEX
  5
1DC
330
1A8
100
AcDbEntity
  8
Graypants_Bow120
370
    -3
100
AcDbVertex
100
AcDb2dVertex
 10
1146.869393680039
 20
-1875.822944489271
 30
0.0
  0
VERTEX
  5
1DD
330
1A8
100
AcDbEntity
  8
Graypants_Bow120
370
    -3
100
AcDbVertex
100
AcDb2dVertex
 10
1140.072972836045
 20
-1877.932584905386
 30
0.0
  0
VERTEX
  5
1DE
330
1A8
100
AcDbEntity
  8
Graypants_Bow120
370
    -3
100
AcDbVertex
100
AcDb2dVertex
 10
1133.322914930936
 20
-1880.002492937399
 30
0.0
  0
VERTEX
  5
1DF
330
1A8
100
AcDbEntity
  8
Graypants_Bow120
370
    -3
100
AcDbVertex
100
AcDb2dVertex
 10
1126.618178623083
 20
-1882.029537046577
 30
0.0
  0
VERTEX
  5
1E0
330
1A8
100
AcDbEntity
  8
Graypants_Bow120
370
    -3
100
AcDbVertex
100
AcDb2dVertex
 10
1119.957722570854
 20
-1884.010585694188
 30
0.0
  0
VERTEX
  5
1E1
330
1A8
100
AcDbEntity
  8
Graypants_Bow120
370
    -3
100
AcDbVertex
100
AcDb2dVertex
 10
1113.340505432619
 20
-1885.942507341499
 30
0.0
  0
VERTEX
  5
1E2
330
1A8
100
AcDbEntity
  8
Graypants_Bow120
370
    -3
100
AcDbVertex
100
AcDb2dVertex
 10
1110.047786036989
 20
-1886.889066934188
 30
0.0
  0
VERTEX
  5
1E3
330
1A8
100
AcDbEntity
  8
Graypants_Bow120
370
    -3
100
AcDbVertex
100
AcDb2dVertex
 10
1106.765485866746
 20
-1887.822170449778
 30
0.0
  0
VERTEX
  5
1E4
330
1A8
100
AcDbEntity
  8
Graypants_Bow120
370
    -3
100
AcDbVertex
100
AcDb2dVertex
 10
1103.493474754186
 20
-1888.741426445928
 30
0.0
  0
VERTEX
  5
1E5
330
1A8
100
AcDbEntity
  8
Graypants_Bow120
370
    -3
100
AcDbVertex
100
AcDb2dVertex
 10
1100.231622531605
 20
-1889.646443480294
 30
0.0
  0
VERTEX
  5
1E6
330
1A8
100
AcDbEntity
  8
Graypants_Bow120
370
    -3
100
AcDbVertex
100
AcDb2dVertex
 10
1096.9797990313
 20
-1890.536830110537
 30
0.0
  0
VERTEX
  5
1E7
330
1A8
100
AcDbEntity
  8
Graypants_Bow120
370
    -3
100
AcDbVertex
100
AcDb2dVertex
 10
1093.737874085566
 20
-1891.412194894313
 30
0.0
  0
VERTEX
  5
1E8
330
1A8
100
AcDbEntity
  8
Graypants_Bow120
370
    -3
100
AcDbVertex
100
AcDb2dVertex
 10
1090.504033375999
 20
-1892.272662839776
 30
0.0
  0
VERTEX
  5
1E9
330
1A8
100
AcDbEntity
  8
Graypants_Bow120
370
    -3
100
AcDbVertex
100
AcDb2dVertex
 10
1087.276537845748
 20
-1893.118463692786
 30
0.0
  0
VERTEX
  5
1EA
330
1A8
100
AcDbEntity
  8
Graypants_Bow120
370
    -3
100
AcDbVertex
100
AcDb2dVertex
 10
1084.055370219437
 20
-1893.949363117566
 30
0.0
  0
VERTEX
  5
1EB
330
1A8
100
AcDbEntity
  8
Graypants_Bow120
370
    -3
100
AcDbVertex
100
AcDb2dVertex
 10
1080.840513221693
 20
-1894.76512677834
 30
0.0
  0
VERTEX
  5
1EC
330
1A8
100
AcDbEntity
  8
Graypants_Bow120
370
    -3
100
AcDbVertex
100
AcDb2dVertex
 10
1077.631949577139
 20
-1895.565520339332
 30
0.0
  0
VERTEX
  5
1ED
330
1A8
100
AcDbEntity
  8
Graypants_Bow120
370
    -3
100
AcDbVertex
100
AcDb2dVertex
 10
1074.4296620104
 20
-1896.350309464763
 30
0.0
  0
VERTEX
  5
1EE
330
1A8
100
AcDbEntity
  8
Graypants_Bow120
370
    -3
100
AcDbVertex
100
AcDb2dVertex
 10
1071.233633246102
 20
-1897.119259818858
 30
0.0
  0
VERTEX
  5
1EF
330
1A8
100
AcDbEntity
  8
Graypants_Bow120
370
    -3
100
AcDbVertex
100
AcDb2dVertex
 10
1068.04384600887
 20
-1897.87213706584
 30
0.0
  0
VERTEX
  5
1F0
330
1A8
100
AcDbEntity
  8
Graypants_Bow120
370
    -3
100
AcDbVertex
100
AcDb2dVertex
 10
1064.860283023329
 20
-1898.608706869933
 30
0.0
  0
VERTEX
  5
1F1
330
1A8
100
AcDbEntity
  8
Graypants_Bow120
370
    -3
100
AcDbVertex
100
AcDb2dVertex
 10
1061.682927014103
 20
-1899.328734895358
 30
0.0
  0
VERTEX
  5
1F2
330
1A8
100
AcDbEntity
  8
Graypants_Bow120
370
    -3
100
AcDbVertex
100
AcDb2dVertex
 10
1058.511760705818
 20
-1900.031986806341
 30
0.0
  0
VERTEX
  5
1F3
330
1A8
100
AcDbEntity
  8
Graypants_Bow120
370
    -3
100
AcDbVertex
100
AcDb2dVertex
 10
1055.346766823099
 20
-1900.718228267103
 30
0.0
  0
VERTEX
  5
1F4
330
1A8
100
AcDbEntity
  8
Graypants_Bow120
370
    -3
100
AcDbVertex
100
AcDb2dVertex
 10
1052.18792809057
 20
-1901.387224941869
 30
0.0
  0
VERTEX
  5
1F5
330
1A8
100
AcDbEntity
  8
Graypants_Bow120
370
    -3
100
AcDbVertex
100
AcDb2dVertex
 10
1049.035227232856
 20
-1902.038742494862
 30
0.0
  0
VERTEX
  5
1F6
330
1A8
100
AcDbEntity
  8
Graypants_Bow120
370
    -3
100
AcDbVertex
100
AcDb2dVertex
 10
1045.888646974584
 20
-1902.672546590305
 30
0.0
  0
VERTEX
  5
1F7
330
1A8
100
AcDbEntity
  8
Graypants_Bow120
370
    -3
100
AcDbVertex
100
AcDb2dVertex
 10
1042.748170040377
 20
-1903.288402892421
 30
0.0
  0
VERTEX
  5
1F8
330
1A8
100
AcDbEntity
  8
Graypants_Bow120
370
    -3
100
AcDbVertex
100
AcDb2dVertex
 10
1039.612192482364
 20
-1903.886427287434
 30
0.0
  0
VERTEX
  5
1F9
330
1A8
100
AcDbEntity
  8
Graypants_Bow120
370
    -3
100
AcDbVertex
100
AcDb2dVertex
 10
1036.479149348307
 20
-1904.466810739629
 30
0.0
  0
VERTEX
  5
1FA
330
1A8
100
AcDbEntity
  8
Graypants_Bow120
370
    -3
100
AcDbVertex
100
AcDb2dVertex
 10
1033.349081856285
 20
-1905.029431530319
 30
0.0
  0
VERTEX
  5
1FB
330
1A8
100
AcDbEntity
  8
Graypants_Bow120
370
    -3
100
AcDbVertex
100
AcDb2dVertex
 10
1030.222031224375
 20
-1905.574167940817
 30
0.0
  0
VERTEX
  5
1FC
330
1A8
100
AcDbEntity
  8
Graypants_Bow120
370
    -3
100
AcDbVertex
100
AcDb2dVertex
 10
1027.098038670654
 20
-1906.100898252438
 30
0.0
  0
VERTEX
  5
1FD
330
1A8
100
AcDbEntity
  8
Graypants_Bow120
370
    -3
100
AcDbVertex
100
AcDb2dVertex
 10
1023.977145413199
 20
-1906.609500746495
 30
0.0
  0
VERTEX
  5
1FE
330
1A8
100
AcDbEntity
  8
Graypants_Bow120
370
    -3
100
AcDbVertex
100
AcDb2dVertex
 10
1020.859392670088
 20
-1907.099853704301
 30
0.0
  0
VERTEX
  5
1FF
330
1A8
100
AcDbEntity
  8
Graypants_Bow120
370
    -3
100
AcDbVertex
100
AcDb2dVertex
 10
1017.744821659397
 20
-1907.571835407171
 30
0.0
  0
VERTEX
  5
200
330
1A8
100
AcDbEntity
  8
Graypants_Bow120
370
    -3
100
AcDbVertex
100
AcDb2dVertex
 10
1014.633473599206
 20
-1908.025324136418
 30
0.0
  0
VERTEX
  5
201
330
1A8
100
AcDbEntity
  8
Graypants_Bow120
370
    -3
100
AcDbVertex
100
AcDb2dVertex
 10
1011.52538970759
 20
-1908.460198173356
 30
0.0
  0
VERTEX
  5
202
330
1A8
100
AcDbEntity
  8
Graypants_Bow120
370
    -3
100
AcDbVertex
100
AcDb2dVertex
 10
1008.420611202627
 20
-1908.876335799298
 30
0.0
  0
VERTEX
  5
203
330
1A8
100
AcDbEntity
  8
Graypants_Bow120
370
    -3
100
AcDbVertex
100
AcDb2dVertex
 10
1005.319179302395
 20
-1909.273615295558
 30
0.0
  0
VERTEX
  5
204
330
1A8
100
AcDbEntity
  8
Graypants_Bow120
370
    -3
100
AcDbVertex
100
AcDb2dVertex
 10
1002.221135224971
 20
-1909.65191494345
 30
0.0
  0
VERTEX
  5
205
330
1A8
100
AcDbEntity
  8
Graypants_Bow120
370
    -3
100
AcDbVertex
100
AcDb2dVertex
 10
999.1265201884323
 20
-1910.011113024286
 30
0.0
  0
VERTEX
  5
206
330
1A8
100
AcDbEntity
  8
Graypants_Bow120
370
    -3
100
AcDbVertex
100
AcDb2dVertex
 10
996.0353754108562
 20
-1910.351087819382
 30
0.0
  0
VERTEX
  5
207
330
1A8
100
AcDbEntity
  8
Graypants_Bow120
370
    -3
100
AcDbVertex
100
AcDb2dVertex
 10
992.94774211032
 20
-1910.67171761005
 30
0.0
  0
VERTEX
  5
208
330
1A8
100
AcDbEntity
  8
Graypants_Bow120
370
    -3
100
AcDbVertex
100
AcDb2dVertex
 10
989.8621369323182
 20
-1910.973060682639
 30
0.0
  0
VERTEX
  5
209
330
1A8
100
AcDbEntity
  8
Graypants_Bow120
370
    -3
100
AcDbVertex
100
AcDb2dVertex
 10
986.7770910565763
 20
-1911.255231685916
 30
0.0
  0
VERTEX
  5
20A
330
1A8
100
AcDbEntity
  8
Graypants_Bow120
370
    -3
100
AcDbVertex
100
AcDb2dVertex
 10
983.6926675025177
 20
-1911.518193444822
 30
0.0
  0
VERTEX
  5
20B
330
1A8
100
AcDbEntity
  8
Graypants_Bow120
370
    -3
100
AcDbVertex
100
AcDb2dVertex
 10
980.6089292895663
 20
-1911.761908784299
 30
0.0
  0
VERTEX
  5
20C
330
1A8
100
AcDbEntity
  8
Graypants_Bow120
370
    -3
100
AcDbVertex
100
AcDb2dVertex
 10
977.5259394371457
 20
-1911.986340529287
 30
0.0
  0
VERTEX
  5
20D
330
1A8
100
AcDbEntity
  8
Graypants_Bow120
370
    -3
100
AcDbVertex
100
AcDb2dVertex
 10
974.4437609646798
 20
-1912.191451504729
 30
0.0
  0
VERTEX
  5
20E
330
1A8
100
AcDbEntity
  8
Graypants_Bow120
370
    -3
100
AcDbVertex
100
AcDb2dVertex
 10
971.3624568915923
 20
-1912.377204535566
 30
0.0
  0
VERTEX
  5
20F
330
1A8
100
AcDbEntity
  8
Graypants_Bow120
370
    -3
100
AcDbVertex
100
AcDb2dVertex
 10
968.2820902373068
 20
-1912.543562446739
 30
0.0
  0
VERTEX
  5
210
330
1A8
100
AcDbEntity
  8
Graypants_Bow120
370
    -3
100
AcDbVertex
100
AcDb2dVertex
 10
965.202724021247
 20
-1912.69048806319
 30
0.0
  0
VERTEX
  5
211
330
1A8
100
AcDbEntity
  8
Graypants_Bow120
370
    -3
100
AcDbVertex
100
AcDb2dVertex
 10
962.1244212628368
 20
-1912.817944209859
 30
0.0
  0
VERTEX
  5
212
330
1A8
100
AcDbEntity
  8
Graypants_Bow120
370
    -3
100
AcDbVertex
100
AcDb2dVertex
 10
959.0472449814997
 20
-1912.925893711689
 30
0.0
  0
VERTEX
  5
213
330
1A8
100
AcDbEntity
  8
Graypants_Bow120
370
    -3
100
AcDbVertex
100
AcDb2dVertex
 10
955.9712581966596
 20
-1913.01429939362
 30
0.0
  0
VERTEX
  5
214
330
1A8
100
AcDbEntity
  8
Graypants_Bow120
370
    -3
100
AcDbVertex
100
AcDb2dVertex
 10
952.8965239277402
 20
-1913.083124080595
 30
0.0
  0
VERTEX
  5
215
330
1A8
100
AcDbEntity
  8
Graypants_Bow120
370
    -3
100
AcDbVertex
100
AcDb2dVertex
 10
949.8231051941651
 20
-1913.132330597554
 30
0.0
  0
VERTEX
  5
216
330
1A8
100
AcDbEntity
  8
Graypants_Bow120
370
    -3
100
AcDbVertex
100
AcDb2dVertex
 10
946.7510650153582
 20
-1913.161881769439
 30
0.0
  0
VERTEX
  5
217
330
1A8
100
AcDbEntity
  8
Graypants_Bow120
370
    -3
100
AcDbVertex
100
AcDb2dVertex
 10
943.6804664107431
 20
-1913.171740421192
 30
0.0
  0
VERTEX
  5
218
330
1A8
100
AcDbEntity
  8
Graypants_Bow120
370
    -3
100
AcDbVertex
100
AcDb2dVertex
 10
940.6098678061248
 20
-1913.161881769439
 30
0.0
  0
VERTEX
  5
219
330
1A8
100
AcDbEntity
  8
Graypants_Bow120
370
    -3
100
AcDbVertex
100
AcDb2dVertex
 10
937.5378276273092
 20
-1913.132330597553
 30
0.0
  0
VERTEX
  5
21A
330
1A8
100
AcDbEntity
  8
Graypants_Bow120
370
    -3
100
AcDbVertex
100
AcDb2dVertex
 10
934.4644088937212
 20
-1913.083124080592
 30
0.0
  0
VERTEX
  5
21B
330
1A8
100
AcDbEntity
  8
Graypants_Bow120
370
    -3
100
AcDbVertex
100
AcDb2dVertex
 10
931.3896746247858
 20
-1913.014299393616
 30
0.0
  0
VERTEX
  5
21C
330
1A8
100
AcDbEntity
  8
Graypants_Bow120
370
    -3
100
AcDbVertex
100
AcDb2dVertex
 10
928.3136878399281
 20
-1912.925893711682
 30
0.0
  0
VERTEX
  5
21D
330
1A8
100
AcDbEntity
  8
Graypants_Bow120
370
    -3
100
AcDbVertex
100
AcDb2dVertex
 10
925.2365115585729
 20
-1912.81794420985
 30
0.0
  0
VERTEX
  5
21E
330
1A8
100
AcDbEntity
  8
Graypants_Bow120
370
    -3
100
AcDbVertex
100
AcDb2dVertex
 10
922.1582088001454
 20
-1912.690488063179
 30
0.0
  0
VERTEX
  5
21F
330
1A8
100
AcDbEntity
  8
Graypants_Bow120
370
    -3
100
AcDbVertex
100
AcDb2dVertex
 10
919.0788425840706
 20
-1912.543562446727
 30
0.0
  0
VERTEX
  5
220
330
1A8
100
AcDbEntity
  8
Graypants_Bow120
370
    -3
100
AcDbVertex
100
AcDb2dVertex
 10
915.9984759297733
 20
-1912.377204535553
 30
0.0
  0
VERTEX
  5
221
330
1A8
100
AcDbEntity
  8
Graypants_Bow120
370
    -3
100
AcDbVertex
100
AcDb2dVertex
 10
912.9171718566786
 20
-1912.191451504715
 30
0.0
  0
VERTEX
  5
222
330
1A8
100
AcDbEntity
  8
Graypants_Bow120
370
    -3
100
AcDbVertex
100
AcDb2dVertex
 10
909.8349933842117
 20
-1911.986340529273
 30
0.0
  0
VERTEX
  5
223
330
1A8
100
AcDbEntity
  8
Graypants_Bow120
370
    -3
100
AcDbVertex
100
AcDb2dVertex
 10
906.7520035317973
 20
-1911.761908784285
 30
0.0
  0
VERTEX
  5
224
330
1A8
100
AcDbEntity
  8
Graypants_Bow120
370
    -3
100
AcDbVertex
100
AcDb2dVertex
 10
903.6682653188606
 20
-1911.51819344481
 30
0.0
  0
VERTEX
  5
225
330
1A8
100
AcDbEntity
  8
Graypants_Bow120
370
    -3
100
AcDbVertex
100
AcDb2dVertex
 10
900.5838417648264
 20
-1911.255231685907
 30
0.0
  0
VERTEX
  5
226
330
1A8
100
AcDbEntity
  8
Graypants_Bow120
370
    -3
100
AcDbVertex
100
AcDb2dVertex
 10
897.4987958891198
 20
-1910.973060682634
 30
0.0
  0
VERTEX
  5
227
330
1A8
100
AcDbEntity
  8
Graypants_Bow120
370
    -3
100
AcDbVertex
100
AcDb2dVertex
 10
894.413190711166
 20
-1910.67171761005
 30
0.0
  0
VERTEX
  5
228
330
1A8
100
AcDbEntity
  8
Graypants_Bow120
370
    -3
100
AcDbVertex
100
AcDb2dVertex
 10
891.3255574106719
 20
-1910.35108781939
 30
0.0
  0
VERTEX
  5
229
330
1A8
100
AcDbEntity
  8
Graypants_Bow120
370
    -3
100
AcDbVertex
100
AcDb2dVertex
 10
888.2344126331154
 20
-1910.011113024305
 30
0.0
  0
VERTEX
  5
22A
330
1A8
100
AcDbEntity
  8
Graypants_Bow120
370
    -3
100
AcDbVertex
100
AcDb2dVertex
 10
885.1397975965775
 20
-1909.651914943483
 30
0.0
  0
VERTEX
  5
22B
330
1A8
100
AcDbEntity
  8
Graypants_Bow120
370
    -3
100
AcDbVertex
100
AcDb2dVertex
 10
882.0417535191392
 20
-1909.273615295607
 30
0.0
  0
VERTEX
  5
22C
330
1A8
100
AcDbEntity
  8
Graypants_Bow120
370
    -3
100
AcDbVertex
100
AcDb2dVertex
 10
878.9403216188814
 20
-1908.876335799363
 30
0.0
  0
VERTEX
  5
22D
330
1A8
100
AcDbEntity
  8
Graypants_Bow120
370
    -3
100
AcDbVertex
100
AcDb2dVertex
 10
875.835543113885
 20
-1908.460198173436
 30
0.0
  0
VERTEX
  5
22E
330
1A8
100
AcDbEntity
  8
Graypants_Bow120
370
    -3
100
AcDbVertex
100
AcDb2dVertex
 10
872.727459222231
 20
-1908.025324136513
 30
0.0
  0
VERTEX
  5
22F
330
1A8
100
AcDbEntity
  8
Graypants_Bow120
370
    -3
100
AcDbVertex
100
AcDb2dVertex
 10
869.6161111620003
 20
-1907.571835407278
 30
0.0
  0
VERTEX
  5
230
330
1A8
100
AcDbEntity
  8
Graypants_Bow120
370
    -3
100
AcDbVertex
100
AcDb2dVertex
 10
866.5015401512738
 20
-1907.099853704416
 30
0.0
  0
VERTEX
  5
231
330
1A8
100
AcDbEntity
  8
Graypants_Bow120
370
    -3
100
AcDbVertex
100
AcDb2dVertex
 10
863.3837874081327
 20
-1906.609500746614
 30
0.0
  0
VERTEX
  5
232
330
1A8
100
AcDbEntity
  8
Graypants_Bow120
370
    -3
100
AcDbVertex
100
AcDb2dVertex
 10
860.2628941506576
 20
-1906.100898252556
 30
0.0
  0
VERTEX
  5
233
330
1A8
100
AcDbEntity
  8
Graypants_Bow120
370
    -3
100
AcDbVertex
100
AcDb2dVertex
 10
857.1389015969298
 20
-1905.574167940928
 30
0.0
  0
VERTEX
  5
234
330
1A8
100
AcDbEntity
  8
Graypants_Bow120
370
    -3
100
AcDbVertex
100
AcDb2dVertex
 10
854.01185096503
 20
-1905.029431530415
 30
0.0
  0
VERTEX
  5
235
330
1A8
100
AcDbEntity
  8
Graypants_Bow120
370
    -3
100
AcDbVertex
100
AcDb2dVertex
 10
850.8817834730394
 20
-1904.466810739702
 30
0.0
  0
VERTEX
  5
236
330
1A8
100
AcDbEntity
  8
Graypants_Bow120
370
    -3
100
AcDbVertex
100
AcDb2dVertex
 10
847.7487403390387
 20
-1903.886427287476
 30
0.0
  0
VERTEX
  5
237
330
1A8
100
AcDbEntity
  8
Graypants_Bow120
370
    -3
100
AcDbVertex
100
AcDb2dVertex
 10
844.6127627811088
 20
-1903.288402892421
 30
0.0
  0
VERTEX
  5
238
330
1A8
100
AcDbEntity
  8
Graypants_Bow120
370
    -3
100
AcDbVertex
100
AcDb2dVertex
 10
841.4722858469943
 20
-1902.672546590261
 30
0.0
  0
VERTEX
  5
239
330
1A8
100
AcDbEntity
  8
Graypants_Bow120
370
    -3
100
AcDbVertex
100
AcDb2dVertex
 10
838.3257055888023
 20
-1902.038742494783
 30
0.0
  0
VERTEX
  5
23A
330
1A8
100
AcDbEntity
  8
Graypants_Bow120
370
    -3
100
AcDbVertex
100
AcDb2dVertex
 10
835.1730047311573
 20
-1901.387224941761
 30
0.0
  0
VERTEX
  5
23B
330
1A8
100
AcDbEntity
  8
Graypants_Bow120
370
    -3
100
AcDbVertex
100
AcDb2dVertex
 10
832.0141659986848
 20
-1900.718228266973
 30
0.0
  0
VERTEX
  5
23C
330
1A8
100
AcDbEntity
  8
Graypants_Bow120
370
    -3
100
AcDbVertex
100
AcDb2dVertex
 10
828.8491721160094
 20
-1900.031986806195
 30
0.0
  0
VERTEX
  5
23D
330
1A8
100
AcDbEntity
  8
Graypants_Bow120
370
    -3
100
AcDbVertex
100
AcDb2dVertex
 10
825.6780058077559
 20
-1899.328734895203
 30
0.0
  0
VERTEX
  5
23E
330
1A8
100
AcDbEntity
  8
Graypants_Bow120
370
    -3
100
AcDbVertex
100
AcDb2dVertex
 10
822.5006497985496
 20
-1898.608706869773
 30
0.0
  0
VERTEX
  5
23F
330
1A8
100
AcDbEntity
  8
Graypants_Bow120
370
    -3
100
AcDbVertex
100
AcDb2dVertex
 10
819.3170868130151
 20
-1897.872137065683
 30
0.0
  0
VERTEX
  5
240
330
1A8
100
AcDbEntity
  8
Graypants_Bow120
370
    -3
100
AcDbVertex
100
AcDb2dVertex
 10
816.1272995757774
 20
-1897.119259818707
 30
0.0
  0
VERTEX
  5
241
330
1A8
100
AcDbEntity
  8
Graypants_Bow120
370
    -3
100
AcDbVertex
100
AcDb2dVertex
 10
812.9312708114617
 20
-1896.350309464623
 30
0.0
  0
VERTEX
  5
242
330
1A8
100
AcDbEntity
  8
Graypants_Bow120
370
    -3
100
AcDbVertex
100
AcDb2dVertex
 10
809.7289832446925
 20
-1895.565520339206
 30
0.0
  0
VERTEX
  5
243
330
1A8
100
AcDbEntity
  8
Graypants_Bow120
370
    -3
100
AcDbVertex
100
AcDb2dVertex
 10
806.520419600095
 20
-1894.765126778234
 30
0.0
  0
VERTEX
  5
244
330
1A8
100
AcDbEntity
  8
Graypants_Bow120
370
    -3
100
AcDbVertex
100
AcDb2dVertex
 10
803.3055626022941
 20
-1893.949363117482
 30
0.0
  0
VERTEX
  5
245
330
1A8
100
AcDbEntity
  8
Graypants_Bow120
370
    -3
100
AcDbVertex
100
AcDb2dVertex
 10
800.0843949759146
 20
-1893.118463692727
 30
0.0
  0
VERTEX
  5
246
330
1A8
100
AcDbEntity
  8
Graypants_Bow120
370
    -3
100
AcDbVertex
100
AcDb2dVertex
 10
796.8568994455816
 20
-1892.272662839746
 30
0.0
  0
VERTEX
  5
247
330
1A8
100
AcDbEntity
  8
Graypants_Bow120
370
    -3
100
AcDbVertex
100
AcDb2dVertex
 10
793.62305873592
 20
-1891.412194894313
 30
0.0
  0
VERTEX
  5
248
330
1A8
100
AcDbEntity
  8
Graypants_Bow120
370
    -3
100
AcDbVertex
100
AcDb2dVertex
 10
790.3811337900925
 20
-1890.536830110564
 30
0.0
  0
VERTEX
  5
249
330
1A8
100
AcDbEntity
  8
Graypants_Bow120
370
    -3
100
AcDbVertex
100
AcDb2dVertex
 10
787.1293102897085
 20
-1889.64644348034
 30
0.0
  0
VERTEX
  5
24A
330
1A8
100
AcDbEntity
  8
Graypants_Bow120
370
    -3
100
AcDbVertex
100
AcDb2dVertex
 10
783.867458067064
 20
-1888.741426445985
 30
0.0
  0
VERTEX
  5
24B
330
1A8
100
AcDbEntity
  8
Graypants_Bow120
370
    -3
100
AcDbVertex
100
AcDb2dVertex
 10
780.5954469544544
 20
-1887.822170449841
 30
0.0
  0
VERTEX
  5
24C
330
1A8
100
AcDbEntity
  8
Graypants_Bow120
370
    -3
100
AcDbVertex
100
AcDb2dVertex
 10
777.3131467841752
 20
-1886.889066934251
 30
0.0
  0
VERTEX
  5
24D
330
1A8
100
AcDbEntity
  8
Graypants_Bow120
370
    -3
100
AcDbVertex
100
AcDb2dVertex
 10
774.020427388522
 20
-1885.942507341557
 30
0.0
  0
VERTEX
  5
24E
330
1A8
100
AcDbEntity
  8
Graypants_Bow120
370
    -3
100
AcDbVertex
100
AcDb2dVertex
 10
767.4032102502758
 20
-1884.010585694228
 30
0.0
  0
VERTEX
  5
24F
330
1A8
100
AcDbEntity
  8
Graypants_Bow120
370
    -3
100
AcDbVertex
100
AcDb2dVertex
 10
760.7427541980808
 20
-1882.029537046595
 30
0.0
  0
VERTEX
  5
250
330
1A8
100
AcDbEntity
  8
Graypants_Bow120
370
    -3
100
AcDbVertex
100
AcDb2dVertex
 10
754.038017890301
 20
-1880.002492937398
 30
0.0
  0
VERTEX
  5
251
330
1A8
100
AcDbEntity
  8
Graypants_Bow120
370
    -3
100
AcDbVertex
100
AcDb2dVertex
 10
747.2879599853014
 20
-1877.932584905376
 30
0.0
  0
VERTEX
  5
252
330
1A8
100
AcDbEntity
  8
Graypants_Bow120
370
    -3
100
AcDbVertex
100
AcDb2dVertex
 10
740.4915391414465
 20
-1875.822944489271
 30
0.0
  0
VERTEX
  5
253
330
1A8
100
AcDbEntity
  8
Graypants_Bow120
370
    -3
100
AcDbVertex
100
AcDb2dVertex
 10
733.5160328086401
 20
-1873.635610530791
 30
0.0
  0
VERTEX
  5
254
330
1A8
100
AcDbEntity
  8
Graypants_Bow120
370
    -3
100
AcDbVertex
100
AcDb2dVertex
 10
726.5583555374618
 20
-1871.437235518055
 30
0.0
  0
VERTEX
  5
255
330
1A8
100
AcDbEntity
  8
Graypants_Bow120
370
    -3
100
AcDbVertex
100
AcDb2dVertex
 10
698.1969378438276
 20
-1862.42821867698
 30
0.0
  0
VERTEX
  5
256
330
1A8
100
AcDbEntity
  8
Graypants_Bow120
370
    -3
100
AcDbVertex
100
AcDb2dVertex
 10
690.9664904276669
 20
-1860.148164091138
 30
0.0
  0
VERTEX
  5
257
330
1A8
100
AcDbEntity
  8
Graypants_Bow120
370
    -3
100
AcDbVertex
100
AcDb2dVertex
 10
683.7447249570548
 20
-1857.888220970345
 30
0.0
  0
VERTEX
  5
258
330
1A8
100
AcDbEntity
  8
Graypants_Bow120
370
    -3
100
AcDbVertex
100
AcDb2dVertex
 10
676.3042072591004
 20
-1855.583552544343
 30
0.0
  0
VERTEX
  5
259
330
1A8
100
AcDbEntity
  8
Graypants_Bow120
370
    -3
100
AcDbVertex
100
AcDb2dVertex
 10
668.7635646056866
 20
-1853.279352171612
 30
0.0
  0
VERTEX
  5
25A
330
1A8
100
AcDbEntity
  8
Graypants_Bow120
370
    -3
100
AcDbVertex
100
AcDb2dVertex
 10
664.9546503084441
 20
-1852.129789719681
 30
0.0
  0
VERTEX
  5
25B
330
1A8
100
AcDbEntity
  8
Graypants_Bow120
370
    -3
100
AcDbVertex
100
AcDb2dVertex
 10
661.1194494376508
 20
-1850.983178938416
 30
0.0
  0
VERTEX
  5
25C
330
1A8
100
AcDbEntity
  8
Graypants_Bow120
370
    -3
100
AcDbVertex
100
AcDb2dVertex
 10
657.2575435484115
 20
-1849.8404647136
 30
0.0
  0
VERTEX
  5
25D
330
1A8
100
AcDbEntity
  8
Graypants_Bow120
370
    -3
100
AcDbVertex
100
AcDb2dVertex
 10
653.3685141958307
 20
-1848.702591931017
 30
0.0
  0
VERTEX
  5
25E
330
1A8
100
AcDbEntity
  8
Graypants_Bow120
370
    -3
100
AcDbVertex
100
AcDb2dVertex
 10
649.4519429350133
 20
-1847.570505476449
 30
0.0
  0
VERTEX
  5
25F
330
1A8
100
AcDbEntity
  8
Graypants_Bow120
370
    -3
100
AcDbVertex
100
AcDb2dVertex
 10
645.5074113210637
 20
-1846.44515023568
 30
0.0
  0
VERTEX
  5
260
330
1A8
100
AcDbEntity
  8
Graypants_Bow120
370
    -3
100
AcDbVertex
100
AcDb2dVertex
 10
641.5345009090869
 20
-1845.327471094491
 30
0.0
  0
VERTEX
  5
261
330
1A8
100
AcDbEntity
  8
Graypants_Bow120
370
    -3
100
AcDbVertex
100
AcDb2dVertex
 10
637.5327932541873
 20
-1844.218412938666
 30
0.0
  0
VERTEX
  5
262
330
1A8
100
AcDbEntity
  8
Graypants_Bow120
370
    -3
100
AcDbVertex
100
AcDb2dVertex
 10
633.5018699114698
 20
-1843.118920653987
 30
0.0
  0
VERTEX
  5
263
330
1A8
100
AcDbEntity
  8
Graypants_Bow120
370
    -3
100
AcDbVertex
100
AcDb2dVertex
 10
629.441312436039
 20
-1842.029939126238
 30
0.0
  0
VERTEX
  5
264
330
1A8
100
AcDbEntity
  8
Graypants_Bow120
370
    -3
100
AcDbVertex
100
AcDb2dVertex
 10
625.3507023829998
 20
-1840.952413241202
 30
0.0
  0
VERTEX
  5
265
330
1A8
100
AcDbEntity
  8
Graypants_Bow120
370
    -3
100
AcDbVertex
100
AcDb2dVertex
 10
621.2296213074565
 20
-1839.887287884661
 30
0.0
  0
VERTEX
  5
266
330
1A8
100
AcDbEntity
  8
Graypants_Bow120
370
    -3
100
AcDbVertex
100
AcDb2dVertex
 10
617.0756318933837
 20
-1838.835147809925
 30
0.0
  0
VERTEX
  5
267
330
1A8
100
AcDbEntity
  8
Graypants_Bow120
370
    -3
100
AcDbVertex
100
AcDb2dVertex
 10
612.8863321089893
 20
-1837.796800376339
 30
0.0
  0
VERTEX
  5
268
330
1A8
100
AcDbEntity
  8
Graypants_Bow120
370
    -3
100
AcDbVertex
100
AcDb2dVertex
 10
608.6613564357291
 20
-1836.773524378741
 30
0.0
  0
VERTEX
  5
269
330
1A8
100
AcDbEntity
  8
Graypants_Bow120
370
    -3
100
AcDbVertex
100
AcDb2dVertex
 10
604.4003393550586
 20
-1835.766598611966
 30
0.0
  0
VERTEX
  5
26A
330
1A8
100
AcDbEntity
  8
Graypants_Bow120
370
    -3
100
AcDbVertex
100
AcDb2dVertex
 10
600.1029153484334
 20
-1834.777301870852
 30
0.0
  0
VERTEX
  5
26B
330
1A8
100
AcDbEntity
  8
Graypants_Bow120
370
    -3
100
AcDbVertex
100
AcDb2dVertex
 10
595.7687188973089
 20
-1833.806912950234
 30
0.0
  0
VERTEX
  5
26C
330
1A8
100
AcDbEntity
  8
Graypants_Bow120
370
    -3
100
AcDbVertex
100
AcDb2dVertex
 10
591.3973844831407
 20
-1832.856710644949
 30
0.0
  0
VERTEX
  5
26D
330
1A8
100
AcDbEntity
  8
Graypants_Bow120
370
    -3
100
AcDbVertex
100
AcDb2dVertex
 10
586.9885465873848
 20
-1831.927973749834
 30
0.0
  0
VERTEX
  5
26E
330
1A8
100
AcDbEntity
  8
Graypants_Bow120
370
    -3
100
AcDbVertex
100
AcDb2dVertex
 10
582.5418396914964
 20
-1831.021981059725
 30
0.0
  0
VERTEX
  5
26F
330
1A8
100
AcDbEntity
  8
Graypants_Bow120
370
    -3
100
AcDbVertex
100
AcDb2dVertex
 10
578.0568982769311
 20
-1830.14001136946
 30
0.0
  0
VERTEX
  5
270
330
1A8
100
AcDbEntity
  8
Graypants_Bow120
370
    -3
100
AcDbVertex
100
AcDb2dVertex
 10
573.5333568251446
 20
-1829.283343473873
 30
0.0
  0
VERTEX
  5
271
330
1A8
100
AcDbEntity
  8
Graypants_Bow120
370
    -3
100
AcDbVertex
100
AcDb2dVertex
 10
568.9708498175924
 20
-1828.453256167803
 30
0.0
  0
VERTEX
  5
272
330
1A8
100
AcDbEntity
  8
Graypants_Bow120
370
    -3
100
AcDbVertex
100
AcDb2dVertex
 10
564.36901173573
 20
-1827.651028246085
 30
0.0
  0
VERTEX
  5
273
330
1A8
100
AcDbEntity
  8
Graypants_Bow120
370
    -3
100
AcDbVertex
100
AcDb2dVertex
 10
559.7274770610134
 20
-1826.877938503556
 30
0.0
  0
VERTEX
  5
274
330
1A8
100
AcDbEntity
  8
Graypants_Bow120
370
    -3
100
AcDbVertex
100
AcDb2dVertex
 10
555.0458802748977
 20
-1826.135265735053
 30
0.0
  0
VERTEX
  5
275
330
1A8
100
AcDbEntity
  8
Graypants_Bow120
370
    -3
100
AcDbVertex
100
AcDb2dVertex
 10
550.3238558588387
 20
-1825.424288735412
 30
0.0
  0
VERTEX
  5
276
330
1A8
100
AcDbEntity
  8
Graypants_Bow120
370
    -3
100
AcDbVertex
100
AcDb2dVertex
 10
546.5007804927855
 20
-1824.877082564396
 30
0.0
  0
VERTEX
  5
277
330
1A8
100
AcDbEntity
  8
Graypants_Bow120
370
    -3
100
AcDbVertex
100
AcDb2dVertex
 10
542.649256836123
 20
-1824.351833239805
 30
0.0
  0
VERTEX
  5
278
330
1A8
100
AcDbEntity
  8
Graypants_Bow120
370
    -3
100
AcDbVertex
100
AcDb2dVertex
 10
538.7691770518543
 20
-1823.849216096786
 30
0.0
  0
VERTEX
  5
279
330
1A8
100
AcDbEntity
  8
Graypants_Bow120
370
    -3
100
AcDbVertex
100
AcDb2dVertex
 10
534.860433302983
 20
-1823.369906470489
 30
0.0
  0
VERTEX
  5
27A
330
1A8
100
AcDbEntity
  8
Graypants_Bow120
370
    -3
100
AcDbVertex
100
AcDb2dVertex
 10
530.9229177525124
 20
-1822.914579696062
 30
0.0
  0
VERTEX
  5
27B
330
1A8
100
AcDbEntity
  8
Graypants_Bow120
370
    -3
100
AcDbVertex
100
AcDb2dVertex
 10
526.9565225634459
 20
-1822.483911108653
 30
0.0
  0
VERTEX
  5
27C
330
1A8
100
AcDbEntity
  8
Graypants_Bow120
370
    -3
100
AcDbVertex
100
AcDb2dVertex
 10
522.9611398987868
 20
-1822.078576043412
 30
0.0
  0
VERTEX
  5
27D
330
1A8
100
AcDbEntity
  8
Graypants_Bow120
370
    -3
100
AcDbVertex
100
AcDb2dVertex
 10
518.9366619215384
 20
-1821.699249835486
 30
0.0
  0
VERTEX
  5
27E
330
1A8
100
AcDbEntity
  8
Graypants_Bow120
370
    -3
100
AcDbVertex
100
AcDb2dVertex
 10
514.8829807947042
 20
-1821.346607820025
 30
0.0
  0
VERTEX
  5
27F
330
1A8
100
AcDbEntity
  8
Graypants_Bow120
370
    -3
100
AcDbVertex
100
AcDb2dVertex
 10
510.7999886812875
 20
-1821.021325332177
 30
0.0
  0
VERTEX
  5
280
330
1A8
100
AcDbEntity
  8
Graypants_Bow120
370
    -3
100
AcDbVertex
100
AcDb2dVertex
 10
506.6875777442916
 20
-1820.724077707091
 30
0.0
  0
VERTEX
  5
281
330
1A8
100
AcDbEntity
  8
Graypants_Bow120
370
    -3
100
AcDbVertex
100
AcDb2dVertex
 10
502.54564014672
 20
-1820.455540279916
 30
0.0
  0
VERTEX
  5
282
330
1A8
100
AcDbEntity
  8
Graypants_Bow120
370
    -3
100
AcDbVertex
100
AcDb2dVertex
 10
498.3740680515758
 20
-1820.216388385799
 30
0.0
  0
VERTEX
  5
283
330
1A8
100
AcDbEntity
  8
Graypants_Bow120
370
    -3
100
AcDbVertex
100
AcDb2dVertex
 10
494.1727536218627
 20
-1820.00729735989
 30
0.0
  0
VERTEX
  5
284
330
1A8
100
AcDbEntity
  8
Graypants_Bow120
370
    -3
100
AcDbVertex
100
AcDb2dVertex
 10
489.9415890205838
 20
-1819.828942537338
 30
0.0
  0
VERTEX
  5
285
330
1A8
100
AcDbEntity
  8
Graypants_Bow120
370
    -3
100
AcDbVertex
100
AcDb2dVertex
 10
485.6804664107426
 20
-1819.68199925329
 30
0.0
  0
SEQEND
  5
286
330
1A8
100
AcDbEntity
  8
Graypants_Bow120
370
    -3
  0
POLYLINE
  5
287
330
1F
100
AcDbEntity
  8
Graypants_Bow120
370
    -3
100
AcDb2dPolyline
 66
     1
 10
0.0
 20
0.0
 30
0.0
  0
VERTEX
  5
288
330
287
100
AcDbEntity
  8
Graypants_Bow120
370
    -3
100
AcDbVertex
100
AcDb2dVertex
 10
485.6804664107431
 20
-1793.670920176483
 30
0.0
  0
VERTEX
  5
289
330
287
100
AcDbEntity
  8
Graypants_Bow120
370
    -3
100
AcDbVertex
100
AcDb2dVertex
 10
490.1960003972223
 20
-1793.820886214452
 30
0.0
  0
VERTEX
  5
28A
330
287
100
AcDbEntity
  8
Graypants_Bow120
370
    -3
100
AcDbVertex
100
AcDb2dVertex
 10
494.6797281006576
 20
-1794.004586150742
 30
0.0
  0
VERTEX
  5
28B
330
287
100
AcDbEntity
  8
Graypants_Bow120
370
    -3
100
AcDbVertex
100
AcDb2dVertex
 10
499.1316139679202
 20
-1794.221270699584
 30
0.0
  0
VERTEX
  5
28C
330
287
100
AcDbEntity
  8
Graypants_Bow120
370
    -3
100
AcDbVertex
100
AcDb2dVertex
 10
503.551622445881
 20
-1794.470190575208
 30
0.0
  0
VERTEX
  5
28D
330
287
100
AcDbEntity
  8
Graypants_Bow120
370
    -3
100
AcDbVertex
100
AcDb2dVertex
 10
507.939717981411
 20
-1794.750596491844
 30
0.0
  0
VERTEX
  5
28E
330
287
100
AcDbEntity
  8
Graypants_Bow120
370
    -3
100
AcDbVertex
100
AcDb2dVertex
 10
512.2958650213814
 20
-1795.061739163722
 30
0.0
  0
VERTEX
  5
28F
330
287
100
AcDbEntity
  8
Graypants_Bow120
370
    -3
100
AcDbVertex
100
AcDb2dVertex
 10
516.6200280126629
 20
-1795.402869305072
 30
0.0
  0
VERTEX
  5
290
330
287
100
AcDbEntity
  8
Graypants_Bow120
370
    -3
100
AcDbVertex
100
AcDb2dVertex
 10
520.912171402127
 20
-1795.773237630125
 30
0.0
  0
VERTEX
  5
291
330
287
100
AcDbEntity
  8
Graypants_Bow120
370
    -3
100
AcDbVertex
100
AcDb2dVertex
 10
525.1722596366444
 20
-1796.172094853111
 30
0.0
  0
VERTEX
  5
292
330
287
100
AcDbEntity
  8
Graypants_Bow120
370
    -3
100
AcDbVertex
100
AcDb2dVertex
 10
529.4002571630863
 20
-1796.598691688259
 30
0.0
  0
VERTEX
  5
293
330
287
100
AcDbEntity
  8
Graypants_Bow120
370
    -3
100
AcDbVertex
100
AcDb2dVertex
 10
533.5961284283236
 20
-1797.052278849801
 30
0.0
  0
VERTEX
  5
294
330
287
100
AcDbEntity
  8
Graypants_Bow120
370
    -3
100
AcDbVertex
100
AcDb2dVertex
 10
537.7598378792275
 20
-1797.532107051966
 30
0.0
  0
VERTEX
  5
295
330
287
100
AcDbEntity
  8
Graypants_Bow120
370
    -3
100
AcDbVertex
100
AcDb2dVertex
 10
541.8913499626689
 20
-1798.037427008985
 30
0.0
  0
VERTEX
  5
296
330
287
100
AcDbEntity
  8
Graypants_Bow120
370
    -3
100
AcDbVertex
100
AcDb2dVertex
 10
545.9906291255187
 20
-1798.567489435088
 30
0.0
  0
VERTEX
  5
297
330
287
100
AcDbEntity
  8
Graypants_Bow120
370
    -3
100
AcDbVertex
100
AcDb2dVertex
 10
550.0576398146482
 20
-1799.121545044504
 30
0.0
  0
VERTEX
  5
298
330
287
100
AcDbEntity
  8
Graypants_Bow120
370
    -3
100
AcDbVertex
100
AcDb2dVertex
 10
554.0923464769285
 20
-1799.698844551465
 30
0.0
  0
VERTEX
  5
299
330
287
100
AcDbEntity
  8
Graypants_Bow120
370
    -3
100
AcDbVertex
100
AcDb2dVertex
 10
559.0186454636447
 20
-1800.440588588174
 30
0.0
  0
VERTEX
  5
29A
330
287
100
AcDbEntity
  8
Graypants_Bow120
370
    -3
100
AcDbVertex
100
AcDb2dVertex
 10
563.9002429179343
 20
-1801.215014683261
 30
0.0
  0
VERTEX
  5
29B
330
287
100
AcDbEntity
  8
Graypants_Bow120
370
    -3
100
AcDbVertex
100
AcDb2dVertex
 10
568.7373654359635
 20
-1802.020712970686
 30
0.0
  0
VERTEX
  5
29C
330
287
100
AcDbEntity
  8
Graypants_Bow120
370
    -3
100
AcDbVertex
100
AcDb2dVertex
 10
573.5302396138991
 20
-1802.856273584411
 30
0.0
  0
VERTEX
  5
29D
330
287
100
AcDbEntity
  8
Graypants_Bow120
370
    -3
100
AcDbVertex
100
AcDb2dVertex
 10
578.2790920479074
 20
-1803.720286658398
 30
0.0
  0
VERTEX
  5
29E
330
287
100
AcDbEntity
  8
Graypants_Bow120
370
    -3
100
AcDbVertex
100
AcDb2dVertex
 10
582.9841493341548
 20
-1804.611342326606
 30
0.0
  0
VERTEX
  5
29F
330
287
100
AcDbEntity
  8
Graypants_Bow120
370
    -3
100
AcDbVertex
100
AcDb2dVertex
 10
587.645638068808
 20
-1805.528030722998
 30
0.0
  0
VERTEX
  5
2A0
330
287
100
AcDbEntity
  8
Graypants_Bow120
370
    -3
100
AcDbVertex
100
AcDb2dVertex
 10
592.2637848480333
 20
-1806.468941981534
 30
0.0
  0
VERTEX
  5
2A1
330
287
100
AcDbEntity
  8
Graypants_Bow120
370
    -3
100
AcDbVertex
100
AcDb2dVertex
 10
596.8388162679971
 20
-1807.432666236177
 30
0.0
  0
VERTEX
  5
2A2
330
287
100
AcDbEntity
  8
Graypants_Bow120
370
    -3
100
AcDbVertex
100
AcDb2dVertex
 10
601.3709589248659
 20
-1808.417793620886
 30
0.0
  0
VERTEX
  5
2A3
330
287
100
AcDbEntity
  8
Graypants_Bow120
370
    -3
100
AcDbVertex
100
AcDb2dVertex
 10
605.8604394148063
 20
-1809.422914269624
 30
0.0
  0
VERTEX
  5
2A4
330
287
100
AcDbEntity
  8
Graypants_Bow120
370
    -3
100
AcDbVertex
100
AcDb2dVertex
 10
610.3074843339845
 20
-1810.44661831635
 30
0.0
  0
VERTEX
  5
2A5
330
287
100
AcDbEntity
  8
Graypants_Bow120
370
    -3
100
AcDbVertex
100
AcDb2dVertex
 10
614.7123202785672
 20
-1811.487495895027
 30
0.0
  0
VERTEX
  5
2A6
330
287
100
AcDbEntity
  8
Graypants_Bow120
370
    -3
100
AcDbVertex
100
AcDb2dVertex
 10
619.0751738447207
 20
-1812.544137139615
 30
0.0
  0
VERTEX
  5
2A7
330
287
100
AcDbEntity
  8
Graypants_Bow120
370
    -3
100
AcDbVertex
100
AcDb2dVertex
 10
623.3962716286117
 20
-1813.615132184077
 30
0.0
  0
VERTEX
  5
2A8
330
287
100
AcDbEntity
  8
Graypants_Bow120
370
    -3
100
AcDbVertex
100
AcDb2dVertex
 10
627.6758402264063
 20
-1814.699071162372
 30
0.0
  0
VERTEX
  5
2A9
330
287
100
AcDbEntity
  8
Graypants_Bow120
370
    -3
100
AcDbVertex
100
AcDb2dVertex
 10
631.9168191577523
 20
-1815.795160240582
 30
0.0
  0
VERTEX
  5
2AA
330
287
100
AcDbEntity
  8
Graypants_Bow120
370
    -3
100
AcDbVertex
100
AcDb2dVertex
 10
636.1222485637923
 20
-1816.902871078447
 30
0.0
  0
VERTEX
  5
2AB
330
287
100
AcDbEntity
  8
Graypants_Bow120
370
    -3
100
AcDbVertex
100
AcDb2dVertex
 10
640.2925059729341
 20
-1818.02119205042
 30
0.0
  0
VERTEX
  5
2AC
330
287
100
AcDbEntity
  8
Graypants_Bow120
370
    -3
100
AcDbVertex
100
AcDb2dVertex
 10
644.4279689135863
 20
-1819.149111530955
 30
0.0
  0
VERTEX
  5
2AD
330
287
100
AcDbEntity
  8
Graypants_Bow120
370
    -3
100
AcDbVertex
100
AcDb2dVertex
 10
648.529014914157
 20
-1820.285617894504
 30
0.0
  0
VERTEX
  5
2AE
330
287
100
AcDbEntity
  8
Graypants_Bow120
370
    -3
100
AcDbVertex
100
AcDb2dVertex
 10
652.5960215030544
 20
-1821.429699515521
 30
0.0
  0
VERTEX
  5
2AF
330
287
100
AcDbEntity
  8
Graypants_Bow120
370
    -3
100
AcDbVertex
100
AcDb2dVertex
 10
656.6293662086871
 20
-1822.580344768459
 30
0.0
  0
VERTEX
  5
2B0
330
287
100
AcDbEntity
  8
Graypants_Bow120
370
    -3
100
AcDbVertex
100
AcDb2dVertex
 10
660.6294265594629
 20
-1823.73654202777
 30
0.0
  0
VERTEX
  5
2B1
330
287
100
AcDbEntity
  8
Graypants_Bow120
370
    -3
100
AcDbVertex
100
AcDb2dVertex
 10
664.5965800837904
 20
-1824.897279667908
 30
0.0
  0
VERTEX
  5
2B2
330
287
100
AcDbEntity
  8
Graypants_Bow120
370
    -3
100
AcDbVertex
100
AcDb2dVertex
 10
668.531204310078
 20
-1826.061546063325
 30
0.0
  0
VERTEX
  5
2B3
330
287
100
AcDbEntity
  8
Graypants_Bow120
370
    -3
100
AcDbVertex
100
AcDb2dVertex
 10
672.4336767667337
 20
-1827.228329588474
 30
0.0
  0
VERTEX
  5
2B4
330
287
100
AcDbEntity
  8
Graypants_Bow120
370
    -3
100
AcDbVertex
100
AcDb2dVertex
 10
676.3043749821658
 20
-1828.39661861781
 30
0.0
  0
VERTEX
  5
2B5
330
287
100
AcDbEntity
  8
Graypants_Bow120
370
    -3
100
AcDbVertex
100
AcDb2dVertex
 10
683.9519588029925
 20
-1830.733666686849
 30
0.0
  0
VERTEX
  5
2B6
330
287
100
AcDbEntity
  8
Graypants_Bow120
370
    -3
100
AcDbVertex
100
AcDb2dVertex
 10
691.4769759998244
 20
-1833.064597266067
 30
0.0
  0
VERTEX
  5
2B7
330
287
100
AcDbEntity
  8
Graypants_Bow120
370
    -3
100
AcDbVertex
100
AcDb2dVertex
 10
698.8929285650423
 20
-1835.385247456776
 30
0.0
  0
VERTEX
  5
2B8
330
287
100
AcDbEntity
  8
Graypants_Bow120
370
    -3
100
AcDbVertex
100
AcDb2dVertex
 10
706.2127785313481
 20
-1837.69352058198
 30
0.0
  0
VERTEX
  5
2B9
330
287
100
AcDbEntity
  8
Graypants_Bow120
370
    -3
100
AcDbVertex
100
AcDb2dVertex
 10
734.5753581623987
 20
-1846.702968991005
 30
0.0
  0
VERTEX
  5
2BA
330
287
100
AcDbEntity
  8
Graypants_Bow120
370
    -3
100
AcDbVertex
100
AcDb2dVertex
 10
741.447849450355
 20
-1848.874451711127
 30
0.0
  0
VERTEX
  5
2BB
330
287
100
AcDbEntity
  8
Graypants_Bow120
370
    -3
100
AcDbVertex
100
AcDb2dVertex
 10
748.2374998658836
 20
-1851.003595334721
 30
0.0
  0
VERTEX
  5
2BC
330
287
100
AcDbEntity
  8
Graypants_Bow120
370
    -3
100
AcDbVertex
100
AcDb2dVertex
 10
754.9560816416974
 20
-1853.089023507451
 30
0.0
  0
VERTEX
  5
2BD
330
287
100
AcDbEntity
  8
Graypants_Bow120
370
    -3
100
AcDbVertex
100
AcDb2dVertex
 10
761.6145221685019
 20
-1855.130735145563
 30
0.0
  0
VERTEX
  5
2BE
330
287
100
AcDbEntity
  8
Graypants_Bow120
370
    -3
100
AcDbVertex
100
AcDb2dVertex
 10
768.2137644710323
 20
-1857.125799483085
 30
0.0
  0
VERTEX
  5
2BF
330
287
100
AcDbEntity
  8
Graypants_Bow120
370
    -3
100
AcDbVertex
100
AcDb2dVertex
 10
774.7547515740241
 20
-1859.071285754046
 30
0.0
  0
VERTEX
  5
2C0
330
287
100
AcDbEntity
  8
Graypants_Bow120
370
    -3
100
AcDbVertex
100
AcDb2dVertex
 10
781.2384265022129
 20
-1860.964263192475
 30
0.0
  0
VERTEX
  5
2C1
330
287
100
AcDbEntity
  8
Graypants_Bow120
370
    -3
100
AcDbVertex
100
AcDb2dVertex
 10
787.6657322803339
 20
-1862.801801032401
 30
0.0
  0
VERTEX
  5
2C2
330
287
100
AcDbEntity
  8
Graypants_Bow120
370
    -3
100
AcDbVertex
100
AcDb2dVertex
 10
790.858541433349
 20
-1863.69886423856
 30
0.0
  0
VERTEX
  5
2C3
330
287
100
AcDbEntity
  8
Graypants_Bow120
370
    -3
100
AcDbVertex
100
AcDb2dVertex
 10
794.0376119331231
 20
-1864.580968507854
 30
0.0
  0
VERTEX
  5
2C4
330
287
100
AcDbEntity
  8
Graypants_Bow120
370
    -3
100
AcDbVertex
100
AcDb2dVertex
 10
797.2030616577479
 20
-1865.447747494536
 30
0.0
  0
VERTEX
  5
2C5
330
287
100
AcDbEntity
  8
Graypants_Bow120
370
    -3
100
AcDbVertex
100
AcDb2dVertex
 10
800.3550084853155
 20
-1866.298834852861
 30
0.0
  0
VERTEX
  5
2C6
330
287
100
AcDbEntity
  8
Graypants_Bow120
370
    -3
100
AcDbVertex
100
AcDb2dVertex
 10
803.495810653344
 20
-1867.134539778199
 30
0.0
  0
VERTEX
  5
2C7
330
287
100
AcDbEntity
  8
Graypants_Bow120
370
    -3
100
AcDbVertex
100
AcDb2dVertex
 10
806.6277538931477
 20
-1867.955281139844
 30
0.0
  0
VERTEX
  5
2C8
330
287
100
AcDbEntity
  8
Graypants_Bow120
370
    -3
100
AcDbVertex
100
AcDb2dVertex
 10
809.7508473235114
 20
-1868.76085710294
 30
0.0
  0
VERTEX
  5
2C9
330
287
100
AcDbEntity
  8
Graypants_Bow120
370
    -3
100
AcDbVertex
100
AcDb2dVertex
 10
812.8651000632207
 20
-1869.551065832626
 30
0.0
  0
VERTEX
  5
2CA
330
287
100
AcDbEntity
  8
Graypants_Bow120
370
    -3
100
AcDbVertex
100
AcDb2dVertex
 10
815.9705212310607
 20
-1870.325705494046
 30
0.0
  0
VERTEX
  5
2CB
330
287
100
AcDbEntity
  8
Graypants_Bow120
370
    -3
100
AcDbVertex
100
AcDb2dVertex
 10
819.0671199458166
 20
-1871.084574252342
 30
0.0
  0
VERTEX
  5
2CC
330
287
100
AcDbEntity
  8
Graypants_Bow120
370
    -3
100
AcDbVertex
100
AcDb2dVertex
 10
822.1549053262737
 20
-1871.827470272654
 30
0.0
  0
VERTEX
  5
2CD
330
287
100
AcDbEntity
  8
Graypants_Bow120
370
    -3
100
AcDbVertex
100
AcDb2dVertex
 10
825.2338864912174
 20
-1872.554191720124
 30
0.0
  0
VERTEX
  5
2CE
330
287
100
AcDbEntity
  8
Graypants_Bow120
370
    -3
100
AcDbVertex
100
AcDb2dVertex
 10
828.3040725594328
 20
-1873.264536759895
 30
0.0
  0
VERTEX
  5
2CF
330
287
100
AcDbEntity
  8
Graypants_Bow120
370
    -3
100
AcDbVertex
100
AcDb2dVertex
 10
831.3654726497053
 20
-1873.958303557109
 30
0.0
  0
VERTEX
  5
2D0
330
287
100
AcDbEntity
  8
Graypants_Bow120
370
    -3
100
AcDbVertex
100
AcDb2dVertex
 10
834.4180958808201
 20
-1874.635290276906
 30
0.0
  0
VERTEX
  5
2D1
330
287
100
AcDbEntity
  8
Graypants_Bow120
370
    -3
100
AcDbVertex
100
AcDb2dVertex
 10
837.4619513715626
 20
-1875.295295084429
 30
0.0
  0
VERTEX
  5
2D2
330
287
100
AcDbEntity
  8
Graypants_Bow120
370
    -3
100
AcDbVertex
100
AcDb2dVertex
 10
840.4970482407178
 20
-1875.938116144819
 30
0.0
  0
VERTEX
  5
2D3
330
287
100
AcDbEntity
  8
Graypants_Bow120
370
    -3
100
AcDbVertex
100
AcDb2dVertex
 10
843.5233956070713
 20
-1876.563551623218
 30
0.0
  0
VERTEX
  5
2D4
330
287
100
AcDbEntity
  8
Graypants_Bow120
370
    -3
100
AcDbVertex
100
AcDb2dVertex
 10
846.541002589408
 20
-1877.171399684769
 30
0.0
  0
VERTEX
  5
2D5
330
287
100
AcDbEntity
  8
Graypants_Bow120
370
    -3
100
AcDbVertex
100
AcDb2dVertex
 10
849.5498783065132
 20
-1877.761458494612
 30
0.0
  0
VERTEX
  5
2D6
330
287
100
AcDbEntity
  8
Graypants_Bow120
370
    -3
100
AcDbVertex
100
AcDb2dVertex
 10
852.5521411232655
 20
-1878.33398200801
 30
0.0
  0
VERTEX
  5
2D7
330
287
100
AcDbEntity
  8
Graypants_Bow120
370
    -3
100
AcDbVertex
100
AcDb2dVertex
 10
855.5498758451496
 20
-1878.889294644645
 30
0.0
  0
VERTEX
  5
2D8
330
287
100
AcDbEntity
  8
Graypants_Bow120
370
    -3
100
AcDbVertex
100
AcDb2dVertex
 10
858.5430412518589
 20
-1879.427300266287
 30
0.0
  0
VERTEX
  5
2D9
330
287
100
AcDbEntity
  8
Graypants_Bow120
370
    -3
100
AcDbVertex
100
AcDb2dVertex
 10
861.5315961230873
 20
-1879.947902734704
 30
0.0
  0
VERTEX
  5
2DA
330
287
100
AcDbEntity
  8
Graypants_Bow120
370
    -3
100
AcDbVertex
100
AcDb2dVertex
 10
864.5154992385286
 20
-1880.451005911668
 30
0.0
  0
VERTEX
  5
2DB
330
287
100
AcDbEntity
  8
Graypants_Bow120
370
    -3
100
AcDbVertex
100
AcDb2dVertex
 10
867.4947093778767
 20
-1880.936513658948
 30
0.0
  0
VERTEX
  5
2DC
330
287
100
AcDbEntity
  8
Graypants_Bow120
370
    -3
100
AcDbVertex
100
AcDb2dVertex
 10
870.4691853208252
 20
-1881.404329838314
 30
0.0
  0
VERTEX
  5
2DD
330
287
100
AcDbEntity
  8
Graypants_Bow120
370
    -3
100
AcDbVertex
100
AcDb2dVertex
 10
873.438885847068
 20
-1881.854358311536
 30
0.0
  0
VERTEX
  5
2DE
330
287
100
AcDbEntity
  8
Graypants_Bow120
370
    -3
100
AcDbVertex
100
AcDb2dVertex
 10
876.4037697362991
 20
-1882.286502940384
 30
0.0
  0
VERTEX
  5
2DF
330
287
100
AcDbEntity
  8
Graypants_Bow120
370
    -3
100
AcDbVertex
100
AcDb2dVertex
 10
879.3637957682122
 20
-1882.700667586628
 30
0.0
  0
VERTEX
  5
2E0
330
287
100
AcDbEntity
  8
Graypants_Bow120
370
    -3
100
AcDbVertex
100
AcDb2dVertex
 10
882.3189227225012
 20
-1883.096756112038
 30
0.0
  0
VERTEX
  5
2E1
330
287
100
AcDbEntity
  8
Graypants_Bow120
370
    -3
100
AcDbVertex
100
AcDb2dVertex
 10
885.2691093788598
 20
-1883.474672378384
 30
0.0
  0
VERTEX
  5
2E2
330
287
100
AcDbEntity
  8
Graypants_Bow120
370
    -3
100
AcDbVertex
100
AcDb2dVertex
 10
888.2143145169819
 20
-1883.834320247436
 30
0.0
  0
VERTEX
  5
2E3
330
287
100
AcDbEntity
  8
Graypants_Bow120
370
    -3
100
AcDbVertex
100
AcDb2dVertex
 10
891.1544969165611
 20
-1884.175603580963
 30
0.0
  0
VERTEX
  5
2E4
330
287
100
AcDbEntity
  8
Graypants_Bow120
370
    -3
100
AcDbVertex
100
AcDb2dVertex
 10
894.0896153572916
 20
-1884.498426240737
 30
0.0
  0
VERTEX
  5
2E5
330
287
100
AcDbEntity
  8
Graypants_Bow120
370
    -3
100
AcDbVertex
100
AcDb2dVertex
 10
897.0196286188668
 20
-1884.802692088525
 30
0.0
  0
VERTEX
  5
2E6
330
287
100
AcDbEntity
  8
Graypants_Bow120
370
    -3
100
AcDbVertex
100
AcDb2dVertex
 10
899.9465203831242
 20
-1885.088535752562
 30
0.0
  0
VERTEX
  5
2E7
330
287
100
AcDbEntity
  8
Graypants_Bow120
370
    -3
100
AcDbVertex
100
AcDb2dVertex
 10
902.8722641139764
 20
-1885.356137583766
 30
0.0
  0
VERTEX
  5
2E8
330
287
100
AcDbEntity
  8
Graypants_Bow120
370
    -3
100
AcDbVertex
100
AcDb2dVertex
 10
905.7968032642314
 20
-1885.605470027936
 30
0.0
  0
VERTEX
  5
2E9
330
287
100
AcDbEntity
  8
Graypants_Bow120
370
    -3
100
AcDbVertex
100
AcDb2dVertex
 10
908.7200812866969
 20
-1885.836505530874
 30
0.0
  0
VERTEX
  5
2EA
330
287
100
AcDbEntity
  8
Graypants_Bow120
370
    -3
100
AcDbVertex
100
AcDb2dVertex
 10
911.6420416341809
 20
-1886.04921653838
 30
0.0
  0
VERTEX
  5
2EB
330
287
100
AcDbEntity
  8
Graypants_Bow120
370
    -3
100
AcDbVertex
100
AcDb2dVertex
 10
914.5626277594909
 20
-1886.243575496252
 30
0.0
  0
VERTEX
  5
2EC
330
287
100
AcDbEntity
  8
Graypants_Bow120
370
    -3
100
AcDbVertex
100
AcDb2dVertex
 10
917.4817831154348
 20
-1886.419554850291
 30
0.0
  0
VERTEX
  5
2ED
330
287
100
AcDbEntity
  8
Graypants_Bow120
370
    -3
100
AcDbVertex
100
AcDb2dVertex
 10
920.3994511548207
 20
-1886.577127046299
 30
0.0
  0
VERTEX
  5
2EE
330
287
100
AcDbEntity
  8
Graypants_Bow120
370
    -3
100
AcDbVertex
100
AcDb2dVertex
 10
923.315575330456
 20
-1886.716264530073
 30
0.0
  0
VERTEX
  5
2EF
330
287
100
AcDbEntity
  8
Graypants_Bow120
370
    -3
100
AcDbVertex
100
AcDb2dVertex
 10
926.2300990951485
 20
-1886.836939747415
 30
0.0
  0
VERTEX
  5
2F0
330
287
100
AcDbEntity
  8
Graypants_Bow120
370
    -3
100
AcDbVertex
100
AcDb2dVertex
 10
929.142965901706
 20
-1886.939125144125
 30
0.0
  0
VERTEX
  5
2F1
330
287
100
AcDbEntity
  8
Graypants_Bow120
370
    -3
100
AcDbVertex
100
AcDb2dVertex
 10
932.0541192029366
 20
-1887.022793166003
 30
0.0
  0
VERTEX
  5
2F2
330
287
100
AcDbEntity
  8
Graypants_Bow120
370
    -3
100
AcDbVertex
100
AcDb2dVertex
 10
934.9635024516479
 20
-1887.087916258848
 30
0.0
  0
VERTEX
  5
2F3
330
287
100
AcDbEntity
  8
Graypants_Bow120
370
    -3
100
AcDbVertex
100
AcDb2dVertex
 10
937.8710591006475
 20
-1887.134466868461
 30
0.0
  0
VERTEX
  5
2F4
330
287
100
AcDbEntity
  8
Graypants_Bow120
370
    -3
100
AcDbVertex
100
AcDb2dVertex
 10
940.7767326027432
 20
-1887.162417440643
 30
0.0
  0
VERTEX
  5
2F5
330
287
100
AcDbEntity
  8
Graypants_Bow120
370
    -3
100
AcDbVertex
100
AcDb2dVertex
 10
943.6804664107431
 20
-1887.171740421192
 30
0.0
  0
VERTEX
  5
2F6
330
287
100
AcDbEntity
  8
Graypants_Bow120
370
    -3
100
AcDbVertex
100
AcDb2dVertex
 10
946.5842002187408
 20
-1887.162417440643
 30
0.0
  0
VERTEX
  5
2F7
330
287
100
AcDbEntity
  8
Graypants_Bow120
370
    -3
100
AcDbVertex
100
AcDb2dVertex
 10
949.4898737208305
 20
-1887.134466868464
 30
0.0
  0
VERTEX
  5
2F8
330
287
100
AcDbEntity
  8
Graypants_Bow120
370
    -3
100
AcDbVertex
100
AcDb2dVertex
 10
952.3974303698212
 20
-1887.087916258854
 30
0.0
  0
VERTEX
  5
2F9
330
287
100
AcDbEntity
  8
Graypants_Bow120
370
    -3
100
AcDbVertex
100
AcDb2dVertex
 10
955.3068136185213
 20
-1887.022793166012
 30
0.0
  0
VERTEX
  5
2FA
330
287
100
AcDbEntity
  8
Graypants_Bow120
370
    -3
100
AcDbVertex
100
AcDb2dVertex
 10
958.2179669197396
 20
-1886.939125144139
 30
0.0
  0
VERTEX
  5
2FB
330
287
100
AcDbEntity
  8
Graypants_Bow120
370
    -3
100
AcDbVertex
100
AcDb2dVertex
 10
961.1308337262848
 20
-1886.836939747434
 30
0.0
  0
VERTEX
  5
2FC
330
287
100
AcDbEntity
  8
Graypants_Bow120
370
    -3
100
AcDbVertex
100
AcDb2dVertex
 10
964.0453574909654
 20
-1886.716264530096
 30
0.0
  0
VERTEX
  5
2FD
330
287
100
AcDbEntity
  8
Graypants_Bow120
370
    -3
100
AcDbVertex
100
AcDb2dVertex
 10
966.9614816665902
 20
-1886.577127046324
 30
0.0
  0
VERTEX
  5
2FE
330
287
100
AcDbEntity
  8
Graypants_Bow120
370
    -3
100
AcDbVertex
100
AcDb2dVertex
 10
969.8791497059678
 20
-1886.41955485032
 30
0.0
  0
VERTEX
  5
2FF
330
287
100
AcDbEntity
  8
Graypants_Bow120
370
    -3
100
AcDbVertex
100
AcDb2dVertex
 10
972.7983050619071
 20
-1886.243575496282
 30
0.0
  0
VERTEX
  5
300
330
287
100
AcDbEntity
  8
Graypants_Bow120
370
    -3
100
AcDbVertex
100
AcDb2dVertex
 10
975.7188911872165
 20
-1886.04921653841
 30
0.0
  0
VERTEX
  5
301
330
287
100
AcDbEntity
  8
Graypants_Bow120
370
    -3
100
AcDbVertex
100
AcDb2dVertex
 10
978.6408515347046
 20
-1885.836505530903
 30
0.0
  0
VERTEX
  5
302
330
287
100
AcDbEntity
  8
Graypants_Bow120
370
    -3
100
AcDbVertex
100
AcDb2dVertex
 10
981.5641295571803
 20
-1885.605470027962
 30
0.0
  0
VERTEX
  5
303
330
287
100
AcDbEntity
  8
Graypants_Bow120
370
    -3
100
AcDbVertex
100
AcDb2dVertex
 10
984.4886687074521
 20
-1885.356137583785
 30
0.0
  0
VERTEX
  5
304
330
287
100
AcDbEntity
  8
Graypants_Bow120
370
    -3
100
AcDbVertex
100
AcDb2dVertex
 10
987.4144124383289
 20
-1885.088535752573
 30
0.0
  0
VERTEX
  5
305
330
287
100
AcDbEntity
  8
Graypants_Bow120
370
    -3
100
AcDbVertex
100
AcDb2dVertex
 10
990.3413042026191
 20
-1884.802692088525
 30
0.0
  0
VERTEX
  5
306
330
287
100
AcDbEntity
  8
Graypants_Bow120
370
    -3
100
AcDbVertex
100
AcDb2dVertex
 10
993.2713174642206
 20
-1884.498426240722
 30
0.0
  0
VERTEX
  5
307
330
287
100
AcDbEntity
  8
Graypants_Bow120
370
    -3
100
AcDbVertex
100
AcDb2dVertex
 10
996.2064359049568
 20
-1884.175603580934
 30
0.0
  0
VERTEX
  5
308
330
287
100
AcDbEntity
  8
Graypants_Bow120
370
    -3
100
AcDbVertex
100
AcDb2dVertex
 10
999.1466183045252
 20
-1883.83432024739
 30
0.0
  0
VERTEX
  5
309
330
287
100
AcDbEntity
  8
Graypants_Bow120
370
    -3
100
AcDbVertex
100
AcDb2dVertex
 10
1002.091823442623
 20
-1883.474672378323
 30
0.0
  0
VERTEX
  5
30A
330
287
100
AcDbEntity
  8
Graypants_Bow120
370
    -3
100
AcDbVertex
100
AcDb2dVertex
 10
1005.042010098948
 20
-1883.096756111962
 30
0.0
  0
VERTEX
  5
30B
330
287
100
AcDbEntity
  8
Graypants_Bow120
370
    -3
100
AcDbVertex
100
AcDb2dVertex
 10
1007.997137053198
 20
-1882.700667586538
 30
0.0
  0
VERTEX
  5
30C
330
287
100
AcDbEntity
  8
Graypants_Bow120
370
    -3
100
AcDbVertex
100
AcDb2dVertex
 10
1010.957163085069
 20
-1882.286502940282
 30
0.0
  0
VERTEX
  5
30D
330
287
100
AcDbEntity
  8
Graypants_Bow120
370
    -3
100
AcDbVertex
100
AcDb2dVertex
 10
1013.92204697426
 20
-1881.854358311425
 30
0.0
  0
VERTEX
  5
30E
330
287
100
AcDbEntity
  8
Graypants_Bow120
370
    -3
100
AcDbVertex
100
AcDb2dVertex
 10
1016.891747500467
 20
-1881.404329838198
 30
0.0
  0
VERTEX
  5
30F
330
287
100
AcDbEntity
  8
Graypants_Bow120
370
    -3
100
AcDbVertex
100
AcDb2dVertex
 10
1019.866223443388
 20
-1880.936513658831
 30
0.0
  0
VERTEX
  5
310
330
287
100
AcDbEntity
  8
Graypants_Bow120
370
    -3
100
AcDbVertex
100
AcDb2dVertex
 10
1022.845433582722
 20
-1880.451005911554
 30
0.0
  0
VERTEX
  5
311
330
287
100
AcDbEntity
  8
Graypants_Bow120
370
    -3
100
AcDbVertex
100
AcDb2dVertex
 10
1025.829336698164
 20
-1879.947902734599
 30
0.0
  0
VERTEX
  5
312
330
287
100
AcDbEntity
  8
Graypants_Bow120
370
    -3
100
AcDbVertex
100
AcDb2dVertex
 10
1028.817891569413
 20
-1879.427300266197
 30
0.0
  0
VERTEX
  5
313
330
287
100
AcDbEntity
  8
Graypants_Bow120
370
    -3
100
AcDbVertex
100
AcDb2dVertex
 10
1031.811056976165
 20
-1878.889294644578
 30
0.0
  0
VERTEX
  5
314
330
287
100
AcDbEntity
  8
Graypants_Bow120
370
    -3
100
AcDbVertex
100
AcDb2dVertex
 10
1034.808791698119
 20
-1878.333982007973
 30
0.0
  0
VERTEX
  5
315
330
287
100
AcDbEntity
  8
Graypants_Bow120
370
    -3
100
AcDbVertex
100
AcDb2dVertex
 10
1037.811054514973
 20
-1877.761458494612
 30
0.0
  0
VERTEX
  5
316
330
287
100
AcDbEntity
  8
Graypants_Bow120
370
    -3
100
AcDbVertex
100
AcDb2dVertex
 10
1040.819930232192
 20
-1877.171399684808
 30
0.0
  0
VERTEX
  5
317
330
287
100
AcDbEntity
  8
Graypants_Bow120
370
    -3
100
AcDbVertex
100
AcDb2dVertex
 10
1043.837537214637
 20
-1876.563551623287
 30
0.0
  0
VERTEX
  5
318
330
287
100
AcDbEntity
  8
Graypants_Bow120
370
    -3
100
AcDbVertex
100
AcDb2dVertex
 10
1046.863884581091
 20
-1875.938116144911
 30
0.0
  0
VERTEX
  5
319
330
287
100
AcDbEntity
  8
Graypants_Bow120
370
    -3
100
AcDbVertex
100
AcDb2dVertex
 10
1049.898981450337
 20
-1875.295295084538
 30
0.0
  0
VERTEX
  5
31A
330
287
100
AcDbEntity
  8
Graypants_Bow120
370
    -3
100
AcDbVertex
100
AcDb2dVertex
 10
1052.942836941159
 20
-1874.635290277026
 30
0.0
  0
VERTEX
  5
31B
330
287
100
AcDbEntity
  8
Graypants_Bow120
370
    -3
100
AcDbVertex
100
AcDb2dVertex
 10
1055.995460172338
 20
-1873.958303557234
 30
0.0
  0
VERTEX
  5
31C
330
287
100
AcDbEntity
  8
Graypants_Bow120
370
    -3
100
AcDbVertex
100
AcDb2dVertex
 10
1059.05686026266
 20
-1873.264536760022
 30
0.0
  0
VERTEX
  5
31D
330
287
100
AcDbEntity
  8
Graypants_Bow120
370
    -3
100
AcDbVertex
100
AcDb2dVertex
 10
1062.127046330907
 20
-1872.554191720247
 30
0.0
  0
VERTEX
  5
31E
330
287
100
AcDbEntity
  8
Graypants_Bow120
370
    -3
100
AcDbVertex
100
AcDb2dVertex
 10
1065.206027495861
 20
-1871.827470272768
 30
0.0
  0
VERTEX
  5
31F
330
287
100
AcDbEntity
  8
Graypants_Bow120
370
    -3
100
AcDbVertex
100
AcDb2dVertex
 10
1068.293812876308
 20
-1871.084574252445
 30
0.0
  0
VERTEX
  5
320
330
287
100
AcDbEntity
  8
Graypants_Bow120
370
    -3
100
AcDbVertex
100
AcDb2dVertex
 10
1071.390411591029
 20
-1870.325705494136
 30
0.0
  0
VERTEX
  5
321
330
287
100
AcDbEntity
  8
Graypants_Bow120
370
    -3
100
AcDbVertex
100
AcDb2dVertex
 10
1074.495832758808
 20
-1869.5510658327
 30
0.0
  0
VERTEX
  5
322
330
287
100
AcDbEntity
  8
Graypants_Bow120
370
    -3
100
AcDbVertex
100
AcDb2dVertex
 10
1077.610085498429
 20
-1868.760857102996
 30
0.0
  0
VERTEX
  5
323
330
287
100
AcDbEntity
  8
Graypants_Bow120
370
    -3
100
AcDbVertex
100
AcDb2dVertex
 10
1080.733178928674
 20
-1867.955281139882
 30
0.0
  0
VERTEX
  5
324
330
287
100
AcDbEntity
  8
Graypants_Bow120
370
    -3
100
AcDbVertex
100
AcDb2dVertex
 10
1083.865122168326
 20
-1867.134539778217
 30
0.0
  0
VERTEX
  5
325
330
287
100
AcDbEntity
  8
Graypants_Bow120
370
    -3
100
AcDbVertex
100
AcDb2dVertex
 10
1087.00592433617
 20
-1866.298834852861
 30
0.0
  0
VERTEX
  5
326
330
287
100
AcDbEntity
  8
Graypants_Bow120
370
    -3
100
AcDbVertex
100
AcDb2dVertex
 10
1090.157871163558
 20
-1865.44774749452
 30
0.0
  0
VERTEX
  5
327
330
287
100
AcDbEntity
  8
Graypants_Bow120
370
    -3
100
AcDbVertex
100
AcDb2dVertex
 10
1093.323320888047
 20
-1864.580968507828
 30
0.0
  0
VERTEX
  5
328
330
287
100
AcDbEntity
  8
Graypants_Bow120
370
    -3
100
AcDbVertex
100
AcDb2dVertex
 10
1096.502391387724
 20
-1863.698864238529
 30
0.0
  0
VERTEX
  5
329
330
287
100
AcDbEntity
  8
Graypants_Bow120
370
    -3
100
AcDbVertex
100
AcDb2dVertex
 10
1099.695200540677
 20
-1862.801801032369
 30
0.0
  0
VERTEX
  5
32A
330
287
100
AcDbEntity
  8
Graypants_Bow120
370
    -3
100
AcDbVertex
100
AcDb2dVertex
 10
1106.122506318763
 20
-1860.964263192451
 30
0.0
  0
VERTEX
  5
32B
330
287
100
AcDbEntity
  8
Graypants_Bow120
370
    -3
100
AcDbVertex
100
AcDb2dVertex
 10
1112.606181247006
 20
-1859.071285754037
 30
0.0
  0
VERTEX
  5
32C
330
287
100
AcDbEntity
  8
Graypants_Bow120
370
    -3
100
AcDbVertex
100
AcDb2dVertex
 10
1119.147168350109
 20
-1857.125799483092
 30
0.0
  0
VERTEX
  5
32D
330
287
100
AcDbEntity
  8
Graypants_Bow120
370
    -3
100
AcDbVertex
100
AcDb2dVertex
 10
1125.746410652775
 20
-1855.130735145582
 30
0.0
  0
VERTEX
  5
32E
330
287
100
AcDbEntity
  8
Graypants_Bow120
370
    -3
100
AcDbVertex
100
AcDb2dVertex
 10
1132.404851179705
 20
-1853.08902350747
 30
0.0
  0
VERTEX
  5
32F
330
287
100
AcDbEntity
  8
Graypants_Bow120
370
    -3
100
AcDbVertex
100
AcDb2dVertex
 10
1139.123432955602
 20
-1851.003595334721
 30
0.0
  0
VERTEX
  5
330
330
287
100
AcDbEntity
  8
Graypants_Bow120
370
    -3
100
AcDbVertex
100
AcDb2dVertex
 10
1145.913083371376
 20
-1848.874451711037
 30
0.0
  0
VERTEX
  5
331
330
287
100
AcDbEntity
  8
Graypants_Bow120
370
    -3
100
AcDbVertex
100
AcDb2dVertex
 10
1152.785574659851
 20
-1846.702968990739
 30
0.0
  0
VERTEX
  5
332
330
287
100
AcDbEntity
  8
Graypants_Bow120
370
    -3
100
AcDbVertex
100
AcDb2dVertex
 10
1181.148154292276
 20
-1837.693520581267
 30
0.0
  0
VERTEX
  5
333
330
287
100
AcDbEntity
  8
Graypants_Bow120
370
    -3
100
AcDbVertex
100
AcDb2dVertex
 10
1188.468004257891
 20
-1835.385247456294
 30
0.0
  0
VERTEX
  5
334
330
287
100
AcDbEntity
  8
Graypants_Bow120
370
    -3
100
AcDbVertex
100
AcDb2dVertex
 10
1195.883956821661
 20
-1833.064597266067
 30
0.0
  0
VERTEX
  5
335
330
287
100
AcDbEntity
  8
Graypants_Bow120
370
    -3
100
AcDbVertex
100
AcDb2dVertex
 10
1203.408974017053
 20
-1830.73366668732
 30
0.0
  0
VERTEX
  5
336
330
287
100
AcDbEntity
  8
Graypants_Bow120
370
    -3
100
AcDbVertex
100
AcDb2dVertex
 10
1211.056557837208
 20
-1828.396618618488
 30
0.0
  0
VERTEX
  5
337
330
287
100
AcDbEntity
  8
Graypants_Bow120
370
    -3
100
AcDbVertex
100
AcDb2dVertex
 10
1214.927256052536
 20
-1827.228329589177
 30
0.0
  0
VERTEX
  5
338
330
287
100
AcDbEntity
  8
Graypants_Bow120
370
    -3
100
AcDbVertex
100
AcDb2dVertex
 10
1218.829728509214
 20
-1826.06154606401
 30
0.0
  0
VERTEX
  5
339
330
287
100
AcDbEntity
  8
Graypants_Bow120
370
    -3
100
AcDbVertex
100
AcDb2dVertex
 10
1222.764352735626
 20
-1824.897279668542
 30
0.0
  0
VERTEX
  5
33A
330
287
100
AcDbEntity
  8
Graypants_Bow120
370
    -3
100
AcDbVertex
100
AcDb2dVertex
 10
1226.731506260158
 20
-1823.736542028328
 30
0.0
  0
VERTEX
  5
33B
330
287
100
AcDbEntity
  8
Graypants_Bow120
370
    -3
100
AcDbVertex
100
AcDb2dVertex
 10
1230.731566611197
 20
-1822.580344768923
 30
0.0
  0
VERTEX
  5
33C
330
287
100
AcDbEntity
  8
Graypants_Bow120
370
    -3
100
AcDbVertex
100
AcDb2dVertex
 10
1234.764911317129
 20
-1821.429699515882
 30
0.0
  0
VERTEX
  5
33D
330
287
100
AcDbEntity
  8
Graypants_Bow120
370
    -3
100
AcDbVertex
100
AcDb2dVertex
 10
1238.83191790634
 20
-1820.285617894761
 30
0.0
  0
VERTEX
  5
33E
330
287
100
AcDbEntity
  8
Graypants_Bow120
370
    -3
100
AcDbVertex
100
AcDb2dVertex
 10
1242.932963907215
 20
-1819.149111531114
 30
0.0
  0
VERTEX
  5
33F
330
287
100
AcDbEntity
  8
Graypants_Bow120
370
    -3
100
AcDbVertex
100
AcDb2dVertex
 10
1247.06842684814
 20
-1818.021192050497
 30
0.0
  0
VERTEX
  5
340
330
287
100
AcDbEntity
  8
Graypants_Bow120
370
    -3
100
AcDbVertex
100
AcDb2dVertex
 10
1251.238684257502
 20
-1816.902871078464
 30
0.0
  0
VERTEX
  5
341
330
287
100
AcDbEntity
  8
Graypants_Bow120
370
    -3
100
AcDbVertex
100
AcDb2dVertex
 10
1255.444113663686
 20
-1815.795160240571
 30
0.0
  0
VERTEX
  5
342
330
287
100
AcDbEntity
  8
Graypants_Bow120
370
    -3
100
AcDbVertex
100
AcDb2dVertex
 10
1259.685092595079
 20
-1814.699071162373
 30
0.0
  0
VERTEX
  5
343
330
287
100
AcDbEntity
  8
Graypants_Bow120
370
    -3
100
AcDbVertex
100
AcDb2dVertex
 10
1263.964661192887
 20
-1813.615132184108
 30
0.0
  0
VERTEX
  5
344
330
287
100
AcDbEntity
  8
Graypants_Bow120
370
    -3
100
AcDbVertex
100
AcDb2dVertex
 10
1268.285758976832
 20
-1812.54413713967
 30
0.0
  0
VERTEX
  5
345
330
287
100
AcDbEntity
  8
Graypants_Bow120
370
    -3
100
AcDbVertex
100
AcDb2dVertex
 10
1272.648612543071
 20
-1811.4874958951
 30
0.0
  0
VERTEX
  5
346
330
287
100
AcDbEntity
  8
Graypants_Bow120
370
    -3
100
AcDbVertex
100
AcDb2dVertex
 10
1277.053448487761
 20
-1810.446618316436
 30
0.0
  0
VERTEX
  5
347
330
287
100
AcDbEntity
  8
Graypants_Bow120
370
    -3
100
AcDbVertex
100
AcDb2dVertex
 10
1281.50049340706
 20
-1809.422914269718
 30
0.0
  0
VERTEX
  5
348
330
287
100
AcDbEntity
  8
Graypants_Bow120
370
    -3
100
AcDbVertex
100
AcDb2dVertex
 10
1285.989973897125
 20
-1808.417793620985
 30
0.0
  0
VERTEX
  5
349
330
287
100
AcDbEntity
  8
Graypants_Bow120
370
    -3
100
AcDbVertex
100
AcDb2dVertex
 10
1290.522116554114
 20
-1807.432666236276
 30
0.0
  0
VERTEX
  5
34A
330
287
100
AcDbEntity
  8
Graypants_Bow120
370
    -3
100
AcDbVertex
100
AcDb2dVertex
 10
1295.097147974184
 20
-1806.46894198163
 30
0.0
  0
VERTEX
  5
34B
330
287
100
AcDbEntity
  8
Graypants_Bow120
370
    -3
100
AcDbVertex
100
AcDb2dVertex
 10
1299.715294753493
 20
-1805.528030723088
 30
0.0
  0
VERTEX
  5
34C
330
287
100
AcDbEntity
  8
Graypants_Bow120
370
    -3
100
AcDbVertex
100
AcDb2dVertex
 10
1304.376783488198
 20
-1804.611342326687
 30
0.0
  0
VERTEX
  5
34D
330
287
100
AcDbEntity
  8
Graypants_Bow120
370
    -3
100
AcDbVertex
100
AcDb2dVertex
 10
1309.081840774456
 20
-1803.720286658468
 30
0.0
  0
VERTEX
  5
34E
330
287
100
AcDbEntity
  8
Graypants_Bow120
370
    -3
100
AcDbVertex
100
AcDb2dVertex
 10
1313.830693208425
 20
-1802.856273584469
 30
0.0
  0
VERTEX
  5
34F
330
287
100
AcDbEntity
  8
Graypants_Bow120
370
    -3
100
AcDbVertex
100
AcDb2dVertex
 10
1318.623567386262
 20
-1802.02071297073
 30
0.0
  0
VERTEX
  5
350
330
287
100
AcDbEntity
  8
Graypants_Bow120
370
    -3
100
AcDbVertex
100
AcDb2dVertex
 10
1323.460689904125
 20
-1801.21501468329
 30
0.0
  0
VERTEX
  5
351
330
287
100
AcDbEntity
  8
Graypants_Bow120
370
    -3
100
AcDbVertex
100
AcDb2dVertex
 10
1328.342287358171
 20
-1800.440588588189
 30
0.0
  0
VERTEX
  5
352
330
287
100
AcDbEntity
  8
Graypants_Bow120
370
    -3
100
AcDbVertex
100
AcDb2dVertex
 10
1333.268586344557
 20
-1799.698844551465
 30
0.0
  0
VERTEX
  5
353
330
287
100
AcDbEntity
  8
Graypants_Bow120
370
    -3
100
AcDbVertex
100
AcDb2dVertex
 10
1337.303293006578
 20
-1799.121545044495
 30
0.0
  0
VERTEX
  5
354
330
287
100
AcDbEntity
  8
Graypants_Bow120
370
    -3
100
AcDbVertex
100
AcDb2dVertex
 10
1341.3703036955
 20
-1798.56748943508
 30
0.0
  0
VERTEX
  5
355
330
287
100
AcDbEntity
  8
Graypants_Bow120
370
    -3
100
AcDbVertex
100
AcDb2dVertex
 10
1345.469582858191
 20
-1798.037427008988
 30
0.0
  0
VERTEX
  5
356
330
287
100
AcDbEntity
  8
Graypants_Bow120
370
    -3
100
AcDbVertex
100
AcDb2dVertex
 10
1349.601094941519
 20
-1797.532107051987
 30
0.0
  0
VERTEX
  5
357
330
287
100
AcDbEntity
  8
Graypants_Bow120
370
    -3
100
AcDbVertex
100
AcDb2dVertex
 10
1353.764804392349
 20
-1797.052278849845
 30
0.0
  0
VERTEX
  5
358
330
287
100
AcDbEntity
  8
Graypants_Bow120
370
    -3
100
AcDbVertex
100
AcDb2dVertex
 10
1357.96067565755
 20
-1796.59869168833
 30
0.0
  0
VERTEX
  5
359
330
287
100
AcDbEntity
  8
Graypants_Bow120
370
    -3
100
AcDbVertex
100
AcDb2dVertex
 10
1362.18867318399
 20
-1796.172094853211
 30
0.0
  0
VERTEX
  5
35A
330
287
100
AcDbEntity
  8
Graypants_Bow120
370
    -3
100
AcDbVertex
100
AcDb2dVertex
 10
1366.448761418534
 20
-1795.773237630256
 30
0.0
  0
VERTEX
  5
35B
330
287
100
AcDbEntity
  8
Graypants_Bow120
370
    -3
100
AcDbVertex
100
AcDb2dVertex
 10
1370.740904808051
 20
-1795.402869305232
 30
0.0
  0
VERTEX
  5
35C
330
287
100
AcDbEntity
  8
Graypants_Bow120
370
    -3
100
AcDbVertex
100
AcDb2dVertex
 10
1375.065067799408
 20
-1795.061739163909
 30
0.0
  0
VERTEX
  5
35D
330
287
100
AcDbEntity
  8
Graypants_Bow120
370
    -3
100
AcDbVertex
100
AcDb2dVertex
 10
1379.421214839472
 20
-1794.750596492054
 30
0.0
  0
VERTEX
  5
35E
330
287
100
AcDbEntity
  8
Graypants_Bow120
370
    -3
100
AcDbVertex
100
AcDb2dVertex
 10
1383.80931037511
 20
-1794.470190575436
 30
0.0
  0
VERTEX
  5
35F
330
287
100
AcDbEntity
  8
Graypants_Bow120
370
    -3
100
AcDbVertex
100
AcDb2dVertex
 10
1388.22931885319
 20
-1794.221270699822
 30
0.0
  0
VERTEX
  5
360
330
287
100
AcDbEntity
  8
Graypants_Bow120
370
    -3
100
AcDbVertex
100
AcDb2dVertex
 10
1392.681204720579
 20
-1794.004586150982
 30
0.0
  0
VERTEX
  5
361
330
287
100
AcDbEntity
  8
Graypants_Bow120
370
    -3
100
AcDbVertex
100
AcDb2dVertex
 10
1397.164932424143
 20
-1793.820886214682
 30
0.0
  0
VERTEX
  5
362
330
287
100
AcDbEntity
  8
Graypants_Bow120
370
    -3
100
AcDbVertex
100
AcDb2dVertex
 10
1401.680466410751
 20
-1793.670920176692
 30
0.0
  0
SEQEND
  5
363
330
287
100
AcDbEntity
  8
Graypants_Bow120
370
    -3
  0
LINE
  5
364
330
1F
100
AcDbEntity
  8
Graypants_Bow120
370
    -3
100
AcDbLine
 10
591.7804664107466
 20
-1774.988484340032
 30
0.0
 11
591.7804664107466
 21
-1774.821740421202
 31
0.0
  0
LINE
  5
365
330
1F
100
AcDbEntity
  8
Graypants_Bow120
370
    -3
100
AcDbLine
 10
595.5804664107468
 20
-1774.821740421202
 30
0.0
 11
595.5804664107468
 21
-1774.988473875479
 31
0.0
  0
LINE
  5
366
330
1F
100
AcDbEntity
  8
Graypants_Bow120
370
    -3
100
AcDbLine
 10
1291.780466410748
 20
-1774.988484340017
 30
0.0
 11
1291.780466410748
 21
-1774.821740421187
 31
0.0
  0
LINE
  5
367
330
1F
100
AcDbEntity
  8
Graypants_Bow120
370
    -3
100
AcDbLine
 10
1295.580466410747
 20
-1774.821740421187
 30
0.0
 11
1295.580466410747
 21
-1774.988473875464
 31
0.0
  0
ENDSEC
  0
SECTION
  2
OBJECTS
  0
DICTIONARY
  5
C
330
0
100
AcDbDictionary
281
     1
  3
ACAD_DETAILVIEWSTYLE
350
3A3
  3
ACAD_GROUP
350
D
  3
ACAD_LAYOUT
350
1A
  3
ACAD_MATERIAL
350
43
  3
ACAD_MLEADERSTYLE
350
6B
  3
ACAD_MLINESTYLE
350
17
  3
ACAD_PLOTSETTINGS
350
19
  3
ACAD_PLOTSTYLENAME
350
E
  3
ACAD_SCALELIST
350
47
  3
ACAD_SECTIONVIEWSTYLE
350
3A4
  3
ACAD_TABLESTYLE
350
69
  3
ACAD_VISUALSTYLE
350
2A
  3
AcDbVariableDictionary
350
368
  3
ACDB_RECOMPOSE_DATA
350
3A0
  0
SUN
  5
6D
330
29
100
AcDbSun
 90
        1
290
     0
 63
     7
421
 16777215
 40
1.0
291
     1
 91
  2455826
 92
 54000000
292
     0
 70
     2
 71
   256
280
     1
  0
DICTIONARY
  5
3A3
102
{ACAD_REACTORS
330
C
102
}
330
C
100
AcDbDictionary
281
     1
  0
DICTIONARY
  5
D
102
{ACAD_REACTORS
330
C
102
}
330
C
100
AcDbDictionary
281
     1
  0
DICTIONARY
  5
1A
102
{ACAD_REACTORS
330
C
102
}
330
C
100
AcDbDictionary
281
     1
  3
Layout1
350
1E
  3
Layout2
350
26
  3
Model
350
22
  0
DICTIONARY
  5
43
102
{ACAD_REACTORS
330
C
102
}
330
C
100
AcDbDictionary
281
     1
  3
ByBlock
350
45
  3
ByLayer
350
44
  3
Global
350
46
  0
DICTIONARY
  5
6B
102
{ACAD_REACTORS
330
C
102
}
330
C
100
AcDbDictionary
281
     1
  3
Standard
350
6C
  0
DICTIONARY
  5
17
102
{ACAD_REACTORS
330
C
102
}
330
C
100
AcDbDictionary
281
     1
  3
Standard
350
18
  0
DICTIONARY
  5
19
102
{ACAD_REACTORS
330
C
102
}
330
C
100
AcDbDictionary
281
     1
  0
ACDBDICTIONARYWDFLT
  5
E
102
{ACAD_REACTORS
330
C
102
}
330
C
100
AcDbDictionary
281
     1
  3
Normal
350
F
100
AcDbDictionaryWithDefault
340
F
  0
DICTIONARY
  5
47
102
{ACAD_REACTORS
330
C
102
}
330
C
100
AcDbDictionary
281
     1
  3
A0
350
48
  3
A1
350
49
  3
A2
350
4A
  3
A3
350
4B
  3
A4
350
4C
  3
A5
350
4D
  3
A6
350
4E
  3
A7
350
4F
  3
A8
350
50
  3
A9
350
51
  3
B0
350
52
  3
B1
350
53
  3
B2
350
54
  3
B3
350
55
  3
B4
350
56
  3
B5
350
57
  3
B6
350
58
  3
B7
350
59
  3
B8
350
5A
  3
B9
350
5B
  3
C0
350
5C
  3
C1
350
5D
  3
C2
350
5E
  3
C3
350
5F
  3
C4
350
60
  3
C5
350
61
  3
C6
350
62
  3
C7
350
63
  3
C8
350
64
  3
C9
350
65
  3
D0
350
66
  3
D1
350
67
  3
D2
350
68
  0
DICTIONARY
  5
3A4
102
{ACAD_REACTORS
330
C
102
}
330
C
100
AcDbDictionary
281
     1
  0
DICTIONARY
  5
69
102
{ACAD_REACTORS
330
C
102
}
330
C
100
AcDbDictionary
281
     1
  3
Standard
350
6A
  0
DICTIONARY
  5
2A
102
{ACAD_REACTORS
330
C
102
}
330
C
100
AcDbDictionary
281
     1
  3
2dWireframe
350
2F
  3
Basic
350
32
  3
Brighten
350
36
  3
ColorChange
350
3A
  3
Conceptual
350
34
  3
Dim
350
35
  3
EdgeColorOff
350
3D
  3
Facepattern
350
39
  3
Flat
350
2B
  3
FlatWithEdges
350
2C
  3
Gouraud
350
2D
  3
GouraudWithEdges
350
2E
  3
Hidden
350
31
  3
JitterOff
350
3B
  3
Linepattern
350
38
  3
OverhangOff
350
3C
  3
Realistic
350
33
  3
Shaded
350
42
  3
Shaded with edges
350
41
  3
Shades of Gray
350
3E
  3
Sketchy
350
3F
  3
Thicken
350
37
  3
Wireframe
350
30
  3
X-Ray
350
40
  0
DICTIONARY
  5
368
102
{ACAD_REACTORS
330
C
102
}
330
C
100
AcDbDictionary
281
     1
  3
CANNOSCALE
350
369
  3
CMLEADERSTYLE
350
3A2
  3
CTABLESTYLE
350
3A1
  3
XCLIPFRAME
350
36A
  0
XRECORD
  5
3A0
102
{ACAD_REACTORS
330
C
102
}
330
C
100
AcDbXrecord
280
     1
 90
        1
330
6A
  0
LAYOUT
  5
1E
102
{ACAD_REACTORS
330
1A
102
}
330
1A
100
AcDbPlotSettings
  1

  2
none_device
  4

  6

 40
0.0
 41
0.0
 42
0.0
 43
0.0
 44
0.0
 45
0.0
 46
0.0
 47
0.0
 48
0.0
 49
0.0
140
0.0
141
0.0
142
1.0
143
1.0
 70
   688
 72
     0
 73
     0
 74
     5
  7

 75
    16
 76
     0
 77
     2
 78
   300
147
1.0
148
0.0
149
0.0
100
AcDbLayout
  1
Layout1
 70
     1
 71
     1
 10
0.0
 20
0.0
 11
12.0
 21
9.0
 12
0.0
 22
0.0
 32
0.0
 14
1.000000000000000E+20
 24
1.000000000000000E+20
 34
1.000000000000000E+20
 15
-1.000000000000000E+20
 25
-1.000000000000000E+20
 35
-1.000000000000000E+20
146
0.0
 13
0.0
 23
0.0
 33
0.0
 16
1.0
 26
0.0
 36
0.0
 17
0.0
 27
1.0
 37
0.0
 76
     0
330
1B
  0
LAYOUT
  5
26
102
{ACAD_REACTORS
330
1A
102
}
330
1A
100
AcDbPlotSettings
  1

  2
none_device
  4

  6

 40
0.0
 41
0.0
 42
0.0
 43
0.0
 44
0.0
 45
0.0
 46
0.0
 47
0.0
 48
0.0
 49
0.0
140
0.0
141
0.0
142
1.0
143
1.0
 70
   688
 72
     0
 73
     0
 74
     5
  7

 75
    16
 76
     0
 77
     2
 78
   300
147
1.0
148
0.0
149
0.0
100
AcDbLayout
  1
Layout2
 70
     1
 71
     2
 10
0.0
 20
0.0
 11
0.0
 21
0.0
 12
0.0
 22
0.0
 32
0.0
 14
0.0
 24
0.0
 34
0.0
 15
0.0
 25
0.0
 35
0.0
146
0.0
 13
0.0
 23
0.0
 33
0.0
 16
1.0
 26
0.0
 36
0.0
 17
0.0
 27
1.0
 37
0.0
 76
     0
330
23
  0
LAYOUT
  5
22
102
{ACAD_REACTORS
330
1A
102
}
330
1A
100
AcDbPlotSettings
  1

  2
none_device
  4
Letter_(8.50_x_11.00_Inches)
  6

 40
6.35
 41
6.35
 42
6.35000508
 43
6.35000508
 44
215.9
 45
279.4
 46
0.0
 47
0.0
 48
0.0
 49
0.0
140
0.0
141
0.0
142
1.0
143
1.0
 70
  1712
 72
     0
 73
     0
 74
     0
  7

 75
     0
 76
     0
 77
     2
 78
   300
147
1.0
148
0.0
149
0.0
100
AcDbLayout
  1
Model
 70
     1
 71
     0
 10
0.0
 20
0.0
 11
12.0
 21
9.0
 12
0.0
 22
0.0
 32
0.0
 14
1.000000000000000E+20
 24
1.000000000000000E+20
 34
1.000000000000000E+20
 15
-1.000000000000000E+20
 25
-1.000000000000000E+20
 35
-1.000000000000000E+20
146
0.0
 13
0.0
 23
0.0
 33
0.0
 16
1.0
 26
0.0
 36
0.0
 17
0.0
 27
1.0
 37
0.0
 76
     0
330
1F
331
29
  0
MATERIAL
  5
45
102
{ACAD_REACTORS
330
43
102
}
330
43
100
AcDbMaterial
  1
ByBlock
 72
     1
 94
      127
  0
MATERIAL
  5
44
102
{ACAD_REACTORS
330
43
102
}
330
43
100
AcDbMaterial
  1
ByLayer
 72
     1
 94
      127
  0
MATERIAL
  5
46
102
{ACAD_REACTORS
330
43
102
}
330
43
100
AcDbMaterial
  1
Global
 72
     1
 94
      127
  0
MLEADERSTYLE
  5
6C
102
{ACAD_REACTORS
330
6B
102
}
102
{ACAD_XDICTIONARY
360
39E
102
}
330
6B
100
AcDbMLeaderStyle
170
     2
171
     1
172
     0
 90
        2
 40
0.0
 41
0.0
173
     1
 91
-1056964608
340
14
 92
       -2
290
     1
 42
0.09
291
     1
 43
0.36
  3
Standard
341
0
 44
0.18
300

342
11
174
     1
178
     6
175
     1
176
     0
 93
-1056964608
 45
0.18
292
     0
297
     0
 46
0.18
343
0
 94
-1056964608
 47
1.0
 49
1.0
140
1.0
293
     1
141
0.0
294
     1
177
     0
142
1.0
295
     0
296
     0
143
0.125
1001
ACAD_MLEADERVER
1070
     2
  0
MLINESTYLE
  5
18
102
{ACAD_REACTORS
330
17
102
}
330
17
100
AcDbMlineStyle
  2
Standard
 70
     0
  3

 62
   256
 51
90.0
 52
90.0
 71
     2
 49
0.5
 62
   256
  6
BYLAYER
 49
-0.5
 62
   256
  6
BYLAYER
  0
ACDBPLACEHOLDER
  5
F
102
{ACAD_REACTORS
330
E
102
}
330
E
  0
SCALE
  5
48
102
{ACAD_REACTORS
330
47
102
}
330
47
100
AcDbScale
 70
     0
300
1:1
140
1.0
141
1.0
290
     1
  0
SCALE
  5
49
102
{ACAD_REACTORS
330
47
102
}
330
47
100
AcDbScale
 70
     0
300
1:2
140
1.0
141
2.0
290
     0
  0
SCALE
  5
4A
102
{ACAD_REACTORS
330
47
102
}
330
47
100
AcDbScale
 70
     0
300
1:4
140
1.0
141
4.0
290
     0
  0
SCALE
  5
4B
102
{ACAD_REACTORS
330
47
102
}
330
47
100
AcDbScale
 70
     0
300
1:5
140
1.0
141
5.0
290
     0
  0
SCALE
  5
4C
102
{ACAD_REACTORS
330
47
102
}
330
47
100
AcDbScale
 70
     0
300
1:8
140
1.0
141
8.0
290
     0
  0
SCALE
  5
4D
102
{ACAD_REACTORS
330
47
102
}
330
47
100
AcDbScale
 70
     0
300
1:10
140
1.0
141
10.0
290
     0
  0
SCALE
  5
4E
102
{ACAD_REACTORS
330
47
102
}
330
47
100
AcDbScale
 70
     0
300
1:16
140
1.0
141
16.0
290
     0
  0
SCALE
  5
4F
102
{ACAD_REACTORS
330
47
102
}
330
47
100
AcDbScale
 70
     0
300
1:20
140
1.0
141
20.0
290
     0
  0
SCALE
  5
50
102
{ACAD_REACTORS
330
47
102
}
330
47
100
AcDbScale
 70
     0
300
1:30
140
1.0
141
30.0
290
     0
  0
SCALE
  5
51
102
{ACAD_REACTORS
330
47
102
}
330
47
100
AcDbScale
 70
     0
300
1:40
140
1.0
141
40.0
290
     0
  0
SCALE
  5
52
102
{ACAD_REACTORS
330
47
102
}
330
47
100
AcDbScale
 70
     0
300
1:50
140
1.0
141
50.0
290
     0
  0
SCALE
  5
53
102
{ACAD_REACTORS
330
47
102
}
330
47
100
AcDbScale
 70
     0
300
1:100
140
1.0
141
100.0
290
     0
  0
SCALE
  5
54
102
{ACAD_REACTORS
330
47
102
}
330
47
100
AcDbScale
 70
     0
300
2:1
140
2.0
141
1.0
290
     0
  0
SCALE
  5
55
102
{ACAD_REACTORS
330
47
102
}
330
47
100
AcDbScale
 70
     0
300
4:1
140
4.0
141
1.0
290
     0
  0
SCALE
  5
56
102
{ACAD_REACTORS
330
47
102
}
330
47
100
AcDbScale
 70
     0
300
8:1
140
8.0
141
1.0
290
     0
  0
SCALE
  5
57
102
{ACAD_REACTORS
330
47
102
}
330
47
100
AcDbScale
 70
     0
300
10:1
140
10.0
141
1.0
290
     0
  0
SCALE
  5
58
102
{ACAD_REACTORS
330
47
102
}
330
47
100
AcDbScale
 70
     0
300
100:1
140
100.0
141
1.0
290
     0
  0
SCALE
  5
59
102
{ACAD_REACTORS
330
47
102
}
330
47
100
AcDbScale
 70
     0
300
1/128" = 1'-0"
140
0.0078125
141
12.0
290
     0
  0
SCALE
  5
5A
102
{ACAD_REACTORS
330
47
102
}
330
47
100
AcDbScale
 70
     0
300
1/64" = 1'-0"
140
0.015625
141
12.0
290
     0
  0
SCALE
  5
5B
102
{ACAD_REACTORS
330
47
102
}
330
47
100
AcDbScale
 70
     0
300
1/32" = 1'-0"
140
0.03125
141
12.0
290
     0
  0
SCALE
  5
5C
102
{ACAD_REACTORS
330
47
102
}
330
47
100
AcDbScale
 70
     0
300
1/16" = 1'-0"
140
0.0625
141
12.0
290
     0
  0
SCALE
  5
5D
102
{ACAD_REACTORS
330
47
102
}
330
47
100
AcDbScale
 70
     0
300
3/32" = 1'-0"
140
0.09375
141
12.0
290
     0
  0
SCALE
  5
5E
102
{ACAD_REACTORS
330
47
102
}
330
47
100
AcDbScale
 70
     0
300
1/8" = 1'-0"
140
0.125
141
12.0
290
     0
  0
SCALE
  5
5F
102
{ACAD_REACTORS
330
47
102
}
330
47
100
AcDbScale
 70
     0
300
3/16" = 1'-0"
140
0.1875
141
12.0
290
     0
  0
SCALE
  5
60
102
{ACAD_REACTORS
330
47
102
}
330
47
100
AcDbScale
 70
     0
300
1/4" = 1'-0"
140
0.25
141
12.0
290
     0
  0
SCALE
  5
61
102
{ACAD_REACTORS
330
47
102
}
330
47
100
AcDbScale
 70
     0
300
3/8" = 1'-0"
140
0.375
141
12.0
290
     0
  0
SCALE
  5
62
102
{ACAD_REACTORS
330
47
102
}
330
47
100
AcDbScale
 70
     0
300
1/2" = 1'-0"
140
0.5
141
12.0
290
     0
  0
SCALE
  5
63
102
{ACAD_REACTORS
330
47
102
}
330
47
100
AcDbScale
 70
     0
300
3/4" = 1'-0"
140
0.75
141
12.0
290
     0
  0
SCALE
  5
64
102
{ACAD_REACTORS
330
47
102
}
330
47
100
AcDbScale
 70
     0
300
1" = 1'-0"
140
1.0
141
12.0
290
     0
  0
SCALE
  5
65
102
{ACAD_REACTORS
330
47
102
}
330
47
100
AcDbScale
 70
     0
300
1-1/2" = 1'-0"
140
1.5
141
12.0
290
     0
  0
SCALE
  5
66
102
{ACAD_REACTORS
330
47
102
}
330
47
100
AcDbScale
 70
     0
300
3" = 1'-0"
140
3.0
141
12.0
290
     0
  0
SCALE
  5
67
102
{ACAD_REACTORS
330
47
102
}
330
47
100
AcDbScale
 70
     0
300
6" = 1'-0"
140
6.0
141
12.0
290
     0
  0
SCALE
  5
68
102
{ACAD_REACTORS
330
47
102
}
330
47
100
AcDbScale
 70
     0
300
1'-0" = 1'-0"
140
12.0
141
12.0
290
     0
  0
TABLESTYLE
  5
6A
102
{ACAD_REACTORS
330
69
102
}
102
{ACAD_XDICTIONARY
360
39B
102
}
330
69
100
AcDbTableStyle
  3
Standard
 70
     0
 71
     0
 40
0.06
 41
0.06
280
     0
281
     0
  7
Standard
140
0.18
170
     2
 62
     0
 63
   257
283
     0
 90
        4
 91
        0
  1

274
    -2
284
     1
 64
     0
275
    -2
285
     1
 65
     0
276
    -2
286
     1
 66
     0
277
    -2
287
     1
 67
     0
278
    -2
288
     1
 68
     0
279
    -2
289
     1
 69
     0
  7
Standard
140
0.25
170
     5
 62
     0
 63
   257
283
     0
 90
        4
 91
        0
  1

274
    -2
284
     1
 64
     0
275
    -2
285
     1
 65
     0
276
    -2
286
     1
 66
     0
277
    -2
287
     1
 67
     0
278
    -2
288
     1
 68
     0
279
    -2
289
     1
 69
     0
  7
Standard
140
0.18
170
     5
 62
     0
 63
   257
283
     0
 90
        4
 91
        0
  1

274
    -2
284
     1
 64
     0
275
    -2
285
     1
 65
     0
276
    -2
286
     1
 66
     0
277
    -2
287
     1
 67
     0
278
    -2
288
     1
 68
     0
279
    -2
289
     1
 69
     0
  0
VISUALSTYLE
  5
2F
102
{ACAD_REACTORS
330
2A
102
}
102
{ACAD_XDICTIONARY
360
373
102
}
330
2A
100
AcDbVisualStyle
  2
2dWireframe
 70
     4
 71
     0
 72
     2
 73
     0
 90
        0
 40
0.6
 41
30.0
 62
     5
 63
     7
421
 16777215
 74
     1
 91
        4
 64
     7
 65
   257
 75
     1
175
     1
 42
1.0
 92
        0
 66
   257
 43
1.0
 76
     1
 77
     6
 78
     2
 67
     7
 79
     5
170
     0
171
     0
290
     0
174
     0
 93
        1
 44
0.0
173
     0
291
     0
 45
0.0
  0
VISUALSTYLE
  5
32
102
{ACAD_REACTORS
330
2A
102
}
102
{ACAD_XDICTIONARY
360
379
102
}
330
2A
100
AcDbVisualStyle
  2
Basic
 70
     7
 71
     1
 72
     0
 73
     1
 90
        0
 40
0.6
 41
30.0
 62
     5
 63
     7
421
 16777215
 74
     0
 91
        4
 64
     7
 65
   257
 75
     1
175
     1
 42
1.0
 92
        8
 66
     7
 43
1.0
 76
     1
 77
     6
 78
     2
 67
     7
 79
     5
170
     0
171
     0
290
     0
174
     0
 93
        1
 44
0.0
173
     0
291
     1
 45
0.0
  0
VISUALSTYLE
  5
36
102
{ACAD_REACTORS
330
2A
102
}
102
{ACAD_XDICTIONARY
360
381
102
}
330
2A
100
AcDbVisualStyle
  2
Brighten
 70
    12
 71
     2
 72
     2
 73
     0
 90
        0
 40
0.6
 41
30.0
 62
     5
 63
     7
421
 16777215
 74
     1
 91
        4
 64
     7
 65
   257
 75
     1
175
     1
 42
1.0
 92
        8
 66
     7
 43
1.0
 76
     1
 77
     6
 78
     2
 67
     7
 79
     5
170
     0
171
     0
290
     0
174
     0
 93
        1
 44
50.0
173
     0
291
     1
 45
0.0
  0
VISUALSTYLE
  5
3A
102
{ACAD_REACTORS
330
2A
102
}
102
{ACAD_XDICTIONARY
360
389
102
}
330
2A
100
AcDbVisualStyle
  2
ColorChange
 70
    16
 71
     2
 72
     2
 73
     3
 90
        0
 40
0.6
 41
30.0
 62
     5
 63
     8
421
  8421504
 74
     1
 91
        4
 64
     7
 65
   257
 75
     1
175
     1
 42
1.0
 92
        8
 66
     8
424
  8421504
 43
1.0
 76
     1
 77
     6
 78
     2
 67
     7
 79
     5
170
     0
171
     0
290
     0
174
     0
 93
        1
 44
0.0
173
     0
291
     1
 45
0.0
  0
VISUALSTYLE
  5
34
102
{ACAD_REACTORS
330
2A
102
}
102
{ACAD_XDICTIONARY
360
37D
102
}
330
2A
100
AcDbVisualStyle
  2
Conceptual
 70
     9
 71
     3
 72
     2
 73
     0
 90
        0
 40
0.6
 41
30.0
 62
     5
 63
     7
421
 16777215
 74
     2
 91
        2
 64
     7
 65
   257
 75
     1
175
     1
 42
179.0
 92
        8
 66
     7
 43
1.0
 76
     1
 77
     6
 78
     2
 67
     7
 79
     3
170
     0
171
     0
290
     0
174
     0
 93
        1
 44
0.0
173
     0
291
     0
 45
0.0
  0
VISUALSTYLE
  5
35
102
{ACAD_REACTORS
330
2A
102
}
102
{ACAD_XDICTIONARY
360
37F
102
}
330
2A
100
AcDbVisualStyle
  2
Dim
 70
    11
 71
     2
 72
     2
 73
     0
 90
        0
 40
0.6
 41
30.0
 62
     5
 63
     7
421
 16777215
 74
     1
 91
        4
 64
     7
 65
   257
 75
     1
175
     1
 42
1.0
 92
        8
 66
     7
 43
1.0
 76
     1
 77
     6
 78
     2
 67
     7
 79
     5
170
     0
171
     0
290
     0
174
     0
 93
        1
 44
-50.0
173
     0
291
     1
 45
0.0
  0
VISUALSTYLE
  5
3D
102
{ACAD_REACTORS
330
2A
102
}
102
{ACAD_XDICTIONARY
360
38F
102
}
330
2A
100
AcDbVisualStyle
  2
EdgeColorOff
 70
    22
 71
     2
 72
     2
 73
     0
 90
        0
 40
0.6
 41
30.0
 62
     5
 63
     7
421
 16777215
 74
     1
 91
        4
 64
     7
 65
   257
 75
     1
175
     1
 42
1.0
 92
        8
 66
     7
 43
1.0
 76
     1
 77
     6
 78
     2
 67
     7
 79
     5
170
     0
171
     0
290
     0
174
     0
 93
        1
 44
0.0
173
     0
291
     1
 45
0.0
  0
VISUALSTYLE
  5
39
102
{ACAD_REACTORS
330
2A
102
}
102
{ACAD_XDICTIONARY
360
387
102
}
330
2A
100
AcDbVisualStyle
  2
Facepattern
 70
    15
 71
     2
 72
     2
 73
     0
 90
        0
 40
0.6
 41
30.0
 62
     5
 63
     7
421
 16777215
 74
     1
 91
        4
 64
     7
 65
   257
 75
     1
175
     1
 42
1.0
 92
        8
 66
     7
 43
1.0
 76
     1
 77
     6
 78
     2
 67
     7
 79
     5
170
     0
171
     0
290
     0
174
     0
 93
        1
 44
0.0
173
     0
291
     1
 45
0.0
  0
VISUALSTYLE
  5
2B
102
{ACAD_REACTORS
330
2A
102
}
102
{ACAD_XDICTIONARY
360
36B
102
}
330
2A
100
AcDbVisualStyle
  2
Flat
 70
     0
 71
     2
 72
     1
 73
     1
 90
        2
 40
0.6
 41
30.0
 62
     5
 63
     7
421
 16777215
 74
     0
 91
        0
 64
     7
 65
   257
 75
     1
175
     1
 42
1.0
 92
        8
 66
     7
 43
1.0
 76
     1
 77
     6
 78
     2
 67
     7
 79
     5
170
     0
171
     0
290
     0
174
     0
 93
       13
 44
0.0
173
     0
291
     1
 45
0.0
  0
VISUALSTYLE
  5
2C
102
{ACAD_REACTORS
330
2A
102
}
102
{ACAD_XDICTIONARY
360
36D
102
}
330
2A
100
AcDbVisualStyle
  2
FlatWithEdges
 70
     1
 71
     2
 72
     1
 73
     1
 90
        2
 40
0.6
 41
30.0
 62
     5
 63
     7
421
 16777215
 74
     1
 91
        0
 64
     7
 65
   257
 75
     1
175
     1
 42
1.0
 92
        0
 66
   257
 43
1.0
 76
     1
 77
     6
 78
     2
 67
     7
 79
     5
170
     0
171
     0
290
     0
174
     0
 93
       13
 44
0.0
173
     0
291
     1
 45
0.0
  0
VISUALSTYLE
  5
2D
102
{ACAD_REACTORS
330
2A
102
}
102
{ACAD_XDICTIONARY
360
36F
102
}
330
2A
100
AcDbVisualStyle
  2
Gouraud
 70
     2
 71
     2
 72
     2
 73
     1
 90
        2
 40
0.6
 41
30.0
 62
     5
 63
     7
421
 16777215
 74
     0
 91
        0
 64
     7
 65
   257
 75
     1
175
     1
 42
1.0
 92
        0
 66
     7
 43
1.0
 76
     1
 77
     6
 78
     2
 67
     7
 79
     5
170
     0
171
     0
290
     0
174
     0
 93
       13
 44
0.0
173
     0
291
     1
 45
0.0
  0
VISUALSTYLE
  5
2E
102
{ACAD_REACTORS
330
2A
102
}
102
{ACAD_XDICTIONARY
360
371
102
}
330
2A
100
AcDbVisualStyle
  2
GouraudWithEdges
 70
     3
 71
     2
 72
     2
 73
     1
 90
        2
 40
0.6
 41
30.0
 62
     5
 63
     7
421
 16777215
 74
     1
 91
        0
 64
     7
 65
   257
 75
     1
175
     1
 42
1.0
 92
        0
 66
   257
 43
1.0
 76
     1
 77
     6
 78
     2
 67
     7
 79
     5
170
     0
171
     0
290
     0
174
     0
 93
       13
 44
0.0
173
     0
291
     1
 45
0.0
  0
VISUALSTYLE
  5
31
102
{ACAD_REACTORS
330
2A
102
}
102
{ACAD_XDICTIONARY
360
377
102
}
330
2A
100
AcDbVisualStyle
  2
Hidden
 70
     6
 71
     1
 72
     2
 73
     2
 90
        0
 40
0.6
 41
30.0
 62
     5
 63
     7
421
 16777215
 74
     2
 91
        2
 64
     7
 65
   257
 75
     2
175
     1
 42
40.0
 92
        0
 66
   257
 43
1.0
 76
     1
 77
     6
 78
     2
 67
     7
 79
     3
170
     0
171
     0
290
     0
174
     0
 93
        1
 44
0.0
173
     0
291
     0
 45
0.0
  0
VISUALSTYLE
  5
3B
102
{ACAD_REACTORS
330
2A
102
}
102
{ACAD_XDICTIONARY
360
38B
102
}
330
2A
100
AcDbVisualStyle
  2
JitterOff
 70
    20
 71
     2
 72
     2
 73
     0
 90
        0
 40
0.6
 41
30.0
 62
     5
 63
     7
421
 16777215
 74
     1
 91
        4
 64
     7
 65
   257
 75
     1
175
     1
 42
1.0
 92
       10
 66
     7
 43
1.0
 76
     1
 77
     6
 78
     2
 67
     7
 79
     5
170
     0
171
     0
290
     0
174
     0
 93
        1
 44
0.0
173
     0
291
     1
 45
0.0
  0
VISUALSTYLE
  5
38
102
{ACAD_REACTORS
330
2A
102
}
102
{ACAD_XDICTIONARY
360
385
102
}
330
2A
100
AcDbVisualStyle
  2
Linepattern
 70
    14
 71
     2
 72
     2
 73
     0
 90
        0
 40
0.6
 41
30.0
 62
     5
 63
     7
421
 16777215
 74
     1
 91
        4
 64
     7
 65
   257
 75
     7
175
     7
 42
1.0
 92
        8
 66
     7
 43
1.0
 76
     1
 77
     6
 78
     2
 67
     7
 79
     5
170
     0
171
     0
290
     0
174
     0
 93
        1
 44
0.0
173
     0
291
     1
 45
0.0
  0
VISUALSTYLE
  5
3C
102
{ACAD_REACTORS
330
2A
102
}
102
{ACAD_XDICTIONARY
360
38D
102
}
330
2A
100
AcDbVisualStyle
  2
OverhangOff
 70
    21
 71
     2
 72
     2
 73
     0
 90
        0
 40
0.6
 41
30.0
 62
     5
 63
     7
421
 16777215
 74
     1
 91
        4
 64
     7
 65
   257
 75
     1
175
     1
 42
1.0
 92
        9
 66
     7
 43
1.0
 76
     1
 77
     6
 78
     2
 67
     7
 79
     5
170
     0
171
     0
290
     0
174
     0
 93
        1
 44
0.0
173
     0
291
     1
 45
0.0
  0
VISUALSTYLE
  5
33
102
{ACAD_REACTORS
330
2A
102
}
102
{ACAD_XDICTIONARY
360
37B
102
}
330
2A
100
AcDbVisualStyle
  2
Realistic
 70
     8
 71
     2
 72
     3
 73
     0
 90
        2
 40
0.6
 41
30.0
 62
     5
 63
     7
421
 16777215
 74
     0
 91
        0
 64
     7
 65
   257
 75
     1
175
     1
 42
1.0
 92
        8
 66
   257
 43
1.0
 76
     1
 77
     6
 78
     2
 67
     7
 79
     3
170
     0
171
     0
290
     0
174
     0
 93
       13
 44
0.0
173
     0
291
     0
 45
0.0
  0
VISUALSTYLE
  5
42
102
{ACAD_REACTORS
330
2A
102
}
102
{ACAD_XDICTIONARY
360
399
102
}
330
2A
100
AcDbVisualStyle
  2
Shaded
 70
    27
 71
     2
 72
     2
 73
     1
 90
        2
 40
0.6
 41
30.0
 62
     5
 63
     7
421
 16777215
 74
     0
 91
        4
 64
     7
 65
   257
 75
     1
175
     1
 42
1.0
 92
        8
 66
   257
 43
1.0
 76
     1
 77
     6
 78
     2
 67
     8
425
  7895160
 79
     3
170
     0
171
     0
290
     0
174
     0
 93
        5
 44
0.0
173
     0
291
     0
 45
0.0
  0
VISUALSTYLE
  5
41
102
{ACAD_REACTORS
330
2A
102
}
102
{ACAD_XDICTIONARY
360
397
102
}
330
2A
100
AcDbVisualStyle
  2
Shaded with edges
 70
    26
 71
     2
 72
     2
 73
     1
 90
        2
 40
0.6
 41
30.0
 62
     5
 63
     7
421
 16777215
 74
     1
 91
       10
 64
     7
 65
   257
 75
     2
175
     1
 42
1.0
 92
        8
 66
   257
 43
1.0
 76
     1
 77
     6
 78
     2
 67
     7
 79
     3
170
     0
171
     0
290
     0
174
     0
 93
        5
 44
0.0
173
     0
291
     0
 45
0.0
  0
VISUALSTYLE
  5
3E
102
{ACAD_REACTORS
330
2A
102
}
102
{ACAD_XDICTIONARY
360
391
102
}
330
2A
100
AcDbVisualStyle
  2
Shades of Gray
 70
    23
 71
     2
 72
     2
 73
     3
 90
        0
 40
0.6
 41
30.0
 62
     5
 63
     7
421
 16777215
 74
     2
 91
        2
 64
     7
 65
     7
 75
     1
175
     1
 42
40.0
 92
        8
 66
     7
 43
1.0
 76
     1
 77
     6
 78
     2
 67
     7
 79
     3
170
     0
171
     0
290
     0
174
     0
 93
        1
 44
0.0
173
     0
291
     0
 45
0.0
  0
VISUALSTYLE
  5
3F
102
{ACAD_REACTORS
330
2A
102
}
102
{ACAD_XDICTIONARY
360
393
102
}
330
2A
100
AcDbVisualStyle
  2
Sketchy
 70
    24
 71
     1
 72
     2
 73
     2
 90
        0
 40
0.6
 41
30.0
 62
     5
 63
     7
421
 16777215
 74
     2
 91
        2
 64
     7
 65
     7
 75
     1
175
     1
 42
40.0
 92
       11
 66
     7
 43
1.0
 76
     1
 77
     6
 78
     2
 67
     7
 79
     6
170
     0
171
     0
290
     0
174
     0
 93
        1
 44
0.0
173
     0
291
     0
 45
0.0
  0
VISUALSTYLE
  5
37
102
{ACAD_REACTORS
330
2A
102
}
102
{ACAD_XDICTIONARY
360
383
102
}
330
2A
100
AcDbVisualStyle
  2
Thicken
 70
    13
 71
     2
 72
     2
 73
     0
 90
        0
 40
0.6
 41
30.0
 62
     5
 63
     7
421
 16777215
 74
     1
 91
        4
 64
     7
 65
   257
 75
     1
175
     1
 42
1.0
 92
       12
 66
     7
 43
1.0
 76
     1
 77
     6
 78
     2
 67
     7
 79
     5
170
     0
171
     0
290
     0
174
     0
 93
        1
 44
0.0
173
     0
291
     1
 45
0.0
  0
VISUALSTYLE
  5
30
102
{ACAD_REACTORS
330
2A
102
}
102
{ACAD_XDICTIONARY
360
375
102
}
330
2A
100
AcDbVisualStyle
  2
Wireframe
 70
     5
 71
     0
 72
     2
 73
     0
 90
        0
 40
0.6
 41
30.0
 62
     5
 63
     7
421
 16777215
 74
     1
 91
        4
 64
     7
 65
   257
 75
     1
175
     1
 42
1.0
 92
        0
 66
   257
 43
1.0
 76
     1
 77
     6
 78
     2
 67
     7
 79
     3
170
     0
171
     0
290
     0
174
     0
 93
        1
 44
0.0
173
     0
291
     0
 45
0.0
  0
VISUALSTYLE
  5
40
102
{ACAD_REACTORS
330
2A
102
}
102
{ACAD_XDICTIONARY
360
395
102
}
330
2A
100
AcDbVisualStyle
  2
X-Ray
 70
    25
 71
     2
 72
     2
 73
     1
 90
        1
 40
0.5
 41
30.0
 62
     5
 63
     7
421
 16777215
 74
     1
 91
        0
 64
     7
 65
   257
 75
     1
175
     1
 42
1.0
 92
        8
 66
     7
 43
1.0
 76
     1
 77
     6
 78
     2
 67
     7
 79
     3
170
     0
171
     0
290
     0
174
     0
 93
       13
 44
0.0
173
     0
291
     0
 45
0.0
  0
DICTIONARYVAR
  5
369
102
{ACAD_REACTORS
330
368
102
}
330
368
100
DictionaryVariables
280
     0
  1
1:1
  0
DICTIONARYVAR
  5
3A2
102
{ACAD_REACTORS
330
368
102
}
330
368
100
DictionaryVariables
280
     0
  1
Standard
  0
DICTIONARYVAR
  5
3A1
102
{ACAD_REACTORS
330
368
102
}
330
368
100
DictionaryVariables
280
     0
  1
Standard
  0
DICTIONARYVAR
  5
36A
102
{ACAD_REACTORS
330
368
102
}
330
368
100
DictionaryVariables
280
     0
  1
2
  0
DICTIONARY
  5
39E
330
6C
100
AcDbDictionary
280
     1
281
     1
  3
ACAD_XREC_ROUNDTRIP
360
39F
  0
DICTIONARY
  5
39B
330
6A
100
AcDbDictionary
280
     1
281
     1
  3
ACAD_ROUNDTRIP_2008_TABLESTYLE_CELLSTYLEMAP
360
39C
  0
DICTIONARY
  5
373
330
2F
100
AcDbDictionary
280
     1
281
     1
  3
ACAD_XREC_ROUNDTRIP
360
374
  0
DICTIONARY
  5
379
330
32
100
AcDbDictionary
280
     1
281
     1
  3
ACAD_XREC_ROUNDTRIP
360
37A
  0
DICTIONARY
  5
381
330
36
100
AcDbDictionary
280
     1
281
     1
  3
ACAD_XREC_ROUNDTRIP
360
382
  0
DICTIONARY
  5
389
330
3A
100
AcDbDictionary
280
     1
281
     1
  3
ACAD_XREC_ROUNDTRIP
360
38A
  0
DICTIONARY
  5
37D
330
34
100
AcDbDictionary
280
     1
281
     1
  3
ACAD_XREC_ROUNDTRIP
360
37E
  0
DICTIONARY
  5
37F
330
35
100
AcDbDictionary
280
     1
281
     1
  3
ACAD_XREC_ROUNDTRIP
360
380
  0
DICTIONARY
  5
38F
330
3D
100
AcDbDictionary
280
     1
281
     1
  3
ACAD_XREC_ROUNDTRIP
360
390
  0
DICTIONARY
  5
387
330
39
100
AcDbDictionary
280
     1
281
     1
  3
ACAD_XREC_ROUNDTRIP
360
388
  0
DICTIONARY
  5
36B
330
2B
100
AcDbDictionary
280
     1
281
     1
  3
ACAD_XREC_ROUNDTRIP
360
36C
  0
DICTIONARY
  5
36D
330
2C
100
AcDbDictionary
280
     1
281
     1
  3
ACAD_XREC_ROUNDTRIP
360
36E
  0
DICTIONARY
  5
36F
330
2D
100
AcDbDictionary
280
     1
281
     1
  3
ACAD_XREC_ROUNDTRIP
360
370
  0
DICTIONARY
  5
371
330
2E
100
AcDbDictionary
280
     1
281
     1
  3
ACAD_XREC_ROUNDTRIP
360
372
  0
DICTIONARY
  5
377
330
31
100
AcDbDictionary
280
     1
281
     1
  3
ACAD_XREC_ROUNDTRIP
360
378
  0
DICTIONARY
  5
38B
330
3B
100
AcDbDictionary
280
     1
281
     1
  3
ACAD_XREC_ROUNDTRIP
360
38C
  0
DICTIONARY
  5
385
330
38
100
AcDbDictionary
280
     1
281
     1
  3
ACAD_XREC_ROUNDTRIP
360
386
  0
DICTIONARY
  5
38D
330
3C
100
AcDbDictionary
280
     1
281
     1
  3
ACAD_XREC_ROUNDTRIP
360
38E
  0
DICTIONARY
  5
37B
330
33
100
AcDbDictionary
280
     1
281
     1
  3
ACAD_XREC_ROUNDTRIP
360
37C
  0
DICTIONARY
  5
399
330
42
100
AcDbDictionary
280
     1
281
     1
  3
ACAD_XREC_ROUNDTRIP
360
39A
  0
DICTIONARY
  5
397
330
41
100
AcDbDictionary
280
     1
281
     1
  3
ACAD_XREC_ROUNDTRIP
360
398
  0
DICTIONARY
  5
391
330
3E
100
AcDbDictionary
280
     1
281
     1
  3
ACAD_XREC_ROUNDTRIP
360
392
  0
DICTIONARY
  5
393
330
3F
100
AcDbDictionary
280
     1
281
     1
  3
ACAD_XREC_ROUNDTRIP
360
394
  0
DICTIONARY
  5
383
330
37
100
AcDbDictionary
280
     1
281
     1
  3
ACAD_XREC_ROUNDTRIP
360
384
  0
DICTIONARY
  5
375
330
30
100
AcDbDictionary
280
     1
281
     1
  3
ACAD_XREC_ROUNDTRIP
360
376
  0
DICTIONARY
  5
395
330
40
100
AcDbDictionary
280
     1
281
     1
  3
ACAD_XREC_ROUNDTRIP
360
396
  0
XRECORD
  5
39F
102
{ACAD_REACTORS
330
39E
102
}
330
39E
100
AcDbXrecord
280
     1
102
ACAD_ROUNDTRIP_2010_MLEADER_STYLE
  0
CELLSTYLEMAP
  5
39C
102
{ACAD_REACTORS
330
39B
102
}
330
39B
100
AcDbCellStyleMap
 90
        3
300
CELLSTYLE
  1
TABLEFORMAT_BEGIN
 90
        5
170
     1
 91
        0
 92
    32768
 62
   257
 93
        1
300
CONTENTFORMAT
  1
CONTENTFORMAT_BEGIN
 90
        0
 91
        0
 92
        4
 93
        0
300

 40
0.0
140
1.0
 94
        5
 62
     0
340
11
144
0.25
309
CONTENTFORMAT_END
171
     1
301
MARGIN
  1
CELLMARGIN_BEGIN
 40
0.06
 40
0.06
 40
0.06
 40
0.06
 40
0.06
 40
0.06
309
CELLMARGIN_END
 94
        6
 95
        1
302
GRIDFORMAT
  1
GRIDFORMAT_BEGIN
 90
        0
 91
        1
 62
     0
 92
       -2
340
14
 93
        0
 40
0.045
309
GRIDFORMAT_END
 95
        2
302
GRIDFORMAT
  1
GRIDFORMAT_BEGIN
 90
        0
 91
        1
 62
     0
 92
       -2
340
14
 93
        0
 40
0.045
309
GRIDFORMAT_END
 95
        4
302
GRIDFORMAT
  1
GRIDFORMAT_BEGIN
 90
        0
 91
        1
 62
     0
 92
       -2
340
14
 93
        0
 40
0.045
309
GRIDFORMAT_END
 95
        8
302
GRIDFORMAT
  1
GRIDFORMAT_BEGIN
 90
        0
 91
        1
 62
     0
 92
       -2
340
14
 93
        0
 40
0.045
309
GRIDFORMAT_END
 95
       16
302
GRIDFORMAT
  1
GRIDFORMAT_BEGIN
 90
        0
 91
        1
 62
     0
 92
       -2
340
14
 93
        0
 40
0.045
309
GRIDFORMAT_END
 95
       32
302
GRIDFORMAT
  1
GRIDFORMAT_BEGIN
 90
        0
 91
        1
 62
     0
 92
       -2
340
14
 93
        0
 40
0.045
309
GRIDFORMAT_END
309
TABLEFORMAT_END
  1
CELLSTYLE_BEGIN
 90
        1
 91
        1
300
_TITLE
309
CELLSTYLE_END
300
CELLSTYLE
  1
TABLEFORMAT_BEGIN
 90
        5
170
     1
 91
        0
 92
        0
 62
   257
 93
        1
300
CONTENTFORMAT
  1
CONTENTFORMAT_BEGIN
 90
        0
 91
        0
 92
        4
 93
        0
300

 40
0.0
140
1.0
 94
        5
 62
     0
340
11
144
0.18
309
CONTENTFORMAT_END
171
     1
301
MARGIN
  1
CELLMARGIN_BEGIN
 40
0.06
 40
0.06
 40
0.06
 40
0.06
 40
0.06
 40
0.06
309
CELLMARGIN_END
 94
        6
 95
        1
302
GRIDFORMAT
  1
GRIDFORMAT_BEGIN
 90
        0
 91
        1
 62
     0
 92
       -2
340
14
 93
        0
 40
0.045
309
GRIDFORMAT_END
 95
        2
302
GRIDFORMAT
  1
GRIDFORMAT_BEGIN
 90
        0
 91
        1
 62
     0
 92
       -2
340
14
 93
        0
 40
0.045
309
GRIDFORMAT_END
 95
        4
302
GRIDFORMAT
  1
GRIDFORMAT_BEGIN
 90
        0
 91
        1
 62
     0
 92
       -2
340
14
 93
        0
 40
0.045
309
GRIDFORMAT_END
 95
        8
302
GRIDFORMAT
  1
GRIDFORMAT_BEGIN
 90
        0
 91
        1
 62
     0
 92
       -2
340
14
 93
        0
 40
0.045
309
GRIDFORMAT_END
 95
       16
302
GRIDFORMAT
  1
GRIDFORMAT_BEGIN
 90
        0
 91
        1
 62
     0
 92
       -2
340
14
 93
        0
 40
0.045
309
GRIDFORMAT_END
 95
       32
302
GRIDFORMAT
  1
GRIDFORMAT_BEGIN
 90
        0
 91
        1
 62
     0
 92
       -2
340
14
 93
        0
 40
0.045
309
GRIDFORMAT_END
309
TABLEFORMAT_END
  1
CELLSTYLE_BEGIN
 90
        2
 91
        1
300
_HEADER
309
CELLSTYLE_END
300
CELLSTYLE
  1
TABLEFORMAT_BEGIN
 90
        5
170
     1
 91
        0
 92
        0
 62
   257
 93
        1
300
CONTENTFORMAT
  1
CONTENTFORMAT_BEGIN
 90
        0
 91
        0
 92
        4
 93
        0
300

 40
0.0
140
1.0
 94
        2
 62
     0
340
11
144
0.18
309
CONTENTFORMAT_END
171
     1
301
MARGIN
  1
CELLMARGIN_BEGIN
 40
0.06
 40
0.06
 40
0.06
 40
0.06
 40
0.06
 40
0.06
309
CELLMARGIN_END
 94
        6
 95
        1
302
GRIDFORMAT
  1
GRIDFORMAT_BEGIN
 90
        0
 91
        1
 62
     0
 92
       -2
340
14
 93
        0
 40
0.045
309
GRIDFORMAT_END
 95
        2
302
GRIDFORMAT
  1
GRIDFORMAT_BEGIN
 90
        0
 91
        1
 62
     0
 92
       -2
340
14
 93
        0
 40
0.045
309
GRIDFORMAT_END
 95
        4
302
GRIDFORMAT
  1
GRIDFORMAT_BEGIN
 90
        0
 91
        1
 62
     0
 92
       -2
340
14
 93
        0
 40
0.045
309
GRIDFORMAT_END
 95
        8
302
GRIDFORMAT
  1
GRIDFORMAT_BEGIN
 90
        0
 91
        1
 62
     0
 92
       -2
340
14
 93
        0
 40
0.045
309
GRIDFORMAT_END
 95
       16
302
GRIDFORMAT
  1
GRIDFORMAT_BEGIN
 90
        0
 91
        1
 62
     0
 92
       -2
340
14
 93
        0
 40
0.045
309
GRIDFORMAT_END
 95
       32
302
GRIDFORMAT
  1
GRIDFORMAT_BEGIN
 90
        0
 91
        1
 62
     0
 92
       -2
340
14
 93
        0
 40
0.045
309
GRIDFORMAT_END
309
TABLEFORMAT_END
  1
CELLSTYLE_BEGIN
 90
        3
 91
        2
300
_DATA
309
CELLSTYLE_END
  0
XRECORD
  5
374
102
{ACAD_REACTORS
330
373
102
}
330
373
100
AcDbXrecord
280
     1
102
RTVSPropertyOp0
 70
     1
102
RTVSPropertyOp1
 70
     1
102
RTVSPropertyOp2
 70
     1
102
RTVSPropertyOp3
 70
     1
102
RTVSPropertyOp4
 70
     1
102
RTVSPropertyOp5
 70
     1
102
RTVSPropertyOp6
 70
     1
102
RTVSPropertyOp7
 70
     1
102
RTVSPropertyOp8
 70
     1
102
RTVSPropertyOp9
 70
     1
102
RTVSPropertyOp10
 70
     1
102
RTVSPropertyOp11
 70
     1
102
RTVSPropertyOp12
 70
     1
102
RTVSPropertyOp13
 70
     1
102
RTVSPropertyOp14
 70
     1
102
RTVSPropertyOp15
 70
     1
102
RTVSPropertyOp16
 70
     1
102
RTVSPropertyOp17
 70
     1
102
RTVSPropertyOp18
 70
     1
102
RTVSPropertyOp19
 70
     1
102
RTVSPropertyOp20
 70
     1
102
RTVSPropertyOp21
 70
     1
102
RTVSPropertyOp22
 70
     1
102
RTVSPropertyOp23
 70
     1
102
RTVSPropertyOp24
 70
     1
102
RTVSPropertyOp25
 70
     1
102
RTVSPropertyOp26
 70
     1
102
RTVSPropertyOp27
 70
     1
102
RTVSPropertyOp28
 70
     1
102
RTVSPropertyOp29
 70
     1
102
RTVSPropertyOp30
 70
     1
102
RTVSPropertyOp31
 70
     1
102
RTVSPropertyOp32
 70
     1
102
RTVSPropertyOp33
 70
     1
102
RTVSPropertyOp34
 70
     1
102
RTVSPropertyOp35
 70
     1
102
RTVSPropertyOp36
 70
     1
102
RTVSPropertyOp37
 70
     1
102
RTVSPropertyOp38
 70
     1
102
RTVSPropertyOp39
 70
     1
102
RTVSPropertyOp40
 70
     1
102
RTVSPropertyOp41
 70
     1
102
RTVSPropertyOp42
 70
     1
102
RTVSPropertyOp43
 70
     1
102
RTVSPropertyOp44
 70
     1
102
RTVSPropertyOp45
 70
     1
102
RTVSPropertyOp46
 70
     1
102
RTVSPropertyOp47
 70
     1
102
RTVSPropertyOp48
 70
     1
102
RTVSPropertyOp49
 70
     1
102
RTVSPropertyOp50
 70
     1
102
RTVSPropertyOp51
 70
     0
102
RTVSPropertyOp52
 70
     0
102
RTVSPropertyOp53
 70
     1
102
RTVSPropertyOp54
 70
     1
102
RTVSPropertyOp55
 70
     1
102
RTVSPropertyOp56
 70
     1
102
RTVSPropertyOp57
 70
     1
102
RTVSPost2010Prop28
280
     1
102
RTVSPost2010PropOp28
 70
     1
102
RTVSPost2010Prop29
280
     1
102
RTVSPost2010PropOp29
 70
     1
102
RTVSPost2010Prop30
280
     0
102
RTVSPost2010PropOp30
 70
     1
102
RTVSPost2010Prop31
280
     0
102
RTVSPost2010PropOp31
 70
     1
102
RTVSPost2010Prop32
280
     0
102
RTVSPost2010PropOp32
 70
     1
102
RTVSPost2010Prop33
280
     0
102
RTVSPost2010PropOp33
 70
     1
102
RTVSPost2010Prop34
280
     0
102
RTVSPost2010PropOp34
 70
     1
102
RTVSPost2010Prop35
280
     0
102
RTVSPost2010PropOp35
 70
     1
102
RTVSPost2010Prop36
280
     0
102
RTVSPost2010PropOp36
 70
     1
102
RTVSPost2010Prop37
 90
       50
102
RTVSPost2010PropOp37
 70
     1
102
RTVSPost2010Prop38
140
0.0
102
RTVSPost2010PropOp38
 70
     1
102
RTVSPost2010Prop39
140
1.0
102
RTVSPost2010PropOp39
 70
     1
102
RTVSPost2010Prop40
 90
        0
102
RTVSPost2010PropOp40
 70
     1
102
RTVSPost2010Prop41ColorIndex
 90
      178
102
RTVSPost2010Prop41ColorRGB
 90
        0
102
RTVSPost2010PropOp41
 70
     1
102
RTVSPost2010Prop42
 90
       50
102
RTVSPost2010PropOp42
 70
     1
102
RTVSPost2010Prop43
 90
        3
102
RTVSPost2010PropOp43
 70
     1
102
RTVSPost2010Prop44ColorIndex
 90
        5
102
RTVSPost2010Prop44ColorRGB
 90
      255
102
RTVSPost2010PropOp44
 70
     1
102
RTVSPost2010Prop45
280
     0
102
RTVSPost2010PropOp45
 70
     1
102
RTVSPost2010Prop46
 90
       50
102
RTVSPost2010PropOp46
 70
     1
102
RTVSPost2010Prop47
 90
       50
102
RTVSPost2010PropOp47
 70
     1
102
RTVSPost2010Prop48
 90
       50
102
RTVSPost2010PropOp48
 70
     1
102
RTVSPost2010Prop49
280
     0
102
RTVSPost2010PropOp49
 70
     1
102
RTVSPost2010Prop50
 90
       50
102
RTVSPost2010PropOp50
 70
     1
102
RTVSPost2010Prop51ColorIndex
 90
      256
102
RTVSPost2010Prop51ColorRGB
 90
-16777216
102
RTVSPost2010PropOp51
 70
     0
102
RTVSPost2010Prop52
140
1.0
102
RTVSPost2010PropOp52
 70
     0
102
RTVSPost2010Prop53
 90
        2
102
RTVSPost2010PropOp53
 70
     1
102
RTVSPost2010Prop54
  1
strokes_ogs.tif
102
RTVSPost2010PropOp54
 70
     1
102
RTVSPost2010Prop55
280
     0
102
RTVSPost2010PropOp55
 70
     1
102
RTVSPost2010Prop56
140
1.0
102
RTVSPost2010PropOp56
 70
     1
102
RTVSPost2010Prop57
140
1.0
102
RTVSPost2010PropOp57
 70
     1
  0
XRECORD
  5
37A
102
{ACAD_REACTORS
330
379
102
}
330
379
100
AcDbXrecord
280
     1
102
RTVSPropertyOp0
 70
     1
102
RTVSPropertyOp1
 70
     1
102
RTVSPropertyOp2
 70
     1
102
RTVSPropertyOp3
 70
     1
102
RTVSPropertyOp4
 70
     1
102
RTVSPropertyOp5
 70
     1
102
RTVSPropertyOp6
 70
     1
102
RTVSPropertyOp7
 70
     1
102
RTVSPropertyOp8
 70
     1
102
RTVSPropertyOp9
 70
     1
102
RTVSPropertyOp10
 70
     1
102
RTVSPropertyOp11
 70
     1
102
RTVSPropertyOp12
 70
     1
102
RTVSPropertyOp13
 70
     1
102
RTVSPropertyOp14
 70
     1
102
RTVSPropertyOp15
 70
     1
102
RTVSPropertyOp16
 70
     1
102
RTVSPropertyOp17
 70
     1
102
RTVSPropertyOp18
 70
     1
102
RTVSPropertyOp19
 70
     1
102
RTVSPropertyOp20
 70
     1
102
RTVSPropertyOp21
 70
     1
102
RTVSPropertyOp22
 70
     1
102
RTVSPropertyOp23
 70
     1
102
RTVSPropertyOp24
 70
     1
102
RTVSPropertyOp25
 70
     1
102
RTVSPropertyOp26
 70
     1
102
RTVSPropertyOp27
 70
     1
102
RTVSPropertyOp28
 70
     1
102
RTVSPropertyOp29
 70
     1
102
RTVSPropertyOp30
 70
     1
102
RTVSPropertyOp31
 70
     1
102
RTVSPropertyOp32
 70
     1
102
RTVSPropertyOp33
 70
     1
102
RTVSPropertyOp34
 70
     1
102
RTVSPropertyOp35
 70
     1
102
RTVSPropertyOp36
 70
     1
102
RTVSPropertyOp37
 70
     1
102
RTVSPropertyOp38
 70
     1
102
RTVSPropertyOp39
 70
     1
102
RTVSPropertyOp40
 70
     1
102
RTVSPropertyOp41
 70
     1
102
RTVSPropertyOp42
 70
     1
102
RTVSPropertyOp43
 70
     1
102
RTVSPropertyOp44
 70
     1
102
RTVSPropertyOp45
 70
     1
102
RTVSPropertyOp46
 70
     1
102
RTVSPropertyOp47
 70
     1
102
RTVSPropertyOp48
 70
     1
102
RTVSPropertyOp49
 70
     1
102
RTVSPropertyOp50
 70
     1
102
RTVSPropertyOp51
 70
     0
102
RTVSPropertyOp52
 70
     0
102
RTVSPropertyOp53
 70
     1
102
RTVSPropertyOp54
 70
     1
102
RTVSPropertyOp55
 70
     1
102
RTVSPropertyOp56
 70
     1
102
RTVSPropertyOp57
 70
     1
102
RTVSPost2010Prop28
280
     0
102
RTVSPost2010PropOp28
 70
     1
102
RTVSPost2010Prop29
280
     1
102
RTVSPost2010PropOp29
 70
     1
102
RTVSPost2010Prop30
280
     1
102
RTVSPost2010PropOp30
 70
     1
102
RTVSPost2010Prop31
280
     0
102
RTVSPost2010PropOp31
 70
     1
102
RTVSPost2010Prop32
280
     0
102
RTVSPost2010PropOp32
 70
     1
102
RTVSPost2010Prop33
280
     0
102
RTVSPost2010PropOp33
 70
     1
102
RTVSPost2010Prop34
280
     0
102
RTVSPost2010PropOp34
 70
     1
102
RTVSPost2010Prop35
280
     0
102
RTVSPost2010PropOp35
 70
     1
102
RTVSPost2010Prop36
280
     0
102
RTVSPost2010PropOp36
 70
     1
102
RTVSPost2010Prop37
 90
       50
102
RTVSPost2010PropOp37
 70
     1
102
RTVSPost2010Prop38
140
0.0
102
RTVSPost2010PropOp38
 70
     1
102
RTVSPost2010Prop39
140
1.0
102
RTVSPost2010PropOp39
 70
     1
102
RTVSPost2010Prop40
 90
        0
102
RTVSPost2010PropOp40
 70
     1
102
RTVSPost2010Prop41ColorIndex
 90
      178
102
RTVSPost2010Prop41ColorRGB
 90
        0
102
RTVSPost2010PropOp41
 70
     1
102
RTVSPost2010Prop42
 90
       50
102
RTVSPost2010PropOp42
 70
     1
102
RTVSPost2010Prop43
 90
        3
102
RTVSPost2010PropOp43
 70
     1
102
RTVSPost2010Prop44ColorIndex
 90
        5
102
RTVSPost2010Prop44ColorRGB
 90
      255
102
RTVSPost2010PropOp44
 70
     1
102
RTVSPost2010Prop45
280
     0
102
RTVSPost2010PropOp45
 70
     1
102
RTVSPost2010Prop46
 90
       50
102
RTVSPost2010PropOp46
 70
     1
102
RTVSPost2010Prop47
 90
       50
102
RTVSPost2010PropOp47
 70
     1
102
RTVSPost2010Prop48
 90
       50
102
RTVSPost2010PropOp48
 70
     1
102
RTVSPost2010Prop49
280
     0
102
RTVSPost2010PropOp49
 70
     1
102
RTVSPost2010Prop50
 90
       50
102
RTVSPost2010PropOp50
 70
     1
102
RTVSPost2010Prop51ColorIndex
 90
      256
102
RTVSPost2010Prop51ColorRGB
 90
-16777216
102
RTVSPost2010PropOp51
 70
     0
102
RTVSPost2010Prop52
140
1.0
102
RTVSPost2010PropOp52
 70
     0
102
RTVSPost2010Prop53
 90
        2
102
RTVSPost2010PropOp53
 70
     1
102
RTVSPost2010Prop54
  1
strokes_ogs.tif
102
RTVSPost2010PropOp54
 70
     1
102
RTVSPost2010Prop55
280
     0
102
RTVSPost2010PropOp55
 70
     1
102
RTVSPost2010Prop56
140
1.0
102
RTVSPost2010PropOp56
 70
     1
102
RTVSPost2010Prop57
140
1.0
102
RTVSPost2010PropOp57
 70
     1
  0
XRECORD
  5
382
102
{ACAD_REACTORS
330
381
102
}
330
381
100
AcDbXrecord
280
     1
102
RTVSPropertyOp0
 70
     1
102
RTVSPropertyOp1
 70
     1
102
RTVSPropertyOp2
 70
     1
102
RTVSPropertyOp3
 70
     1
102
RTVSPropertyOp4
 70
     1
102
RTVSPropertyOp5
 70
     1
102
RTVSPropertyOp6
 70
     1
102
RTVSPropertyOp7
 70
     1
102
RTVSPropertyOp8
 70
     1
102
RTVSPropertyOp9
 70
     1
102
RTVSPropertyOp10
 70
     1
102
RTVSPropertyOp11
 70
     1
102
RTVSPropertyOp12
 70
     1
102
RTVSPropertyOp13
 70
     1
102
RTVSPropertyOp14
 70
     1
102
RTVSPropertyOp15
 70
     1
102
RTVSPropertyOp16
 70
     1
102
RTVSPropertyOp17
 70
     1
102
RTVSPropertyOp18
 70
     1
102
RTVSPropertyOp19
 70
     1
102
RTVSPropertyOp20
 70
     1
102
RTVSPropertyOp21
 70
     1
102
RTVSPropertyOp22
 70
     1
102
RTVSPropertyOp23
 70
     1
102
RTVSPropertyOp24
 70
     1
102
RTVSPropertyOp25
 70
     1
102
RTVSPropertyOp26
 70
     1
102
RTVSPropertyOp27
 70
     1
102
RTVSPropertyOp28
 70
     1
102
RTVSPropertyOp29
 70
     1
102
RTVSPropertyOp30
 70
     1
102
RTVSPropertyOp31
 70
     1
102
RTVSPropertyOp32
 70
     1
102
RTVSPropertyOp33
 70
     1
102
RTVSPropertyOp34
 70
     1
102
RTVSPropertyOp35
 70
     1
102
RTVSPropertyOp36
 70
     1
102
RTVSPropertyOp37
 70
     1
102
RTVSPropertyOp38
 70
     1
102
RTVSPropertyOp39
 70
     1
102
RTVSPropertyOp40
 70
     1
102
RTVSPropertyOp41
 70
     1
102
RTVSPropertyOp42
 70
     1
102
RTVSPropertyOp43
 70
     1
102
RTVSPropertyOp44
 70
     1
102
RTVSPropertyOp45
 70
     1
102
RTVSPropertyOp46
 70
     1
102
RTVSPropertyOp47
 70
     1
102
RTVSPropertyOp48
 70
     1
102
RTVSPropertyOp49
 70
     1
102
RTVSPropertyOp50
 70
     1
102
RTVSPropertyOp51
 70
     0
102
RTVSPropertyOp52
 70
     0
102
RTVSPropertyOp53
 70
     1
102
RTVSPropertyOp54
 70
     1
102
RTVSPropertyOp55
 70
     1
102
RTVSPropertyOp56
 70
     1
102
RTVSPropertyOp57
 70
     1
102
RTVSPost2010Prop28
280
     0
102
RTVSPost2010PropOp28
 70
     1
102
RTVSPost2010Prop29
280
     1
102
RTVSPost2010PropOp29
 70
     1
102
RTVSPost2010Prop30
280
     1
102
RTVSPost2010PropOp30
 70
     1
102
RTVSPost2010Prop31
280
     0
102
RTVSPost2010PropOp31
 70
     1
102
RTVSPost2010Prop32
280
     0
102
RTVSPost2010PropOp32
 70
     1
102
RTVSPost2010Prop33
280
     0
102
RTVSPost2010PropOp33
 70
     1
102
RTVSPost2010Prop34
280
     0
102
RTVSPost2010PropOp34
 70
     1
102
RTVSPost2010Prop35
280
     0
102
RTVSPost2010PropOp35
 70
     1
102
RTVSPost2010Prop36
280
     0
102
RTVSPost2010PropOp36
 70
     1
102
RTVSPost2010Prop37
 90
       50
102
RTVSPost2010PropOp37
 70
     1
102
RTVSPost2010Prop38
140
0.0
102
RTVSPost2010PropOp38
 70
     1
102
RTVSPost2010Prop39
140
1.0
102
RTVSPost2010PropOp39
 70
     1
102
RTVSPost2010Prop40
 90
        0
102
RTVSPost2010PropOp40
 70
     1
102
RTVSPost2010Prop41ColorIndex
 90
      178
102
RTVSPost2010Prop41ColorRGB
 90
        0
102
RTVSPost2010PropOp41
 70
     1
102
RTVSPost2010Prop42
 90
       50
102
RTVSPost2010PropOp42
 70
     1
102
RTVSPost2010Prop43
 90
        3
102
RTVSPost2010PropOp43
 70
     1
102
RTVSPost2010Prop44ColorIndex
 90
        5
102
RTVSPost2010Prop44ColorRGB
 90
      255
102
RTVSPost2010PropOp44
 70
     1
102
RTVSPost2010Prop45
280
     0
102
RTVSPost2010PropOp45
 70
     1
102
RTVSPost2010Prop46
 90
       50
102
RTVSPost2010PropOp46
 70
     1
102
RTVSPost2010Prop47
 90
       50
102
RTVSPost2010PropOp47
 70
     1
102
RTVSPost2010Prop48
 90
       50
102
RTVSPost2010PropOp48
 70
     1
102
RTVSPost2010Prop49
280
     0
102
RTVSPost2010PropOp49
 70
     1
102
RTVSPost2010Prop50
 90
       50
102
RTVSPost2010PropOp50
 70
     1
102
RTVSPost2010Prop51ColorIndex
 90
      256
102
RTVSPost2010Prop51ColorRGB
 90
-16777216
102
RTVSPost2010PropOp51
 70
     0
102
RTVSPost2010Prop52
140
1.0
102
RTVSPost2010PropOp52
 70
     0
102
RTVSPost2010Prop53
 90
        2
102
RTVSPost2010PropOp53
 70
     1
102
RTVSPost2010Prop54
  1
strokes_ogs.tif
102
RTVSPost2010PropOp54
 70
     1
102
RTVSPost2010Prop55
280
     0
102
RTVSPost2010PropOp55
 70
     1
102
RTVSPost2010Prop56
140
1.0
102
RTVSPost2010PropOp56
 70
     1
102
RTVSPost2010Prop57
140
1.0
102
RTVSPost2010PropOp57
 70
     1
  0
XRECORD
  5
38A
102
{ACAD_REACTORS
330
389
102
}
330
389
100
AcDbXrecord
280
     1
102
RTVSPropertyOp0
 70
     1
102
RTVSPropertyOp1
 70
     1
102
RTVSPropertyOp2
 70
     1
102
RTVSPropertyOp3
 70
     1
102
RTVSPropertyOp4
 70
     1
102
RTVSPropertyOp5
 70
     1
102
RTVSPropertyOp6
 70
     1
102
RTVSPropertyOp7
 70
     1
102
RTVSPropertyOp8
 70
     1
102
RTVSPropertyOp9
 70
     1
102
RTVSPropertyOp10
 70
     1
102
RTVSPropertyOp11
 70
     1
102
RTVSPropertyOp12
 70
     1
102
RTVSPropertyOp13
 70
     1
102
RTVSPropertyOp14
 70
     1
102
RTVSPropertyOp15
 70
     1
102
RTVSPropertyOp16
 70
     1
102
RTVSPropertyOp17
 70
     1
102
RTVSPropertyOp18
 70
     1
102
RTVSPropertyOp19
 70
     1
102
RTVSPropertyOp20
 70
     1
102
RTVSPropertyOp21
 70
     1
102
RTVSPropertyOp22
 70
     1
102
RTVSPropertyOp23
 70
     1
102
RTVSPropertyOp24
 70
     1
102
RTVSPropertyOp25
 70
     1
102
RTVSPropertyOp26
 70
     1
102
RTVSPropertyOp27
 70
     1
102
RTVSPropertyOp28
 70
     1
102
RTVSPropertyOp29
 70
     1
102
RTVSPropertyOp30
 70
     1
102
RTVSPropertyOp31
 70
     1
102
RTVSPropertyOp32
 70
     1
102
RTVSPropertyOp33
 70
     1
102
RTVSPropertyOp34
 70
     1
102
RTVSPropertyOp35
 70
     1
102
RTVSPropertyOp36
 70
     1
102
RTVSPropertyOp37
 70
     1
102
RTVSPropertyOp38
 70
     1
102
RTVSPropertyOp39
 70
     1
102
RTVSPropertyOp40
 70
     1
102
RTVSPropertyOp41
 70
     1
102
RTVSPropertyOp42
 70
     1
102
RTVSPropertyOp43
 70
     1
102
RTVSPropertyOp44
 70
     1
102
RTVSPropertyOp45
 70
     1
102
RTVSPropertyOp46
 70
     1
102
RTVSPropertyOp47
 70
     1
102
RTVSPropertyOp48
 70
     1
102
RTVSPropertyOp49
 70
     1
102
RTVSPropertyOp50
 70
     1
102
RTVSPropertyOp51
 70
     0
102
RTVSPropertyOp52
 70
     0
102
RTVSPropertyOp53
 70
     1
102
RTVSPropertyOp54
 70
     1
102
RTVSPropertyOp55
 70
     1
102
RTVSPropertyOp56
 70
     1
102
RTVSPropertyOp57
 70
     1
102
RTVSPost2010Prop28
280
     0
102
RTVSPost2010PropOp28
 70
     1
102
RTVSPost2010Prop29
280
     1
102
RTVSPost2010PropOp29
 70
     1
102
RTVSPost2010Prop30
280
     1
102
RTVSPost2010PropOp30
 70
     1
102
RTVSPost2010Prop31
280
     0
102
RTVSPost2010PropOp31
 70
     1
102
RTVSPost2010Prop32
280
     0
102
RTVSPost2010PropOp32
 70
     1
102
RTVSPost2010Prop33
280
     0
102
RTVSPost2010PropOp33
 70
     1
102
RTVSPost2010Prop34
280
     0
102
RTVSPost2010PropOp34
 70
     1
102
RTVSPost2010Prop35
280
     0
102
RTVSPost2010PropOp35
 70
     1
102
RTVSPost2010Prop36
280
     0
102
RTVSPost2010PropOp36
 70
     1
102
RTVSPost2010Prop37
 90
       50
102
RTVSPost2010PropOp37
 70
     1
102
RTVSPost2010Prop38
140
0.0
102
RTVSPost2010PropOp38
 70
     1
102
RTVSPost2010Prop39
140
1.0
102
RTVSPost2010PropOp39
 70
     1
102
RTVSPost2010Prop40
 90
        0
102
RTVSPost2010PropOp40
 70
     1
102
RTVSPost2010Prop41ColorIndex
 90
      178
102
RTVSPost2010Prop41ColorRGB
 90
        0
102
RTVSPost2010PropOp41
 70
     1
102
RTVSPost2010Prop42
 90
       50
102
RTVSPost2010PropOp42
 70
     1
102
RTVSPost2010Prop43
 90
        3
102
RTVSPost2010PropOp43
 70
     1
102
RTVSPost2010Prop44ColorIndex
 90
        5
102
RTVSPost2010Prop44ColorRGB
 90
      255
102
RTVSPost2010PropOp44
 70
     1
102
RTVSPost2010Prop45
280
     0
102
RTVSPost2010PropOp45
 70
     1
102
RTVSPost2010Prop46
 90
       50
102
RTVSPost2010PropOp46
 70
     1
102
RTVSPost2010Prop47
 90
       50
102
RTVSPost2010PropOp47
 70
     1
102
RTVSPost2010Prop48
 90
       50
102
RTVSPost2010PropOp48
 70
     1
102
RTVSPost2010Prop49
280
     0
102
RTVSPost2010PropOp49
 70
     1
102
RTVSPost2010Prop50
 90
       50
102
RTVSPost2010PropOp50
 70
     1
102
RTVSPost2010Prop51ColorIndex
 90
      256
102
RTVSPost2010Prop51ColorRGB
 90
-16777216
102
RTVSPost2010PropOp51
 70
     0
102
RTVSPost2010Prop52
140
1.0
102
RTVSPost2010PropOp52
 70
     0
102
RTVSPost2010Prop53
 90
        2
102
RTVSPost2010PropOp53
 70
     1
102
RTVSPost2010Prop54
  1
strokes_ogs.tif
102
RTVSPost2010PropOp54
 70
     1
102
RTVSPost2010Prop55
280
     0
102
RTVSPost2010PropOp55
 70
     1
102
RTVSPost2010Prop56
140
1.0
102
RTVSPost2010PropOp56
 70
     1
102
RTVSPost2010Prop57
140
1.0
102
RTVSPost2010PropOp57
 70
     1
  0
XRECORD
  5
37E
102
{ACAD_REACTORS
330
37D
102
}
330
37D
100
AcDbXrecord
280
     1
102
RTVSPropertyOp0
 70
     1
102
RTVSPropertyOp1
 70
     1
102
RTVSPropertyOp2
 70
     1
102
RTVSPropertyOp3
 70
     1
102
RTVSPropertyOp4
 70
     1
102
RTVSPropertyOp5
 70
     1
102
RTVSPropertyOp6
 70
     1
102
RTVSPropertyOp7
 70
     1
102
RTVSPropertyOp8
 70
     1
102
RTVSPropertyOp9
 70
     1
102
RTVSPropertyOp10
 70
     1
102
RTVSPropertyOp11
 70
     1
102
RTVSPropertyOp12
 70
     1
102
RTVSPropertyOp13
 70
     1
102
RTVSPropertyOp14
 70
     1
102
RTVSPropertyOp15
 70
     1
102
RTVSPropertyOp16
 70
     1
102
RTVSPropertyOp17
 70
     1
102
RTVSPropertyOp18
 70
     1
102
RTVSPropertyOp19
 70
     1
102
RTVSPropertyOp20
 70
     1
102
RTVSPropertyOp21
 70
     1
102
RTVSPropertyOp22
 70
     1
102
RTVSPropertyOp23
 70
     1
102
RTVSPropertyOp24
 70
     1
102
RTVSPropertyOp25
 70
     1
102
RTVSPropertyOp26
 70
     1
102
RTVSPropertyOp27
 70
     1
102
RTVSPropertyOp28
 70
     1
102
RTVSPropertyOp29
 70
     1
102
RTVSPropertyOp30
 70
     1
102
RTVSPropertyOp31
 70
     1
102
RTVSPropertyOp32
 70
     1
102
RTVSPropertyOp33
 70
     1
102
RTVSPropertyOp34
 70
     1
102
RTVSPropertyOp35
 70
     1
102
RTVSPropertyOp36
 70
     1
102
RTVSPropertyOp37
 70
     1
102
RTVSPropertyOp38
 70
     1
102
RTVSPropertyOp39
 70
     1
102
RTVSPropertyOp40
 70
     1
102
RTVSPropertyOp41
 70
     1
102
RTVSPropertyOp42
 70
     1
102
RTVSPropertyOp43
 70
     1
102
RTVSPropertyOp44
 70
     1
102
RTVSPropertyOp45
 70
     1
102
RTVSPropertyOp46
 70
     1
102
RTVSPropertyOp47
 70
     1
102
RTVSPropertyOp48
 70
     1
102
RTVSPropertyOp49
 70
     1
102
RTVSPropertyOp50
 70
     1
102
RTVSPropertyOp51
 70
     0
102
RTVSPropertyOp52
 70
     0
102
RTVSPropertyOp53
 70
     1
102
RTVSPropertyOp54
 70
     1
102
RTVSPropertyOp55
 70
     1
102
RTVSPropertyOp56
 70
     1
102
RTVSPropertyOp57
 70
     1
102
RTVSPost2010Prop28
280
     0
102
RTVSPost2010PropOp28
 70
     1
102
RTVSPost2010Prop29
280
     1
102
RTVSPost2010PropOp29
 70
     1
102
RTVSPost2010Prop30
280
     1
102
RTVSPost2010PropOp30
 70
     1
102
RTVSPost2010Prop31
280
     0
102
RTVSPost2010PropOp31
 70
     1
102
RTVSPost2010Prop32
280
     0
102
RTVSPost2010PropOp32
 70
     1
102
RTVSPost2010Prop33
280
     0
102
RTVSPost2010PropOp33
 70
     1
102
RTVSPost2010Prop34
280
     0
102
RTVSPost2010PropOp34
 70
     1
102
RTVSPost2010Prop35
280
     0
102
RTVSPost2010PropOp35
 70
     1
102
RTVSPost2010Prop36
280
     0
102
RTVSPost2010PropOp36
 70
     1
102
RTVSPost2010Prop37
 90
       50
102
RTVSPost2010PropOp37
 70
     1
102
RTVSPost2010Prop38
140
0.0
102
RTVSPost2010PropOp38
 70
     1
102
RTVSPost2010Prop39
140
1.0
102
RTVSPost2010PropOp39
 70
     1
102
RTVSPost2010Prop40
 90
        0
102
RTVSPost2010PropOp40
 70
     1
102
RTVSPost2010Prop41ColorIndex
 90
      178
102
RTVSPost2010Prop41ColorRGB
 90
        0
102
RTVSPost2010PropOp41
 70
     1
102
RTVSPost2010Prop42
 90
       50
102
RTVSPost2010PropOp42
 70
     1
102
RTVSPost2010Prop43
 90
        3
102
RTVSPost2010PropOp43
 70
     1
102
RTVSPost2010Prop44ColorIndex
 90
        5
102
RTVSPost2010Prop44ColorRGB
 90
      255
102
RTVSPost2010PropOp44
 70
     1
102
RTVSPost2010Prop45
280
     0
102
RTVSPost2010PropOp45
 70
     1
102
RTVSPost2010Prop46
 90
       50
102
RTVSPost2010PropOp46
 70
     1
102
RTVSPost2010Prop47
 90
       50
102
RTVSPost2010PropOp47
 70
     1
102
RTVSPost2010Prop48
 90
       50
102
RTVSPost2010PropOp48
 70
     1
102
RTVSPost2010Prop49
280
     0
102
RTVSPost2010PropOp49
 70
     1
102
RTVSPost2010Prop50
 90
       50
102
RTVSPost2010PropOp50
 70
     1
102
RTVSPost2010Prop51ColorIndex
 90
      256
102
RTVSPost2010Prop51ColorRGB
 90
-16777216
102
RTVSPost2010PropOp51
 70
     0
102
RTVSPost2010Prop52
140
1.0
102
RTVSPost2010PropOp52
 70
     0
102
RTVSPost2010Prop53
 90
        2
102
RTVSPost2010PropOp53
 70
     1
102
RTVSPost2010Prop54
  1
strokes_ogs.tif
102
RTVSPost2010PropOp54
 70
     1
102
RTVSPost2010Prop55
280
     0
102
RTVSPost2010PropOp55
 70
     1
102
RTVSPost2010Prop56
140
1.0
102
RTVSPost2010PropOp56
 70
     1
102
RTVSPost2010Prop57
140
1.0
102
RTVSPost2010PropOp57
 70
     1
  0
XRECORD
  5
380
102
{ACAD_REACTORS
330
37F
102
}
330
37F
100
AcDbXrecord
280
     1
102
RTVSPropertyOp0
 70
     1
102
RTVSPropertyOp1
 70
     1
102
RTVSPropertyOp2
 70
     1
102
RTVSPropertyOp3
 70
     1
102
RTVSPropertyOp4
 70
     1
102
RTVSPropertyOp5
 70
     1
102
RTVSPropertyOp6
 70
     1
102
RTVSPropertyOp7
 70
     1
102
RTVSPropertyOp8
 70
     1
102
RTVSPropertyOp9
 70
     1
102
RTVSPropertyOp10
 70
     1
102
RTVSPropertyOp11
 70
     1
102
RTVSPropertyOp12
 70
     1
102
RTVSPropertyOp13
 70
     1
102
RTVSPropertyOp14
 70
     1
102
RTVSPropertyOp15
 70
     1
102
RTVSPropertyOp16
 70
     1
102
RTVSPropertyOp17
 70
     1
102
RTVSPropertyOp18
 70
     1
102
RTVSPropertyOp19
 70
     1
102
RTVSPropertyOp20
 70
     1
102
RTVSPropertyOp21
 70
     1
102
RTVSPropertyOp22
 70
     1
102
RTVSPropertyOp23
 70
     1
102
RTVSPropertyOp24
 70
     1
102
RTVSPropertyOp25
 70
     1
102
RTVSPropertyOp26
 70
     1
102
RTVSPropertyOp27
 70
     1
102
RTVSPropertyOp28
 70
     1
102
RTVSPropertyOp29
 70
     1
102
RTVSPropertyOp30
 70
     1
102
RTVSPropertyOp31
 70
     1
102
RTVSPropertyOp32
 70
     1
102
RTVSPropertyOp33
 70
     1
102
RTVSPropertyOp34
 70
     1
102
RTVSPropertyOp35
 70
     1
102
RTVSPropertyOp36
 70
     1
102
RTVSPropertyOp37
 70
     1
102
RTVSPropertyOp38
 70
     1
102
RTVSPropertyOp39
 70
     1
102
RTVSPropertyOp40
 70
     1
102
RTVSPropertyOp41
 70
     1
102
RTVSPropertyOp42
 70
     1
102
RTVSPropertyOp43
 70
     1
102
RTVSPropertyOp44
 70
     1
102
RTVSPropertyOp45
 70
     1
102
RTVSPropertyOp46
 70
     1
102
RTVSPropertyOp47
 70
     1
102
RTVSPropertyOp48
 70
     1
102
RTVSPropertyOp49
 70
     1
102
RTVSPropertyOp50
 70
     1
102
RTVSPropertyOp51
 70
     0
102
RTVSPropertyOp52
 70
     0
102
RTVSPropertyOp53
 70
     1
102
RTVSPropertyOp54
 70
     1
102
RTVSPropertyOp55
 70
     1
102
RTVSPropertyOp56
 70
     1
102
RTVSPropertyOp57
 70
     1
102
RTVSPost2010Prop28
280
     0
102
RTVSPost2010PropOp28
 70
     1
102
RTVSPost2010Prop29
280
     1
102
RTVSPost2010PropOp29
 70
     1
102
RTVSPost2010Prop30
280
     1
102
RTVSPost2010PropOp30
 70
     1
102
RTVSPost2010Prop31
280
     0
102
RTVSPost2010PropOp31
 70
     1
102
RTVSPost2010Prop32
280
     0
102
RTVSPost2010PropOp32
 70
     1
102
RTVSPost2010Prop33
280
     0
102
RTVSPost2010PropOp33
 70
     1
102
RTVSPost2010Prop34
280
     0
102
RTVSPost2010PropOp34
 70
     1
102
RTVSPost2010Prop35
280
     0
102
RTVSPost2010PropOp35
 70
     1
102
RTVSPost2010Prop36
280
     0
102
RTVSPost2010PropOp36
 70
     1
102
RTVSPost2010Prop37
 90
       50
102
RTVSPost2010PropOp37
 70
     1
102
RTVSPost2010Prop38
140
0.0
102
RTVSPost2010PropOp38
 70
     1
102
RTVSPost2010Prop39
140
1.0
102
RTVSPost2010PropOp39
 70
     1
102
RTVSPost2010Prop40
 90
        0
102
RTVSPost2010PropOp40
 70
     1
102
RTVSPost2010Prop41ColorIndex
 90
      178
102
RTVSPost2010Prop41ColorRGB
 90
        0
102
RTVSPost2010PropOp41
 70
     1
102
RTVSPost2010Prop42
 90
       50
102
RTVSPost2010PropOp42
 70
     1
102
RTVSPost2010Prop43
 90
        3
102
RTVSPost2010PropOp43
 70
     1
102
RTVSPost2010Prop44ColorIndex
 90
        5
102
RTVSPost2010Prop44ColorRGB
 90
      255
102
RTVSPost2010PropOp44
 70
     1
102
RTVSPost2010Prop45
280
     0
102
RTVSPost2010PropOp45
 70
     1
102
RTVSPost2010Prop46
 90
       50
102
RTVSPost2010PropOp46
 70
     1
102
RTVSPost2010Prop47
 90
       50
102
RTVSPost2010PropOp47
 70
     1
102
RTVSPost2010Prop48
 90
       50
102
RTVSPost2010PropOp48
 70
     1
102
RTVSPost2010Prop49
280
     0
102
RTVSPost2010PropOp49
 70
     1
102
RTVSPost2010Prop50
 90
       50
102
RTVSPost2010PropOp50
 70
     1
102
RTVSPost2010Prop51ColorIndex
 90
      256
102
RTVSPost2010Prop51ColorRGB
 90
-16777216
102
RTVSPost2010PropOp51
 70
     0
102
RTVSPost2010Prop52
140
1.0
102
RTVSPost2010PropOp52
 70
     0
102
RTVSPost2010Prop53
 90
        2
102
RTVSPost2010PropOp53
 70
     1
102
RTVSPost2010Prop54
  1
strokes_ogs.tif
102
RTVSPost2010PropOp54
 70
     1
102
RTVSPost2010Prop55
280
     0
102
RTVSPost2010PropOp55
 70
     1
102
RTVSPost2010Prop56
140
1.0
102
RTVSPost2010PropOp56
 70
     1
102
RTVSPost2010Prop57
140
1.0
102
RTVSPost2010PropOp57
 70
     1
  0
XRECORD
  5
390
102
{ACAD_REACTORS
330
38F
102
}
330
38F
100
AcDbXrecord
280
     1
102
RTVSPropertyOp0
 70
     0
102
RTVSPropertyOp1
 70
     0
102
RTVSPropertyOp2
 70
     0
102
RTVSPropertyOp3
 70
     0
102
RTVSPropertyOp4
 70
     0
102
RTVSPropertyOp5
 70
     0
102
RTVSPropertyOp6
 70
     0
102
RTVSPropertyOp7
 70
     0
102
RTVSPropertyOp8
 70
     0
102
RTVSPropertyOp9
 70
     0
102
RTVSPropertyOp10
 70
     0
102
RTVSPropertyOp11
 70
     0
102
RTVSPropertyOp12
 70
     0
102
RTVSPropertyOp13
 70
     0
102
RTVSPropertyOp14
 70
     2
102
RTVSPropertyOp15
 70
     0
102
RTVSPropertyOp16
 70
     0
102
RTVSPropertyOp17
 70
     0
102
RTVSPropertyOp18
 70
     0
102
RTVSPropertyOp19
 70
     0
102
RTVSPropertyOp20
 70
     0
102
RTVSPropertyOp21
 70
     0
102
RTVSPropertyOp22
 70
     0
102
RTVSPropertyOp23
 70
     0
102
RTVSPropertyOp24
 70
     0
102
RTVSPropertyOp25
 70
     0
102
RTVSPropertyOp26
 70
     0
102
RTVSPropertyOp27
 70
     0
102
RTVSPropertyOp28
 70
     0
102
RTVSPropertyOp29
 70
     0
102
RTVSPropertyOp30
 70
     0
102
RTVSPropertyOp31
 70
     0
102
RTVSPropertyOp32
 70
     0
102
RTVSPropertyOp33
 70
     0
102
RTVSPropertyOp34
 70
     0
102
RTVSPropertyOp35
 70
     0
102
RTVSPropertyOp36
 70
     0
102
RTVSPropertyOp37
 70
     0
102
RTVSPropertyOp38
 70
     0
102
RTVSPropertyOp39
 70
     0
102
RTVSPropertyOp40
 70
     0
102
RTVSPropertyOp41
 70
     0
102
RTVSPropertyOp42
 70
     0
102
RTVSPropertyOp43
 70
     0
102
RTVSPropertyOp44
 70
     0
102
RTVSPropertyOp45
 70
     0
102
RTVSPropertyOp46
 70
     0
102
RTVSPropertyOp47
 70
     0
102
RTVSPropertyOp48
 70
     0
102
RTVSPropertyOp49
 70
     0
102
RTVSPropertyOp50
 70
     0
102
RTVSPropertyOp51
 70
     0
102
RTVSPropertyOp52
 70
     0
102
RTVSPropertyOp53
 70
     0
102
RTVSPropertyOp54
 70
     0
102
RTVSPropertyOp55
 70
     0
102
RTVSPropertyOp56
 70
     0
102
RTVSPropertyOp57
 70
     0
102
RTVSPost2010Prop28
280
     0
102
RTVSPost2010PropOp28
 70
     0
102
RTVSPost2010Prop29
280
     1
102
RTVSPost2010PropOp29
 70
     0
102
RTVSPost2010Prop30
280
     1
102
RTVSPost2010PropOp30
 70
     0
102
RTVSPost2010Prop31
280
     0
102
RTVSPost2010PropOp31
 70
     0
102
RTVSPost2010Prop32
280
     0
102
RTVSPost2010PropOp32
 70
     0
102
RTVSPost2010Prop33
280
     0
102
RTVSPost2010PropOp33
 70
     0
102
RTVSPost2010Prop34
280
     0
102
RTVSPost2010PropOp34
 70
     0
102
RTVSPost2010Prop35
280
     0
102
RTVSPost2010PropOp35
 70
     0
102
RTVSPost2010Prop36
280
     0
102
RTVSPost2010PropOp36
 70
     0
102
RTVSPost2010Prop37
 90
       50
102
RTVSPost2010PropOp37
 70
     0
102
RTVSPost2010Prop38
140
0.0
102
RTVSPost2010PropOp38
 70
     0
102
RTVSPost2010Prop39
140
1.0
102
RTVSPost2010PropOp39
 70
     0
102
RTVSPost2010Prop40
 90
        0
102
RTVSPost2010PropOp40
 70
     0
102
RTVSPost2010Prop41ColorIndex
 90
      178
102
RTVSPost2010Prop41ColorRGB
 90
        0
102
RTVSPost2010PropOp41
 70
     0
102
RTVSPost2010Prop42
 90
       50
102
RTVSPost2010PropOp42
 70
     0
102
RTVSPost2010Prop43
 90
        3
102
RTVSPost2010PropOp43
 70
     0
102
RTVSPost2010Prop44ColorIndex
 90
        5
102
RTVSPost2010Prop44ColorRGB
 90
      255
102
RTVSPost2010PropOp44
 70
     0
102
RTVSPost2010Prop45
280
     0
102
RTVSPost2010PropOp45
 70
     0
102
RTVSPost2010Prop46
 90
       50
102
RTVSPost2010PropOp46
 70
     0
102
RTVSPost2010Prop47
 90
       50
102
RTVSPost2010PropOp47
 70
     0
102
RTVSPost2010Prop48
 90
       50
102
RTVSPost2010PropOp48
 70
     0
102
RTVSPost2010Prop49
280
     0
102
RTVSPost2010PropOp49
 70
     0
102
RTVSPost2010Prop50
 90
       50
102
RTVSPost2010PropOp50
 70
     0
102
RTVSPost2010Prop51ColorIndex
 90
      256
102
RTVSPost2010Prop51ColorRGB
 90
-16777216
102
RTVSPost2010PropOp51
 70
     0
102
RTVSPost2010Prop52
140
1.0
102
RTVSPost2010PropOp52
 70
     0
102
RTVSPost2010Prop53
 90
        2
102
RTVSPost2010PropOp53
 70
     0
102
RTVSPost2010Prop54
  1
strokes_ogs.tif
102
RTVSPost2010PropOp54
 70
     0
102
RTVSPost2010Prop55
280
     0
102
RTVSPost2010PropOp55
 70
     0
102
RTVSPost2010Prop56
140
1.0
102
RTVSPost2010PropOp56
 70
     0
102
RTVSPost2010Prop57
140
1.0
102
RTVSPost2010PropOp57
 70
     0
  0
XRECORD
  5
388
102
{ACAD_REACTORS
330
387
102
}
330
387
100
AcDbXrecord
280
     1
102
RTVSPropertyOp0
 70
     1
102
RTVSPropertyOp1
 70
     1
102
RTVSPropertyOp2
 70
     1
102
RTVSPropertyOp3
 70
     1
102
RTVSPropertyOp4
 70
     1
102
RTVSPropertyOp5
 70
     1
102
RTVSPropertyOp6
 70
     1
102
RTVSPropertyOp7
 70
     1
102
RTVSPropertyOp8
 70
     1
102
RTVSPropertyOp9
 70
     1
102
RTVSPropertyOp10
 70
     1
102
RTVSPropertyOp11
 70
     1
102
RTVSPropertyOp12
 70
     1
102
RTVSPropertyOp13
 70
     1
102
RTVSPropertyOp14
 70
     1
102
RTVSPropertyOp15
 70
     1
102
RTVSPropertyOp16
 70
     1
102
RTVSPropertyOp17
 70
     1
102
RTVSPropertyOp18
 70
     1
102
RTVSPropertyOp19
 70
     1
102
RTVSPropertyOp20
 70
     1
102
RTVSPropertyOp21
 70
     1
102
RTVSPropertyOp22
 70
     1
102
RTVSPropertyOp23
 70
     1
102
RTVSPropertyOp24
 70
     1
102
RTVSPropertyOp25
 70
     1
102
RTVSPropertyOp26
 70
     1
102
RTVSPropertyOp27
 70
     1
102
RTVSPropertyOp28
 70
     1
102
RTVSPropertyOp29
 70
     1
102
RTVSPropertyOp30
 70
     1
102
RTVSPropertyOp31
 70
     1
102
RTVSPropertyOp32
 70
     1
102
RTVSPropertyOp33
 70
     1
102
RTVSPropertyOp34
 70
     1
102
RTVSPropertyOp35
 70
     1
102
RTVSPropertyOp36
 70
     1
102
RTVSPropertyOp37
 70
     1
102
RTVSPropertyOp38
 70
     1
102
RTVSPropertyOp39
 70
     1
102
RTVSPropertyOp40
 70
     1
102
RTVSPropertyOp41
 70
     1
102
RTVSPropertyOp42
 70
     1
102
RTVSPropertyOp43
 70
     1
102
RTVSPropertyOp44
 70
     1
102
RTVSPropertyOp45
 70
     1
102
RTVSPropertyOp46
 70
     1
102
RTVSPropertyOp47
 70
     1
102
RTVSPropertyOp48
 70
     1
102
RTVSPropertyOp49
 70
     1
102
RTVSPropertyOp50
 70
     1
102
RTVSPropertyOp51
 70
     0
102
RTVSPropertyOp52
 70
     0
102
RTVSPropertyOp53
 70
     1
102
RTVSPropertyOp54
 70
     1
102
RTVSPropertyOp55
 70
     1
102
RTVSPropertyOp56
 70
     1
102
RTVSPropertyOp57
 70
     1
102
RTVSPost2010Prop28
280
     0
102
RTVSPost2010PropOp28
 70
     1
102
RTVSPost2010Prop29
280
     1
102
RTVSPost2010PropOp29
 70
     1
102
RTVSPost2010Prop30
280
     1
102
RTVSPost2010PropOp30
 70
     1
102
RTVSPost2010Prop31
280
     0
102
RTVSPost2010PropOp31
 70
     1
102
RTVSPost2010Prop32
280
     0
102
RTVSPost2010PropOp32
 70
     1
102
RTVSPost2010Prop33
280
     0
102
RTVSPost2010PropOp33
 70
     1
102
RTVSPost2010Prop34
280
     0
102
RTVSPost2010PropOp34
 70
     1
102
RTVSPost2010Prop35
280
     0
102
RTVSPost2010PropOp35
 70
     1
102
RTVSPost2010Prop36
280
     0
102
RTVSPost2010PropOp36
 70
     1
102
RTVSPost2010Prop37
 90
       50
102
RTVSPost2010PropOp37
 70
     1
102
RTVSPost2010Prop38
140
0.0
102
RTVSPost2010PropOp38
 70
     1
102
RTVSPost2010Prop39
140
1.0
102
RTVSPost2010PropOp39
 70
     1
102
RTVSPost2010Prop40
 90
        0
102
RTVSPost2010PropOp40
 70
     1
102
RTVSPost2010Prop41ColorIndex
 90
      178
102
RTVSPost2010Prop41ColorRGB
 90
        0
102
RTVSPost2010PropOp41
 70
     1
102
RTVSPost2010Prop42
 90
       50
102
RTVSPost2010PropOp42
 70
     1
102
RTVSPost2010Prop43
 90
        3
102
RTVSPost2010PropOp43
 70
     1
102
RTVSPost2010Prop44ColorIndex
 90
        5
102
RTVSPost2010Prop44ColorRGB
 90
      255
102
RTVSPost2010PropOp44
 70
     1
102
RTVSPost2010Prop45
280
     0
102
RTVSPost2010PropOp45
 70
     1
102
RTVSPost2010Prop46
 90
       50
102
RTVSPost2010PropOp46
 70
     1
102
RTVSPost2010Prop47
 90
       50
102
RTVSPost2010PropOp47
 70
     1
102
RTVSPost2010Prop48
 90
       50
102
RTVSPost2010PropOp48
 70
     1
102
RTVSPost2010Prop49
280
     0
102
RTVSPost2010PropOp49
 70
     1
102
RTVSPost2010Prop50
 90
       50
102
RTVSPost2010PropOp50
 70
     1
102
RTVSPost2010Prop51ColorIndex
 90
      256
102
RTVSPost2010Prop51ColorRGB
 90
-16777216
102
RTVSPost2010PropOp51
 70
     0
102
RTVSPost2010Prop52
140
1.0
102
RTVSPost2010PropOp52
 70
     0
102
RTVSPost2010Prop53
 90
        2
102
RTVSPost2010PropOp53
 70
     1
102
RTVSPost2010Prop54
  1
strokes_ogs.tif
102
RTVSPost2010PropOp54
 70
     1
102
RTVSPost2010Prop55
280
     0
102
RTVSPost2010PropOp55
 70
     1
102
RTVSPost2010Prop56
140
1.0
102
RTVSPost2010PropOp56
 70
     1
102
RTVSPost2010Prop57
140
1.0
102
RTVSPost2010PropOp57
 70
     1
  0
XRECORD
  5
36C
102
{ACAD_REACTORS
330
36B
102
}
330
36B
100
AcDbXrecord
280
     1
102
RTVSPropertyOp0
 70
     1
102
RTVSPropertyOp1
 70
     1
102
RTVSPropertyOp2
 70
     1
102
RTVSPropertyOp3
 70
     1
102
RTVSPropertyOp4
 70
     1
102
RTVSPropertyOp5
 70
     1
102
RTVSPropertyOp6
 70
     1
102
RTVSPropertyOp7
 70
     1
102
RTVSPropertyOp8
 70
     1
102
RTVSPropertyOp9
 70
     1
102
RTVSPropertyOp10
 70
     1
102
RTVSPropertyOp11
 70
     1
102
RTVSPropertyOp12
 70
     1
102
RTVSPropertyOp13
 70
     1
102
RTVSPropertyOp14
 70
     1
102
RTVSPropertyOp15
 70
     1
102
RTVSPropertyOp16
 70
     1
102
RTVSPropertyOp17
 70
     1
102
RTVSPropertyOp18
 70
     1
102
RTVSPropertyOp19
 70
     1
102
RTVSPropertyOp20
 70
     1
102
RTVSPropertyOp21
 70
     1
102
RTVSPropertyOp22
 70
     1
102
RTVSPropertyOp23
 70
     1
102
RTVSPropertyOp24
 70
     1
102
RTVSPropertyOp25
 70
     1
102
RTVSPropertyOp26
 70
     1
102
RTVSPropertyOp27
 70
     1
102
RTVSPropertyOp28
 70
     1
102
RTVSPropertyOp29
 70
     1
102
RTVSPropertyOp30
 70
     1
102
RTVSPropertyOp31
 70
     1
102
RTVSPropertyOp32
 70
     1
102
RTVSPropertyOp33
 70
     1
102
RTVSPropertyOp34
 70
     1
102
RTVSPropertyOp35
 70
     1
102
RTVSPropertyOp36
 70
     1
102
RTVSPropertyOp37
 70
     1
102
RTVSPropertyOp38
 70
     1
102
RTVSPropertyOp39
 70
     1
102
RTVSPropertyOp40
 70
     1
102
RTVSPropertyOp41
 70
     1
102
RTVSPropertyOp42
 70
     1
102
RTVSPropertyOp43
 70
     1
102
RTVSPropertyOp44
 70
     1
102
RTVSPropertyOp45
 70
     1
102
RTVSPropertyOp46
 70
     1
102
RTVSPropertyOp47
 70
     1
102
RTVSPropertyOp48
 70
     1
102
RTVSPropertyOp49
 70
     1
102
RTVSPropertyOp50
 70
     1
102
RTVSPropertyOp51
 70
     0
102
RTVSPropertyOp52
 70
     0
102
RTVSPropertyOp53
 70
     1
102
RTVSPropertyOp54
 70
     1
102
RTVSPropertyOp55
 70
     1
102
RTVSPropertyOp56
 70
     1
102
RTVSPropertyOp57
 70
     1
102
RTVSPost2010Prop28
280
     0
102
RTVSPost2010PropOp28
 70
     1
102
RTVSPost2010Prop29
280
     1
102
RTVSPost2010PropOp29
 70
     1
102
RTVSPost2010Prop30
280
     1
102
RTVSPost2010PropOp30
 70
     1
102
RTVSPost2010Prop31
280
     0
102
RTVSPost2010PropOp31
 70
     1
102
RTVSPost2010Prop32
280
     0
102
RTVSPost2010PropOp32
 70
     1
102
RTVSPost2010Prop33
280
     0
102
RTVSPost2010PropOp33
 70
     1
102
RTVSPost2010Prop34
280
     0
102
RTVSPost2010PropOp34
 70
     1
102
RTVSPost2010Prop35
280
     0
102
RTVSPost2010PropOp35
 70
     1
102
RTVSPost2010Prop36
280
     0
102
RTVSPost2010PropOp36
 70
     1
102
RTVSPost2010Prop37
 90
       50
102
RTVSPost2010PropOp37
 70
     1
102
RTVSPost2010Prop38
140
0.0
102
RTVSPost2010PropOp38
 70
     1
102
RTVSPost2010Prop39
140
1.0
102
RTVSPost2010PropOp39
 70
     1
102
RTVSPost2010Prop40
 90
        0
102
RTVSPost2010PropOp40
 70
     1
102
RTVSPost2010Prop41ColorIndex
 90
      178
102
RTVSPost2010Prop41ColorRGB
 90
        0
102
RTVSPost2010PropOp41
 70
     1
102
RTVSPost2010Prop42
 90
       50
102
RTVSPost2010PropOp42
 70
     1
102
RTVSPost2010Prop43
 90
        3
102
RTVSPost2010PropOp43
 70
     1
102
RTVSPost2010Prop44ColorIndex
 90
        5
102
RTVSPost2010Prop44ColorRGB
 90
      255
102
RTVSPost2010PropOp44
 70
     1
102
RTVSPost2010Prop45
280
     0
102
RTVSPost2010PropOp45
 70
     1
102
RTVSPost2010Prop46
 90
       50
102
RTVSPost2010PropOp46
 70
     1
102
RTVSPost2010Prop47
 90
       50
102
RTVSPost2010PropOp47
 70
     1
102
RTVSPost2010Prop48
 90
       50
102
RTVSPost2010PropOp48
 70
     1
102
RTVSPost2010Prop49
280
     0
102
RTVSPost2010PropOp49
 70
     1
102
RTVSPost2010Prop50
 90
       50
102
RTVSPost2010PropOp50
 70
     1
102
RTVSPost2010Prop51ColorIndex
 90
      256
102
RTVSPost2010Prop51ColorRGB
 90
-16777216
102
RTVSPost2010PropOp51
 70
     0
102
RTVSPost2010Prop52
140
1.0
102
RTVSPost2010PropOp52
 70
     0
102
RTVSPost2010Prop53
 90
        2
102
RTVSPost2010PropOp53
 70
     1
102
RTVSPost2010Prop54
  1
strokes_ogs.tif
102
RTVSPost2010PropOp54
 70
     1
102
RTVSPost2010Prop55
280
     0
102
RTVSPost2010PropOp55
 70
     1
102
RTVSPost2010Prop56
140
1.0
102
RTVSPost2010PropOp56
 70
     1
102
RTVSPost2010Prop57
140
1.0
102
RTVSPost2010PropOp57
 70
     1
  0
XRECORD
  5
36E
102
{ACAD_REACTORS
330
36D
102
}
330
36D
100
AcDbXrecord
280
     1
102
RTVSPropertyOp0
 70
     1
102
RTVSPropertyOp1
 70
     1
102
RTVSPropertyOp2
 70
     1
102
RTVSPropertyOp3
 70
     1
102
RTVSPropertyOp4
 70
     1
102
RTVSPropertyOp5
 70
     1
102
RTVSPropertyOp6
 70
     1
102
RTVSPropertyOp7
 70
     1
102
RTVSPropertyOp8
 70
     1
102
RTVSPropertyOp9
 70
     1
102
RTVSPropertyOp10
 70
     1
102
RTVSPropertyOp11
 70
     1
102
RTVSPropertyOp12
 70
     1
102
RTVSPropertyOp13
 70
     1
102
RTVSPropertyOp14
 70
     1
102
RTVSPropertyOp15
 70
     1
102
RTVSPropertyOp16
 70
     1
102
RTVSPropertyOp17
 70
     1
102
RTVSPropertyOp18
 70
     1
102
RTVSPropertyOp19
 70
     1
102
RTVSPropertyOp20
 70
     1
102
RTVSPropertyOp21
 70
     1
102
RTVSPropertyOp22
 70
     1
102
RTVSPropertyOp23
 70
     1
102
RTVSPropertyOp24
 70
     1
102
RTVSPropertyOp25
 70
     1
102
RTVSPropertyOp26
 70
     1
102
RTVSPropertyOp27
 70
     1
102
RTVSPropertyOp28
 70
     1
102
RTVSPropertyOp29
 70
     1
102
RTVSPropertyOp30
 70
     1
102
RTVSPropertyOp31
 70
     1
102
RTVSPropertyOp32
 70
     1
102
RTVSPropertyOp33
 70
     1
102
RTVSPropertyOp34
 70
     1
102
RTVSPropertyOp35
 70
     1
102
RTVSPropertyOp36
 70
     1
102
RTVSPropertyOp37
 70
     1
102
RTVSPropertyOp38
 70
     1
102
RTVSPropertyOp39
 70
     1
102
RTVSPropertyOp40
 70
     1
102
RTVSPropertyOp41
 70
     1
102
RTVSPropertyOp42
 70
     1
102
RTVSPropertyOp43
 70
     1
102
RTVSPropertyOp44
 70
     1
102
RTVSPropertyOp45
 70
     1
102
RTVSPropertyOp46
 70
     1
102
RTVSPropertyOp47
 70
     1
102
RTVSPropertyOp48
 70
     1
102
RTVSPropertyOp49
 70
     1
102
RTVSPropertyOp50
 70
     1
102
RTVSPropertyOp51
 70
     0
102
RTVSPropertyOp52
 70
     0
102
RTVSPropertyOp53
 70
     1
102
RTVSPropertyOp54
 70
     1
102
RTVSPropertyOp55
 70
     1
102
RTVSPropertyOp56
 70
     1
102
RTVSPropertyOp57
 70
     1
102
RTVSPost2010Prop28
280
     0
102
RTVSPost2010PropOp28
 70
     1
102
RTVSPost2010Prop29
280
     1
102
RTVSPost2010PropOp29
 70
     1
102
RTVSPost2010Prop30
280
     1
102
RTVSPost2010PropOp30
 70
     1
102
RTVSPost2010Prop31
280
     0
102
RTVSPost2010PropOp31
 70
     1
102
RTVSPost2010Prop32
280
     0
102
RTVSPost2010PropOp32
 70
     1
102
RTVSPost2010Prop33
280
     0
102
RTVSPost2010PropOp33
 70
     1
102
RTVSPost2010Prop34
280
     0
102
RTVSPost2010PropOp34
 70
     1
102
RTVSPost2010Prop35
280
     0
102
RTVSPost2010PropOp35
 70
     1
102
RTVSPost2010Prop36
280
     0
102
RTVSPost2010PropOp36
 70
     1
102
RTVSPost2010Prop37
 90
       50
102
RTVSPost2010PropOp37
 70
     1
102
RTVSPost2010Prop38
140
0.0
102
RTVSPost2010PropOp38
 70
     1
102
RTVSPost2010Prop39
140
1.0
102
RTVSPost2010PropOp39
 70
     1
102
RTVSPost2010Prop40
 90
        0
102
RTVSPost2010PropOp40
 70
     1
102
RTVSPost2010Prop41ColorIndex
 90
      178
102
RTVSPost2010Prop41ColorRGB
 90
        0
102
RTVSPost2010PropOp41
 70
     1
102
RTVSPost2010Prop42
 90
       50
102
RTVSPost2010PropOp42
 70
     1
102
RTVSPost2010Prop43
 90
        3
102
RTVSPost2010PropOp43
 70
     1
102
RTVSPost2010Prop44ColorIndex
 90
        5
102
RTVSPost2010Prop44ColorRGB
 90
      255
102
RTVSPost2010PropOp44
 70
     1
102
RTVSPost2010Prop45
280
     0
102
RTVSPost2010PropOp45
 70
     1
102
RTVSPost2010Prop46
 90
       50
102
RTVSPost2010PropOp46
 70
     1
102
RTVSPost2010Prop47
 90
       50
102
RTVSPost2010PropOp47
 70
     1
102
RTVSPost2010Prop48
 90
       50
102
RTVSPost2010PropOp48
 70
     1
102
RTVSPost2010Prop49
280
     0
102
RTVSPost2010PropOp49
 70
     1
102
RTVSPost2010Prop50
 90
       50
102
RTVSPost2010PropOp50
 70
     1
102
RTVSPost2010Prop51ColorIndex
 90
      256
102
RTVSPost2010Prop51ColorRGB
 90
-16777216
102
RTVSPost2010PropOp51
 70
     0
102
RTVSPost2010Prop52
140
1.0
102
RTVSPost2010PropOp52
 70
     0
102
RTVSPost2010Prop53
 90
        2
102
RTVSPost2010PropOp53
 70
     1
102
RTVSPost2010Prop54
  1
strokes_ogs.tif
102
RTVSPost2010PropOp54
 70
     1
102
RTVSPost2010Prop55
280
     0
102
RTVSPost2010PropOp55
 70
     1
102
RTVSPost2010Prop56
140
1.0
102
RTVSPost2010PropOp56
 70
     1
102
RTVSPost2010Prop57
140
1.0
102
RTVSPost2010PropOp57
 70
     1
  0
XRECORD
  5
370
102
{ACAD_REACTORS
330
36F
102
}
330
36F
100
AcDbXrecord
280
     1
102
RTVSPropertyOp0
 70
     1
102
RTVSPropertyOp1
 70
     1
102
RTVSPropertyOp2
 70
     1
102
RTVSPropertyOp3
 70
     1
102
RTVSPropertyOp4
 70
     1
102
RTVSPropertyOp5
 70
     1
102
RTVSPropertyOp6
 70
     1
102
RTVSPropertyOp7
 70
     1
102
RTVSPropertyOp8
 70
     1
102
RTVSPropertyOp9
 70
     1
102
RTVSPropertyOp10
 70
     1
102
RTVSPropertyOp11
 70
     1
102
RTVSPropertyOp12
 70
     1
102
RTVSPropertyOp13
 70
     1
102
RTVSPropertyOp14
 70
     1
102
RTVSPropertyOp15
 70
     1
102
RTVSPropertyOp16
 70
     1
102
RTVSPropertyOp17
 70
     1
102
RTVSPropertyOp18
 70
     1
102
RTVSPropertyOp19
 70
     1
102
RTVSPropertyOp20
 70
     1
102
RTVSPropertyOp21
 70
     1
102
RTVSPropertyOp22
 70
     1
102
RTVSPropertyOp23
 70
     1
102
RTVSPropertyOp24
 70
     1
102
RTVSPropertyOp25
 70
     1
102
RTVSPropertyOp26
 70
     1
102
RTVSPropertyOp27
 70
     1
102
RTVSPropertyOp28
 70
     1
102
RTVSPropertyOp29
 70
     1
102
RTVSPropertyOp30
 70
     1
102
RTVSPropertyOp31
 70
     1
102
RTVSPropertyOp32
 70
     1
102
RTVSPropertyOp33
 70
     1
102
RTVSPropertyOp34
 70
     1
102
RTVSPropertyOp35
 70
     1
102
RTVSPropertyOp36
 70
     1
102
RTVSPropertyOp37
 70
     1
102
RTVSPropertyOp38
 70
     1
102
RTVSPropertyOp39
 70
     1
102
RTVSPropertyOp40
 70
     1
102
RTVSPropertyOp41
 70
     1
102
RTVSPropertyOp42
 70
     1
102
RTVSPropertyOp43
 70
     1
102
RTVSPropertyOp44
 70
     1
102
RTVSPropertyOp45
 70
     1
102
RTVSPropertyOp46
 70
     1
102
RTVSPropertyOp47
 70
     1
102
RTVSPropertyOp48
 70
     1
102
RTVSPropertyOp49
 70
     1
102
RTVSPropertyOp50
 70
     1
102
RTVSPropertyOp51
 70
     0
102
RTVSPropertyOp52
 70
     0
102
RTVSPropertyOp53
 70
     1
102
RTVSPropertyOp54
 70
     1
102
RTVSPropertyOp55
 70
     1
102
RTVSPropertyOp56
 70
     1
102
RTVSPropertyOp57
 70
     1
102
RTVSPost2010Prop28
280
     0
102
RTVSPost2010PropOp28
 70
     1
102
RTVSPost2010Prop29
280
     1
102
RTVSPost2010PropOp29
 70
     1
102
RTVSPost2010Prop30
280
     1
102
RTVSPost2010PropOp30
 70
     1
102
RTVSPost2010Prop31
280
     0
102
RTVSPost2010PropOp31
 70
     1
102
RTVSPost2010Prop32
280
     0
102
RTVSPost2010PropOp32
 70
     1
102
RTVSPost2010Prop33
280
     0
102
RTVSPost2010PropOp33
 70
     1
102
RTVSPost2010Prop34
280
     0
102
RTVSPost2010PropOp34
 70
     1
102
RTVSPost2010Prop35
280
     0
102
RTVSPost2010PropOp35
 70
     1
102
RTVSPost2010Prop36
280
     0
102
RTVSPost2010PropOp36
 70
     1
102
RTVSPost2010Prop37
 90
       50
102
RTVSPost2010PropOp37
 70
     1
102
RTVSPost2010Prop38
140
0.0
102
RTVSPost2010PropOp38
 70
     1
102
RTVSPost2010Prop39
140
1.0
102
RTVSPost2010PropOp39
 70
     1
102
RTVSPost2010Prop40
 90
        0
102
RTVSPost2010PropOp40
 70
     1
102
RTVSPost2010Prop41ColorIndex
 90
      178
102
RTVSPost2010Prop41ColorRGB
 90
        0
102
RTVSPost2010PropOp41
 70
     1
102
RTVSPost2010Prop42
 90
       50
102
RTVSPost2010PropOp42
 70
     1
102
RTVSPost2010Prop43
 90
        3
102
RTVSPost2010PropOp43
 70
     1
102
RTVSPost2010Prop44ColorIndex
 90
        5
102
RTVSPost2010Prop44ColorRGB
 90
      255
102
RTVSPost2010PropOp44
 70
     1
102
RTVSPost2010Prop45
280
     0
102
RTVSPost2010PropOp45
 70
     1
102
RTVSPost2010Prop46
 90
       50
102
RTVSPost2010PropOp46
 70
     1
102
RTVSPost2010Prop47
 90
       50
102
RTVSPost2010PropOp47
 70
     1
102
RTVSPost2010Prop48
 90
       50
102
RTVSPost2010PropOp48
 70
     1
102
RTVSPost2010Prop49
280
     0
102
RTVSPost2010PropOp49
 70
     1
102
RTVSPost2010Prop50
 90
       50
102
RTVSPost2010PropOp50
 70
     1
102
RTVSPost2010Prop51ColorIndex
 90
      256
102
RTVSPost2010Prop51ColorRGB
 90
-16777216
102
RTVSPost2010PropOp51
 70
     0
102
RTVSPost2010Prop52
140
1.0
102
RTVSPost2010PropOp52
 70
     0
102
RTVSPost2010Prop53
 90
        2
102
RTVSPost2010PropOp53
 70
     1
102
RTVSPost2010Prop54
  1
strokes_ogs.tif
102
RTVSPost2010PropOp54
 70
     1
102
RTVSPost2010Prop55
280
     0
102
RTVSPost2010PropOp55
 70
     1
102
RTVSPost2010Prop56
140
1.0
102
RTVSPost2010PropOp56
 70
     1
102
RTVSPost2010Prop57
140
1.0
102
RTVSPost2010PropOp57
 70
     1
  0
XRECORD
  5
372
102
{ACAD_REACTORS
330
371
102
}
330
371
100
AcDbXrecord
280
     1
102
RTVSPropertyOp0
 70
     1
102
RTVSPropertyOp1
 70
     1
102
RTVSPropertyOp2
 70
     1
102
RTVSPropertyOp3
 70
     1
102
RTVSPropertyOp4
 70
     1
102
RTVSPropertyOp5
 70
     1
102
RTVSPropertyOp6
 70
     1
102
RTVSPropertyOp7
 70
     1
102
RTVSPropertyOp8
 70
     1
102
RTVSPropertyOp9
 70
     1
102
RTVSPropertyOp10
 70
     1
102
RTVSPropertyOp11
 70
     1
102
RTVSPropertyOp12
 70
     1
102
RTVSPropertyOp13
 70
     1
102
RTVSPropertyOp14
 70
     1
102
RTVSPropertyOp15
 70
     1
102
RTVSPropertyOp16
 70
     1
102
RTVSPropertyOp17
 70
     1
102
RTVSPropertyOp18
 70
     1
102
RTVSPropertyOp19
 70
     1
102
RTVSPropertyOp20
 70
     1
102
RTVSPropertyOp21
 70
     1
102
RTVSPropertyOp22
 70
     1
102
RTVSPropertyOp23
 70
     1
102
RTVSPropertyOp24
 70
     1
102
RTVSPropertyOp25
 70
     1
102
RTVSPropertyOp26
 70
     1
102
RTVSPropertyOp27
 70
     1
102
RTVSPropertyOp28
 70
     1
102
RTVSPropertyOp29
 70
     1
102
RTVSPropertyOp30
 70
     1
102
RTVSPropertyOp31
 70
     1
102
RTVSPropertyOp32
 70
     1
102
RTVSPropertyOp33
 70
     1
102
RTVSPropertyOp34
 70
     1
102
RTVSPropertyOp35
 70
     1
102
RTVSPropertyOp36
 70
     1
102
RTVSPropertyOp37
 70
     1
102
RTVSPropertyOp38
 70
     1
102
RTVSPropertyOp39
 70
     1
102
RTVSPropertyOp40
 70
     1
102
RTVSPropertyOp41
 70
     1
102
RTVSPropertyOp42
 70
     1
102
RTVSPropertyOp43
 70
     1
102
RTVSPropertyOp44
 70
     1
102
RTVSPropertyOp45
 70
     1
102
RTVSPropertyOp46
 70
     1
102
RTVSPropertyOp47
 70
     1
102
RTVSPropertyOp48
 70
     1
102
RTVSPropertyOp49
 70
     1
102
RTVSPropertyOp50
 70
     1
102
RTVSPropertyOp51
 70
     0
102
RTVSPropertyOp52
 70
     0
102
RTVSPropertyOp53
 70
     1
102
RTVSPropertyOp54
 70
     1
102
RTVSPropertyOp55
 70
     1
102
RTVSPropertyOp56
 70
     1
102
RTVSPropertyOp57
 70
     1
102
RTVSPost2010Prop28
280
     0
102
RTVSPost2010PropOp28
 70
     1
102
RTVSPost2010Prop29
280
     1
102
RTVSPost2010PropOp29
 70
     1
102
RTVSPost2010Prop30
280
     1
102
RTVSPost2010PropOp30
 70
     1
102
RTVSPost2010Prop31
280
     0
102
RTVSPost2010PropOp31
 70
     1
102
RTVSPost2010Prop32
280
     0
102
RTVSPost2010PropOp32
 70
     1
102
RTVSPost2010Prop33
280
     0
102
RTVSPost2010PropOp33
 70
     1
102
RTVSPost2010Prop34
280
     0
102
RTVSPost2010PropOp34
 70
     1
102
RTVSPost2010Prop35
280
     0
102
RTVSPost2010PropOp35
 70
     1
102
RTVSPost2010Prop36
280
     0
102
RTVSPost2010PropOp36
 70
     1
102
RTVSPost2010Prop37
 90
       50
102
RTVSPost2010PropOp37
 70
     1
102
RTVSPost2010Prop38
140
0.0
102
RTVSPost2010PropOp38
 70
     1
102
RTVSPost2010Prop39
140
1.0
102
RTVSPost2010PropOp39
 70
     1
102
RTVSPost2010Prop40
 90
        0
102
RTVSPost2010PropOp40
 70
     1
102
RTVSPost2010Prop41ColorIndex
 90
      178
102
RTVSPost2010Prop41ColorRGB
 90
        0
102
RTVSPost2010PropOp41
 70
     1
102
RTVSPost2010Prop42
 90
       50
102
RTVSPost2010PropOp42
 70
     1
102
RTVSPost2010Prop43
 90
        3
102
RTVSPost2010PropOp43
 70
     1
102
RTVSPost2010Prop44ColorIndex
 90
        5
102
RTVSPost2010Prop44ColorRGB
 90
      255
102
RTVSPost2010PropOp44
 70
     1
102
RTVSPost2010Prop45
280
     0
102
RTVSPost2010PropOp45
 70
     1
102
RTVSPost2010Prop46
 90
       50
102
RTVSPost2010PropOp46
 70
     1
102
RTVSPost2010Prop47
 90
       50
102
RTVSPost2010PropOp47
 70
     1
102
RTVSPost2010Prop48
 90
       50
102
RTVSPost2010PropOp48
 70
     1
102
RTVSPost2010Prop49
280
     0
102
RTVSPost2010PropOp49
 70
     1
102
RTVSPost2010Prop50
 90
       50
102
RTVSPost2010PropOp50
 70
     1
102
RTVSPost2010Prop51ColorIndex
 90
      256
102
RTVSPost2010Prop51ColorRGB
 90
-16777216
102
RTVSPost2010PropOp51
 70
     0
102
RTVSPost2010Prop52
140
1.0
102
RTVSPost2010PropOp52
 70
     0
102
RTVSPost2010Prop53
 90
        2
102
RTVSPost2010PropOp53
 70
     1
102
RTVSPost2010Prop54
  1
strokes_ogs.tif
102
RTVSPost2010PropOp54
 70
     1
102
RTVSPost2010Prop55
280
     0
102
RTVSPost2010PropOp55
 70
     1
102
RTVSPost2010Prop56
140
1.0
102
RTVSPost2010PropOp56
 70
     1
102
RTVSPost2010Prop57
140
1.0
102
RTVSPost2010PropOp57
 70
     1
  0
XRECORD
  5
378
102
{ACAD_REACTORS
330
377
102
}
330
377
100
AcDbXrecord
280
     1
102
RTVSPropertyOp0
 70
     1
102
RTVSPropertyOp1
 70
     1
102
RTVSPropertyOp2
 70
     1
102
RTVSPropertyOp3
 70
     1
102
RTVSPropertyOp4
 70
     1
102
RTVSPropertyOp5
 70
     1
102
RTVSPropertyOp6
 70
     1
102
RTVSPropertyOp7
 70
     1
102
RTVSPropertyOp8
 70
     1
102
RTVSPropertyOp9
 70
     1
102
RTVSPropertyOp10
 70
     1
102
RTVSPropertyOp11
 70
     1
102
RTVSPropertyOp12
 70
     1
102
RTVSPropertyOp13
 70
     1
102
RTVSPropertyOp14
 70
     1
102
RTVSPropertyOp15
 70
     1
102
RTVSPropertyOp16
 70
     1
102
RTVSPropertyOp17
 70
     1
102
RTVSPropertyOp18
 70
     1
102
RTVSPropertyOp19
 70
     1
102
RTVSPropertyOp20
 70
     1
102
RTVSPropertyOp21
 70
     1
102
RTVSPropertyOp22
 70
     1
102
RTVSPropertyOp23
 70
     1
102
RTVSPropertyOp24
 70
     1
102
RTVSPropertyOp25
 70
     1
102
RTVSPropertyOp26
 70
     1
102
RTVSPropertyOp27
 70
     1
102
RTVSPropertyOp28
 70
     1
102
RTVSPropertyOp29
 70
     1
102
RTVSPropertyOp30
 70
     1
102
RTVSPropertyOp31
 70
     1
102
RTVSPropertyOp32
 70
     1
102
RTVSPropertyOp33
 70
     1
102
RTVSPropertyOp34
 70
     1
102
RTVSPropertyOp35
 70
     1
102
RTVSPropertyOp36
 70
     1
102
RTVSPropertyOp37
 70
     1
102
RTVSPropertyOp38
 70
     1
102
RTVSPropertyOp39
 70
     1
102
RTVSPropertyOp40
 70
     1
102
RTVSPropertyOp41
 70
     1
102
RTVSPropertyOp42
 70
     1
102
RTVSPropertyOp43
 70
     1
102
RTVSPropertyOp44
 70
     1
102
RTVSPropertyOp45
 70
     1
102
RTVSPropertyOp46
 70
     1
102
RTVSPropertyOp47
 70
     1
102
RTVSPropertyOp48
 70
     1
102
RTVSPropertyOp49
 70
     1
102
RTVSPropertyOp50
 70
     1
102
RTVSPropertyOp51
 70
     0
102
RTVSPropertyOp52
 70
     0
102
RTVSPropertyOp53
 70
     1
102
RTVSPropertyOp54
 70
     1
102
RTVSPropertyOp55
 70
     1
102
RTVSPropertyOp56
 70
     1
102
RTVSPropertyOp57
 70
     1
102
RTVSPost2010Prop28
280
     0
102
RTVSPost2010PropOp28
 70
     1
102
RTVSPost2010Prop29
280
     1
102
RTVSPost2010PropOp29
 70
     1
102
RTVSPost2010Prop30
280
     1
102
RTVSPost2010PropOp30
 70
     1
102
RTVSPost2010Prop31
280
     0
102
RTVSPost2010PropOp31
 70
     1
102
RTVSPost2010Prop32
280
     0
102
RTVSPost2010PropOp32
 70
     1
102
RTVSPost2010Prop33
280
     0
102
RTVSPost2010PropOp33
 70
     1
102
RTVSPost2010Prop34
280
     0
102
RTVSPost2010PropOp34
 70
     1
102
RTVSPost2010Prop35
280
     0
102
RTVSPost2010PropOp35
 70
     1
102
RTVSPost2010Prop36
280
     0
102
RTVSPost2010PropOp36
 70
     1
102
RTVSPost2010Prop37
 90
       50
102
RTVSPost2010PropOp37
 70
     1
102
RTVSPost2010Prop38
140
0.0
102
RTVSPost2010PropOp38
 70
     1
102
RTVSPost2010Prop39
140
1.0
102
RTVSPost2010PropOp39
 70
     1
102
RTVSPost2010Prop40
 90
        0
102
RTVSPost2010PropOp40
 70
     1
102
RTVSPost2010Prop41ColorIndex
 90
      178
102
RTVSPost2010Prop41ColorRGB
 90
        0
102
RTVSPost2010PropOp41
 70
     1
102
RTVSPost2010Prop42
 90
       50
102
RTVSPost2010PropOp42
 70
     1
102
RTVSPost2010Prop43
 90
        3
102
RTVSPost2010PropOp43
 70
     1
102
RTVSPost2010Prop44ColorIndex
 90
        5
102
RTVSPost2010Prop44ColorRGB
 90
      255
102
RTVSPost2010PropOp44
 70
     1
102
RTVSPost2010Prop45
280
     0
102
RTVSPost2010PropOp45
 70
     1
102
RTVSPost2010Prop46
 90
       50
102
RTVSPost2010PropOp46
 70
     1
102
RTVSPost2010Prop47
 90
       50
102
RTVSPost2010PropOp47
 70
     1
102
RTVSPost2010Prop48
 90
       50
102
RTVSPost2010PropOp48
 70
     1
102
RTVSPost2010Prop49
280
     0
102
RTVSPost2010PropOp49
 70
     1
102
RTVSPost2010Prop50
 90
       50
102
RTVSPost2010PropOp50
 70
     1
102
RTVSPost2010Prop51ColorIndex
 90
      256
102
RTVSPost2010Prop51ColorRGB
 90
-16777216
102
RTVSPost2010PropOp51
 70
     0
102
RTVSPost2010Prop52
140
1.0
102
RTVSPost2010PropOp52
 70
     0
102
RTVSPost2010Prop53
 90
        2
102
RTVSPost2010PropOp53
 70
     1
102
RTVSPost2010Prop54
  1
strokes_ogs.tif
102
RTVSPost2010PropOp54
 70
     1
102
RTVSPost2010Prop55
280
     0
102
RTVSPost2010PropOp55
 70
     1
102
RTVSPost2010Prop56
140
1.0
102
RTVSPost2010PropOp56
 70
     1
102
RTVSPost2010Prop57
140
1.0
102
RTVSPost2010PropOp57
 70
     1
  0
XRECORD
  5
38C
102
{ACAD_REACTORS
330
38B
102
}
330
38B
100
AcDbXrecord
280
     1
102
RTVSPropertyOp0
 70
     0
102
RTVSPropertyOp1
 70
     0
102
RTVSPropertyOp2
 70
     0
102
RTVSPropertyOp3
 70
     0
102
RTVSPropertyOp4
 70
     0
102
RTVSPropertyOp5
 70
     0
102
RTVSPropertyOp6
 70
     0
102
RTVSPropertyOp7
 70
     0
102
RTVSPropertyOp8
 70
     0
102
RTVSPropertyOp9
 70
     0
102
RTVSPropertyOp10
 70
     0
102
RTVSPropertyOp11
 70
     0
102
RTVSPropertyOp12
 70
     0
102
RTVSPropertyOp13
 70
     0
102
RTVSPropertyOp14
 70
     2
102
RTVSPropertyOp15
 70
     0
102
RTVSPropertyOp16
 70
     0
102
RTVSPropertyOp17
 70
     0
102
RTVSPropertyOp18
 70
     0
102
RTVSPropertyOp19
 70
     0
102
RTVSPropertyOp20
 70
     0
102
RTVSPropertyOp21
 70
     0
102
RTVSPropertyOp22
 70
     0
102
RTVSPropertyOp23
 70
     0
102
RTVSPropertyOp24
 70
     0
102
RTVSPropertyOp25
 70
     0
102
RTVSPropertyOp26
 70
     0
102
RTVSPropertyOp27
 70
     0
102
RTVSPropertyOp28
 70
     0
102
RTVSPropertyOp29
 70
     0
102
RTVSPropertyOp30
 70
     0
102
RTVSPropertyOp31
 70
     0
102
RTVSPropertyOp32
 70
     0
102
RTVSPropertyOp33
 70
     0
102
RTVSPropertyOp34
 70
     0
102
RTVSPropertyOp35
 70
     0
102
RTVSPropertyOp36
 70
     0
102
RTVSPropertyOp37
 70
     0
102
RTVSPropertyOp38
 70
     0
102
RTVSPropertyOp39
 70
     0
102
RTVSPropertyOp40
 70
     0
102
RTVSPropertyOp41
 70
     0
102
RTVSPropertyOp42
 70
     0
102
RTVSPropertyOp43
 70
     0
102
RTVSPropertyOp44
 70
     0
102
RTVSPropertyOp45
 70
     0
102
RTVSPropertyOp46
 70
     0
102
RTVSPropertyOp47
 70
     0
102
RTVSPropertyOp48
 70
     0
102
RTVSPropertyOp49
 70
     0
102
RTVSPropertyOp50
 70
     0
102
RTVSPropertyOp51
 70
     0
102
RTVSPropertyOp52
 70
     0
102
RTVSPropertyOp53
 70
     0
102
RTVSPropertyOp54
 70
     0
102
RTVSPropertyOp55
 70
     0
102
RTVSPropertyOp56
 70
     0
102
RTVSPropertyOp57
 70
     0
102
RTVSPost2010Prop28
280
     0
102
RTVSPost2010PropOp28
 70
     0
102
RTVSPost2010Prop29
280
     1
102
RTVSPost2010PropOp29
 70
     0
102
RTVSPost2010Prop30
280
     1
102
RTVSPost2010PropOp30
 70
     0
102
RTVSPost2010Prop31
280
     0
102
RTVSPost2010PropOp31
 70
     0
102
RTVSPost2010Prop32
280
     0
102
RTVSPost2010PropOp32
 70
     0
102
RTVSPost2010Prop33
280
     0
102
RTVSPost2010PropOp33
 70
     0
102
RTVSPost2010Prop34
280
     0
102
RTVSPost2010PropOp34
 70
     0
102
RTVSPost2010Prop35
280
     0
102
RTVSPost2010PropOp35
 70
     0
102
RTVSPost2010Prop36
280
     0
102
RTVSPost2010PropOp36
 70
     0
102
RTVSPost2010Prop37
 90
       50
102
RTVSPost2010PropOp37
 70
     0
102
RTVSPost2010Prop38
140
0.0
102
RTVSPost2010PropOp38
 70
     0
102
RTVSPost2010Prop39
140
1.0
102
RTVSPost2010PropOp39
 70
     0
102
RTVSPost2010Prop40
 90
        0
102
RTVSPost2010PropOp40
 70
     0
102
RTVSPost2010Prop41ColorIndex
 90
      178
102
RTVSPost2010Prop41ColorRGB
 90
        0
102
RTVSPost2010PropOp41
 70
     0
102
RTVSPost2010Prop42
 90
       50
102
RTVSPost2010PropOp42
 70
     0
102
RTVSPost2010Prop43
 90
        3
102
RTVSPost2010PropOp43
 70
     0
102
RTVSPost2010Prop44ColorIndex
 90
        5
102
RTVSPost2010Prop44ColorRGB
 90
      255
102
RTVSPost2010PropOp44
 70
     0
102
RTVSPost2010Prop45
280
     0
102
RTVSPost2010PropOp45
 70
     0
102
RTVSPost2010Prop46
 90
       50
102
RTVSPost2010PropOp46
 70
     0
102
RTVSPost2010Prop47
 90
       50
102
RTVSPost2010PropOp47
 70
     0
102
RTVSPost2010Prop48
 90
       50
102
RTVSPost2010PropOp48
 70
     0
102
RTVSPost2010Prop49
280
     0
102
RTVSPost2010PropOp49
 70
     0
102
RTVSPost2010Prop50
 90
       50
102
RTVSPost2010PropOp50
 70
     0
102
RTVSPost2010Prop51ColorIndex
 90
      256
102
RTVSPost2010Prop51ColorRGB
 90
-16777216
102
RTVSPost2010PropOp51
 70
     0
102
RTVSPost2010Prop52
140
1.0
102
RTVSPost2010PropOp52
 70
     0
102
RTVSPost2010Prop53
 90
        2
102
RTVSPost2010PropOp53
 70
     0
102
RTVSPost2010Prop54
  1
strokes_ogs.tif
102
RTVSPost2010PropOp54
 70
     0
102
RTVSPost2010Prop55
280
     0
102
RTVSPost2010PropOp55
 70
     0
102
RTVSPost2010Prop56
140
1.0
102
RTVSPost2010PropOp56
 70
     0
102
RTVSPost2010Prop57
140
1.0
102
RTVSPost2010PropOp57
 70
     0
  0
XRECORD
  5
386
102
{ACAD_REACTORS
330
385
102
}
330
385
100
AcDbXrecord
280
     1
102
RTVSPropertyOp0
 70
     1
102
RTVSPropertyOp1
 70
     1
102
RTVSPropertyOp2
 70
     1
102
RTVSPropertyOp3
 70
     1
102
RTVSPropertyOp4
 70
     1
102
RTVSPropertyOp5
 70
     1
102
RTVSPropertyOp6
 70
     1
102
RTVSPropertyOp7
 70
     1
102
RTVSPropertyOp8
 70
     1
102
RTVSPropertyOp9
 70
     1
102
RTVSPropertyOp10
 70
     1
102
RTVSPropertyOp11
 70
     1
102
RTVSPropertyOp12
 70
     1
102
RTVSPropertyOp13
 70
     1
102
RTVSPropertyOp14
 70
     1
102
RTVSPropertyOp15
 70
     1
102
RTVSPropertyOp16
 70
     1
102
RTVSPropertyOp17
 70
     1
102
RTVSPropertyOp18
 70
     1
102
RTVSPropertyOp19
 70
     1
102
RTVSPropertyOp20
 70
     1
102
RTVSPropertyOp21
 70
     1
102
RTVSPropertyOp22
 70
     1
102
RTVSPropertyOp23
 70
     1
102
RTVSPropertyOp24
 70
     1
102
RTVSPropertyOp25
 70
     1
102
RTVSPropertyOp26
 70
     1
102
RTVSPropertyOp27
 70
     1
102
RTVSPropertyOp28
 70
     1
102
RTVSPropertyOp29
 70
     1
102
RTVSPropertyOp30
 70
     1
102
RTVSPropertyOp31
 70
     1
102
RTVSPropertyOp32
 70
     1
102
RTVSPropertyOp33
 70
     1
102
RTVSPropertyOp34
 70
     1
102
RTVSPropertyOp35
 70
     1
102
RTVSPropertyOp36
 70
     1
102
RTVSPropertyOp37
 70
     1
102
RTVSPropertyOp38
 70
     1
102
RTVSPropertyOp39
 70
     1
102
RTVSPropertyOp40
 70
     1
102
RTVSPropertyOp41
 70
     1
102
RTVSPropertyOp42
 70
     1
102
RTVSPropertyOp43
 70
     1
102
RTVSPropertyOp44
 70
     1
102
RTVSPropertyOp45
 70
     1
102
RTVSPropertyOp46
 70
     1
102
RTVSPropertyOp47
 70
     1
102
RTVSPropertyOp48
 70
     1
102
RTVSPropertyOp49
 70
     1
102
RTVSPropertyOp50
 70
     1
102
RTVSPropertyOp51
 70
     0
102
RTVSPropertyOp52
 70
     0
102
RTVSPropertyOp53
 70
     1
102
RTVSPropertyOp54
 70
     1
102
RTVSPropertyOp55
 70
     1
102
RTVSPropertyOp56
 70
     1
102
RTVSPropertyOp57
 70
     1
102
RTVSPost2010Prop28
280
     0
102
RTVSPost2010PropOp28
 70
     1
102
RTVSPost2010Prop29
280
     1
102
RTVSPost2010PropOp29
 70
     1
102
RTVSPost2010Prop30
280
     1
102
RTVSPost2010PropOp30
 70
     1
102
RTVSPost2010Prop31
280
     0
102
RTVSPost2010PropOp31
 70
     1
102
RTVSPost2010Prop32
280
     0
102
RTVSPost2010PropOp32
 70
     1
102
RTVSPost2010Prop33
280
     0
102
RTVSPost2010PropOp33
 70
     1
102
RTVSPost2010Prop34
280
     0
102
RTVSPost2010PropOp34
 70
     1
102
RTVSPost2010Prop35
280
     0
102
RTVSPost2010PropOp35
 70
     1
102
RTVSPost2010Prop36
280
     0
102
RTVSPost2010PropOp36
 70
     1
102
RTVSPost2010Prop37
 90
       50
102
RTVSPost2010PropOp37
 70
     1
102
RTVSPost2010Prop38
140
0.0
102
RTVSPost2010PropOp38
 70
     1
102
RTVSPost2010Prop39
140
1.0
102
RTVSPost2010PropOp39
 70
     1
102
RTVSPost2010Prop40
 90
        0
102
RTVSPost2010PropOp40
 70
     1
102
RTVSPost2010Prop41ColorIndex
 90
      178
102
RTVSPost2010Prop41ColorRGB
 90
        0
102
RTVSPost2010PropOp41
 70
     1
102
RTVSPost2010Prop42
 90
       50
102
RTVSPost2010PropOp42
 70
     1
102
RTVSPost2010Prop43
 90
        3
102
RTVSPost2010PropOp43
 70
     1
102
RTVSPost2010Prop44ColorIndex
 90
        5
102
RTVSPost2010Prop44ColorRGB
 90
      255
102
RTVSPost2010PropOp44
 70
     1
102
RTVSPost2010Prop45
280
     0
102
RTVSPost2010PropOp45
 70
     1
102
RTVSPost2010Prop46
 90
       50
102
RTVSPost2010PropOp46
 70
     1
102
RTVSPost2010Prop47
 90
       50
102
RTVSPost2010PropOp47
 70
     1
102
RTVSPost2010Prop48
 90
       50
102
RTVSPost2010PropOp48
 70
     1
102
RTVSPost2010Prop49
280
     0
102
RTVSPost2010PropOp49
 70
     1
102
RTVSPost2010Prop50
 90
       50
102
RTVSPost2010PropOp50
 70
     1
102
RTVSPost2010Prop51ColorIndex
 90
      256
102
RTVSPost2010Prop51ColorRGB
 90
-16777216
102
RTVSPost2010PropOp51
 70
     0
102
RTVSPost2010Prop52
140
1.0
102
RTVSPost2010PropOp52
 70
     0
102
RTVSPost2010Prop53
 90
        2
102
RTVSPost2010PropOp53
 70
     1
102
RTVSPost2010Prop54
  1
strokes_ogs.tif
102
RTVSPost2010PropOp54
 70
     1
102
RTVSPost2010Prop55
280
     0
102
RTVSPost2010PropOp55
 70
     1
102
RTVSPost2010Prop56
140
1.0
102
RTVSPost2010PropOp56
 70
     1
102
RTVSPost2010Prop57
140
1.0
102
RTVSPost2010PropOp57
 70
     1
  0
XRECORD
  5
38E
102
{ACAD_REACTORS
330
38D
102
}
330
38D
100
AcDbXrecord
280
     1
102
RTVSPropertyOp0
 70
     0
102
RTVSPropertyOp1
 70
     0
102
RTVSPropertyOp2
 70
     0
102
RTVSPropertyOp3
 70
     0
102
RTVSPropertyOp4
 70
     0
102
RTVSPropertyOp5
 70
     0
102
RTVSPropertyOp6
 70
     0
102
RTVSPropertyOp7
 70
     0
102
RTVSPropertyOp8
 70
     0
102
RTVSPropertyOp9
 70
     0
102
RTVSPropertyOp10
 70
     0
102
RTVSPropertyOp11
 70
     0
102
RTVSPropertyOp12
 70
     0
102
RTVSPropertyOp13
 70
     0
102
RTVSPropertyOp14
 70
     2
102
RTVSPropertyOp15
 70
     0
102
RTVSPropertyOp16
 70
     0
102
RTVSPropertyOp17
 70
     0
102
RTVSPropertyOp18
 70
     0
102
RTVSPropertyOp19
 70
     0
102
RTVSPropertyOp20
 70
     0
102
RTVSPropertyOp21
 70
     0
102
RTVSPropertyOp22
 70
     0
102
RTVSPropertyOp23
 70
     0
102
RTVSPropertyOp24
 70
     0
102
RTVSPropertyOp25
 70
     0
102
RTVSPropertyOp26
 70
     0
102
RTVSPropertyOp27
 70
     0
102
RTVSPropertyOp28
 70
     0
102
RTVSPropertyOp29
 70
     0
102
RTVSPropertyOp30
 70
     0
102
RTVSPropertyOp31
 70
     0
102
RTVSPropertyOp32
 70
     0
102
RTVSPropertyOp33
 70
     0
102
RTVSPropertyOp34
 70
     0
102
RTVSPropertyOp35
 70
     0
102
RTVSPropertyOp36
 70
     0
102
RTVSPropertyOp37
 70
     0
102
RTVSPropertyOp38
 70
     0
102
RTVSPropertyOp39
 70
     0
102
RTVSPropertyOp40
 70
     0
102
RTVSPropertyOp41
 70
     0
102
RTVSPropertyOp42
 70
     0
102
RTVSPropertyOp43
 70
     0
102
RTVSPropertyOp44
 70
     0
102
RTVSPropertyOp45
 70
     0
102
RTVSPropertyOp46
 70
     0
102
RTVSPropertyOp47
 70
     0
102
RTVSPropertyOp48
 70
     0
102
RTVSPropertyOp49
 70
     0
102
RTVSPropertyOp50
 70
     0
102
RTVSPropertyOp51
 70
     0
102
RTVSPropertyOp52
 70
     0
102
RTVSPropertyOp53
 70
     0
102
RTVSPropertyOp54
 70
     0
102
RTVSPropertyOp55
 70
     0
102
RTVSPropertyOp56
 70
     0
102
RTVSPropertyOp57
 70
     0
102
RTVSPost2010Prop28
280
     0
102
RTVSPost2010PropOp28
 70
     0
102
RTVSPost2010Prop29
280
     1
102
RTVSPost2010PropOp29
 70
     0
102
RTVSPost2010Prop30
280
     1
102
RTVSPost2010PropOp30
 70
     0
102
RTVSPost2010Prop31
280
     0
102
RTVSPost2010PropOp31
 70
     0
102
RTVSPost2010Prop32
280
     0
102
RTVSPost2010PropOp32
 70
     0
102
RTVSPost2010Prop33
280
     0
102
RTVSPost2010PropOp33
 70
     0
102
RTVSPost2010Prop34
280
     0
102
RTVSPost2010PropOp34
 70
     0
102
RTVSPost2010Prop35
280
     0
102
RTVSPost2010PropOp35
 70
     0
102
RTVSPost2010Prop36
280
     0
102
RTVSPost2010PropOp36
 70
     0
102
RTVSPost2010Prop37
 90
       50
102
RTVSPost2010PropOp37
 70
     0
102
RTVSPost2010Prop38
140
0.0
102
RTVSPost2010PropOp38
 70
     0
102
RTVSPost2010Prop39
140
1.0
102
RTVSPost2010PropOp39
 70
     0
102
RTVSPost2010Prop40
 90
        0
102
RTVSPost2010PropOp40
 70
     0
102
RTVSPost2010Prop41ColorIndex
 90
      178
102
RTVSPost2010Prop41ColorRGB
 90
        0
102
RTVSPost2010PropOp41
 70
     0
102
RTVSPost2010Prop42
 90
       50
102
RTVSPost2010PropOp42
 70
     0
102
RTVSPost2010Prop43
 90
        3
102
RTVSPost2010PropOp43
 70
     0
102
RTVSPost2010Prop44ColorIndex
 90
        5
102
RTVSPost2010Prop44ColorRGB
 90
      255
102
RTVSPost2010PropOp44
 70
     0
102
RTVSPost2010Prop45
280
     0
102
RTVSPost2010PropOp45
 70
     0
102
RTVSPost2010Prop46
 90
       50
102
RTVSPost2010PropOp46
 70
     0
102
RTVSPost2010Prop47
 90
       50
102
RTVSPost2010PropOp47
 70
     0
102
RTVSPost2010Prop48
 90
       50
102
RTVSPost2010PropOp48
 70
     0
102
RTVSPost2010Prop49
280
     0
102
RTVSPost2010PropOp49
 70
     0
102
RTVSPost2010Prop50
 90
       50
102
RTVSPost2010PropOp50
 70
     0
102
RTVSPost2010Prop51ColorIndex
 90
      256
102
RTVSPost2010Prop51ColorRGB
 90
-16777216
102
RTVSPost2010PropOp51
 70
     0
102
RTVSPost2010Prop52
140
1.0
102
RTVSPost2010PropOp52
 70
     0
102
RTVSPost2010Prop53
 90
        2
102
RTVSPost2010PropOp53
 70
     0
102
RTVSPost2010Prop54
  1
strokes_ogs.tif
102
RTVSPost2010PropOp54
 70
     0
102
RTVSPost2010Prop55
280
     0
102
RTVSPost2010PropOp55
 70
     0
102
RTVSPost2010Prop56
140
1.0
102
RTVSPost2010PropOp56
 70
     0
102
RTVSPost2010Prop57
140
1.0
102
RTVSPost2010PropOp57
 70
     0
  0
XRECORD
  5
37C
102
{ACAD_REACTORS
330
37B
102
}
330
37B
100
AcDbXrecord
280
     1
102
RTVSPropertyOp0
 70
     1
102
RTVSPropertyOp1
 70
     1
102
RTVSPropertyOp2
 70
     1
102
RTVSPropertyOp3
 70
     1
102
RTVSPropertyOp4
 70
     1
102
RTVSPropertyOp5
 70
     1
102
RTVSPropertyOp6
 70
     1
102
RTVSPropertyOp7
 70
     1
102
RTVSPropertyOp8
 70
     1
102
RTVSPropertyOp9
 70
     1
102
RTVSPropertyOp10
 70
     1
102
RTVSPropertyOp11
 70
     1
102
RTVSPropertyOp12
 70
     1
102
RTVSPropertyOp13
 70
     1
102
RTVSPropertyOp14
 70
     1
102
RTVSPropertyOp15
 70
     1
102
RTVSPropertyOp16
 70
     1
102
RTVSPropertyOp17
 70
     1
102
RTVSPropertyOp18
 70
     1
102
RTVSPropertyOp19
 70
     1
102
RTVSPropertyOp20
 70
     1
102
RTVSPropertyOp21
 70
     1
102
RTVSPropertyOp22
 70
     1
102
RTVSPropertyOp23
 70
     1
102
RTVSPropertyOp24
 70
     1
102
RTVSPropertyOp25
 70
     1
102
RTVSPropertyOp26
 70
     1
102
RTVSPropertyOp27
 70
     1
102
RTVSPropertyOp28
 70
     1
102
RTVSPropertyOp29
 70
     1
102
RTVSPropertyOp30
 70
     1
102
RTVSPropertyOp31
 70
     1
102
RTVSPropertyOp32
 70
     1
102
RTVSPropertyOp33
 70
     1
102
RTVSPropertyOp34
 70
     1
102
RTVSPropertyOp35
 70
     1
102
RTVSPropertyOp36
 70
     1
102
RTVSPropertyOp37
 70
     1
102
RTVSPropertyOp38
 70
     1
102
RTVSPropertyOp39
 70
     1
102
RTVSPropertyOp40
 70
     1
102
RTVSPropertyOp41
 70
     1
102
RTVSPropertyOp42
 70
     1
102
RTVSPropertyOp43
 70
     1
102
RTVSPropertyOp44
 70
     1
102
RTVSPropertyOp45
 70
     1
102
RTVSPropertyOp46
 70
     1
102
RTVSPropertyOp47
 70
     1
102
RTVSPropertyOp48
 70
     1
102
RTVSPropertyOp49
 70
     1
102
RTVSPropertyOp50
 70
     1
102
RTVSPropertyOp51
 70
     0
102
RTVSPropertyOp52
 70
     0
102
RTVSPropertyOp53
 70
     1
102
RTVSPropertyOp54
 70
     1
102
RTVSPropertyOp55
 70
     1
102
RTVSPropertyOp56
 70
     1
102
RTVSPropertyOp57
 70
     1
102
RTVSPost2010Prop28
280
     0
102
RTVSPost2010PropOp28
 70
     1
102
RTVSPost2010Prop29
280
     1
102
RTVSPost2010PropOp29
 70
     1
102
RTVSPost2010Prop30
280
     1
102
RTVSPost2010PropOp30
 70
     1
102
RTVSPost2010Prop31
280
     0
102
RTVSPost2010PropOp31
 70
     1
102
RTVSPost2010Prop32
280
     0
102
RTVSPost2010PropOp32
 70
     1
102
RTVSPost2010Prop33
280
     0
102
RTVSPost2010PropOp33
 70
     1
102
RTVSPost2010Prop34
280
     0
102
RTVSPost2010PropOp34
 70
     1
102
RTVSPost2010Prop35
280
     0
102
RTVSPost2010PropOp35
 70
     1
102
RTVSPost2010Prop36
280
     0
102
RTVSPost2010PropOp36
 70
     1
102
RTVSPost2010Prop37
 90
       50
102
RTVSPost2010PropOp37
 70
     1
102
RTVSPost2010Prop38
140
0.0
102
RTVSPost2010PropOp38
 70
     1
102
RTVSPost2010Prop39
140
1.0
102
RTVSPost2010PropOp39
 70
     1
102
RTVSPost2010Prop40
 90
        0
102
RTVSPost2010PropOp40
 70
     1
102
RTVSPost2010Prop41ColorIndex
 90
      178
102
RTVSPost2010Prop41ColorRGB
 90
        0
102
RTVSPost2010PropOp41
 70
     1
102
RTVSPost2010Prop42
 90
       50
102
RTVSPost2010PropOp42
 70
     1
102
RTVSPost2010Prop43
 90
        3
102
RTVSPost2010PropOp43
 70
     1
102
RTVSPost2010Prop44ColorIndex
 90
        5
102
RTVSPost2010Prop44ColorRGB
 90
      255
102
RTVSPost2010PropOp44
 70
     1
102
RTVSPost2010Prop45
280
     0
102
RTVSPost2010PropOp45
 70
     1
102
RTVSPost2010Prop46
 90
       50
102
RTVSPost2010PropOp46
 70
     1
102
RTVSPost2010Prop47
 90
       50
102
RTVSPost2010PropOp47
 70
     1
102
RTVSPost2010Prop48
 90
       50
102
RTVSPost2010PropOp48
 70
     1
102
RTVSPost2010Prop49
280
     0
102
RTVSPost2010PropOp49
 70
     1
102
RTVSPost2010Prop50
 90
       50
102
RTVSPost2010PropOp50
 70
     1
102
RTVSPost2010Prop51ColorIndex
 90
      256
102
RTVSPost2010Prop51ColorRGB
 90
-16777216
102
RTVSPost2010PropOp51
 70
     0
102
RTVSPost2010Prop52
140
1.0
102
RTVSPost2010PropOp52
 70
     0
102
RTVSPost2010Prop53
 90
        2
102
RTVSPost2010PropOp53
 70
     1
102
RTVSPost2010Prop54
  1
strokes_ogs.tif
102
RTVSPost2010PropOp54
 70
     1
102
RTVSPost2010Prop55
280
     0
102
RTVSPost2010PropOp55
 70
     1
102
RTVSPost2010Prop56
140
1.0
102
RTVSPost2010PropOp56
 70
     1
102
RTVSPost2010Prop57
140
1.0
102
RTVSPost2010PropOp57
 70
     1
  0
XRECORD
  5
39A
102
{ACAD_REACTORS
330
399
102
}
330
399
100
AcDbXrecord
280
     1
102
RTVSPropertyOp0
 70
     1
102
RTVSPropertyOp1
 70
     1
102
RTVSPropertyOp2
 70
     1
102
RTVSPropertyOp3
 70
     1
102
RTVSPropertyOp4
 70
     1
102
RTVSPropertyOp5
 70
     1
102
RTVSPropertyOp6
 70
     1
102
RTVSPropertyOp7
 70
     1
102
RTVSPropertyOp8
 70
     1
102
RTVSPropertyOp9
 70
     1
102
RTVSPropertyOp10
 70
     1
102
RTVSPropertyOp11
 70
     1
102
RTVSPropertyOp12
 70
     1
102
RTVSPropertyOp13
 70
     1
102
RTVSPropertyOp14
 70
     1
102
RTVSPropertyOp15
 70
     1
102
RTVSPropertyOp16
 70
     1
102
RTVSPropertyOp17
 70
     1
102
RTVSPropertyOp18
 70
     1
102
RTVSPropertyOp19
 70
     1
102
RTVSPropertyOp20
 70
     1
102
RTVSPropertyOp21
 70
     1
102
RTVSPropertyOp22
 70
     1
102
RTVSPropertyOp23
 70
     1
102
RTVSPropertyOp24
 70
     1
102
RTVSPropertyOp25
 70
     1
102
RTVSPropertyOp26
 70
     1
102
RTVSPropertyOp27
 70
     1
102
RTVSPropertyOp28
 70
     1
102
RTVSPropertyOp29
 70
     1
102
RTVSPropertyOp30
 70
     1
102
RTVSPropertyOp31
 70
     1
102
RTVSPropertyOp32
 70
     1
102
RTVSPropertyOp33
 70
     1
102
RTVSPropertyOp34
 70
     1
102
RTVSPropertyOp35
 70
     1
102
RTVSPropertyOp36
 70
     1
102
RTVSPropertyOp37
 70
     1
102
RTVSPropertyOp38
 70
     1
102
RTVSPropertyOp39
 70
     1
102
RTVSPropertyOp40
 70
     1
102
RTVSPropertyOp41
 70
     1
102
RTVSPropertyOp42
 70
     1
102
RTVSPropertyOp43
 70
     1
102
RTVSPropertyOp44
 70
     1
102
RTVSPropertyOp45
 70
     1
102
RTVSPropertyOp46
 70
     1
102
RTVSPropertyOp47
 70
     1
102
RTVSPropertyOp48
 70
     1
102
RTVSPropertyOp49
 70
     1
102
RTVSPropertyOp50
 70
     1
102
RTVSPropertyOp51
 70
     0
102
RTVSPropertyOp52
 70
     0
102
RTVSPropertyOp53
 70
     1
102
RTVSPropertyOp54
 70
     1
102
RTVSPropertyOp55
 70
     1
102
RTVSPropertyOp56
 70
     1
102
RTVSPropertyOp57
 70
     1
102
RTVSPost2010Prop28
280
     0
102
RTVSPost2010PropOp28
 70
     1
102
RTVSPost2010Prop29
280
     1
102
RTVSPost2010PropOp29
 70
     1
102
RTVSPost2010Prop30
280
     1
102
RTVSPost2010PropOp30
 70
     1
102
RTVSPost2010Prop31
280
     0
102
RTVSPost2010PropOp31
 70
     1
102
RTVSPost2010Prop32
280
     0
102
RTVSPost2010PropOp32
 70
     1
102
RTVSPost2010Prop33
280
     0
102
RTVSPost2010PropOp33
 70
     1
102
RTVSPost2010Prop34
280
     0
102
RTVSPost2010PropOp34
 70
     1
102
RTVSPost2010Prop35
280
     0
102
RTVSPost2010PropOp35
 70
     1
102
RTVSPost2010Prop36
280
     0
102
RTVSPost2010PropOp36
 70
     1
102
RTVSPost2010Prop37
 90
       50
102
RTVSPost2010PropOp37
 70
     1
102
RTVSPost2010Prop38
140
0.0
102
RTVSPost2010PropOp38
 70
     1
102
RTVSPost2010Prop39
140
1.0
102
RTVSPost2010PropOp39
 70
     1
102
RTVSPost2010Prop40
 90
        0
102
RTVSPost2010PropOp40
 70
     1
102
RTVSPost2010Prop41ColorIndex
 90
      178
102
RTVSPost2010Prop41ColorRGB
 90
        0
102
RTVSPost2010PropOp41
 70
     1
102
RTVSPost2010Prop42
 90
       50
102
RTVSPost2010PropOp42
 70
     1
102
RTVSPost2010Prop43
 90
        3
102
RTVSPost2010PropOp43
 70
     1
102
RTVSPost2010Prop44ColorIndex
 90
        5
102
RTVSPost2010Prop44ColorRGB
 90
      255
102
RTVSPost2010PropOp44
 70
     1
102
RTVSPost2010Prop45
280
     0
102
RTVSPost2010PropOp45
 70
     1
102
RTVSPost2010Prop46
 90
       50
102
RTVSPost2010PropOp46
 70
     1
102
RTVSPost2010Prop47
 90
       50
102
RTVSPost2010PropOp47
 70
     1
102
RTVSPost2010Prop48
 90
       50
102
RTVSPost2010PropOp48
 70
     1
102
RTVSPost2010Prop49
280
     0
102
RTVSPost2010PropOp49
 70
     1
102
RTVSPost2010Prop50
 90
       50
102
RTVSPost2010PropOp50
 70
     1
102
RTVSPost2010Prop51ColorIndex
 90
      256
102
RTVSPost2010Prop51ColorRGB
 90
-16777216
102
RTVSPost2010PropOp51
 70
     0
102
RTVSPost2010Prop52
140
1.0
102
RTVSPost2010PropOp52
 70
     0
102
RTVSPost2010Prop53
 90
        2
102
RTVSPost2010PropOp53
 70
     1
102
RTVSPost2010Prop54
  1
strokes_ogs.tif
102
RTVSPost2010PropOp54
 70
     1
102
RTVSPost2010Prop55
280
     0
102
RTVSPost2010PropOp55
 70
     1
102
RTVSPost2010Prop56
140
1.0
102
RTVSPost2010PropOp56
 70
     1
102
RTVSPost2010Prop57
140
1.0
102
RTVSPost2010PropOp57
 70
     1
  0
XRECORD
  5
398
102
{ACAD_REACTORS
330
397
102
}
330
397
100
AcDbXrecord
280
     1
102
RTVSPropertyOp0
 70
     1
102
RTVSPropertyOp1
 70
     1
102
RTVSPropertyOp2
 70
     1
102
RTVSPropertyOp3
 70
     1
102
RTVSPropertyOp4
 70
     1
102
RTVSPropertyOp5
 70
     1
102
RTVSPropertyOp6
 70
     1
102
RTVSPropertyOp7
 70
     1
102
RTVSPropertyOp8
 70
     1
102
RTVSPropertyOp9
 70
     1
102
RTVSPropertyOp10
 70
     1
102
RTVSPropertyOp11
 70
     1
102
RTVSPropertyOp12
 70
     1
102
RTVSPropertyOp13
 70
     1
102
RTVSPropertyOp14
 70
     1
102
RTVSPropertyOp15
 70
     1
102
RTVSPropertyOp16
 70
     1
102
RTVSPropertyOp17
 70
     1
102
RTVSPropertyOp18
 70
     1
102
RTVSPropertyOp19
 70
     1
102
RTVSPropertyOp20
 70
     1
102
RTVSPropertyOp21
 70
     1
102
RTVSPropertyOp22
 70
     1
102
RTVSPropertyOp23
 70
     1
102
RTVSPropertyOp24
 70
     1
102
RTVSPropertyOp25
 70
     1
102
RTVSPropertyOp26
 70
     1
102
RTVSPropertyOp27
 70
     1
102
RTVSPropertyOp28
 70
     1
102
RTVSPropertyOp29
 70
     1
102
RTVSPropertyOp30
 70
     1
102
RTVSPropertyOp31
 70
     1
102
RTVSPropertyOp32
 70
     1
102
RTVSPropertyOp33
 70
     1
102
RTVSPropertyOp34
 70
     1
102
RTVSPropertyOp35
 70
     1
102
RTVSPropertyOp36
 70
     1
102
RTVSPropertyOp37
 70
     1
102
RTVSPropertyOp38
 70
     1
102
RTVSPropertyOp39
 70
     1
102
RTVSPropertyOp40
 70
     1
102
RTVSPropertyOp41
 70
     1
102
RTVSPropertyOp42
 70
     1
102
RTVSPropertyOp43
 70
     1
102
RTVSPropertyOp44
 70
     1
102
RTVSPropertyOp45
 70
     1
102
RTVSPropertyOp46
 70
     1
102
RTVSPropertyOp47
 70
     1
102
RTVSPropertyOp48
 70
     1
102
RTVSPropertyOp49
 70
     1
102
RTVSPropertyOp50
 70
     1
102
RTVSPropertyOp51
 70
     0
102
RTVSPropertyOp52
 70
     0
102
RTVSPropertyOp53
 70
     1
102
RTVSPropertyOp54
 70
     1
102
RTVSPropertyOp55
 70
     1
102
RTVSPropertyOp56
 70
     1
102
RTVSPropertyOp57
 70
     1
102
RTVSPost2010Prop28
280
     0
102
RTVSPost2010PropOp28
 70
     1
102
RTVSPost2010Prop29
280
     1
102
RTVSPost2010PropOp29
 70
     1
102
RTVSPost2010Prop30
280
     1
102
RTVSPost2010PropOp30
 70
     1
102
RTVSPost2010Prop31
280
     0
102
RTVSPost2010PropOp31
 70
     1
102
RTVSPost2010Prop32
280
     0
102
RTVSPost2010PropOp32
 70
     1
102
RTVSPost2010Prop33
280
     0
102
RTVSPost2010PropOp33
 70
     1
102
RTVSPost2010Prop34
280
     0
102
RTVSPost2010PropOp34
 70
     1
102
RTVSPost2010Prop35
280
     0
102
RTVSPost2010PropOp35
 70
     1
102
RTVSPost2010Prop36
280
     0
102
RTVSPost2010PropOp36
 70
     1
102
RTVSPost2010Prop37
 90
       50
102
RTVSPost2010PropOp37
 70
     1
102
RTVSPost2010Prop38
140
0.0
102
RTVSPost2010PropOp38
 70
     1
102
RTVSPost2010Prop39
140
1.0
102
RTVSPost2010PropOp39
 70
     1
102
RTVSPost2010Prop40
 90
        0
102
RTVSPost2010PropOp40
 70
     1
102
RTVSPost2010Prop41ColorIndex
 90
      178
102
RTVSPost2010Prop41ColorRGB
 90
        0
102
RTVSPost2010PropOp41
 70
     1
102
RTVSPost2010Prop42
 90
       50
102
RTVSPost2010PropOp42
 70
     1
102
RTVSPost2010Prop43
 90
        3
102
RTVSPost2010PropOp43
 70
     1
102
RTVSPost2010Prop44ColorIndex
 90
        5
102
RTVSPost2010Prop44ColorRGB
 90
      255
102
RTVSPost2010PropOp44
 70
     1
102
RTVSPost2010Prop45
280
     0
102
RTVSPost2010PropOp45
 70
     1
102
RTVSPost2010Prop46
 90
       50
102
RTVSPost2010PropOp46
 70
     1
102
RTVSPost2010Prop47
 90
       50
102
RTVSPost2010PropOp47
 70
     1
102
RTVSPost2010Prop48
 90
       50
102
RTVSPost2010PropOp48
 70
     1
102
RTVSPost2010Prop49
280
     0
102
RTVSPost2010PropOp49
 70
     1
102
RTVSPost2010Prop50
 90
       50
102
RTVSPost2010PropOp50
 70
     1
102
RTVSPost2010Prop51ColorIndex
 90
      256
102
RTVSPost2010Prop51ColorRGB
 90
-16777216
102
RTVSPost2010PropOp51
 70
     0
102
RTVSPost2010Prop52
140
1.0
102
RTVSPost2010PropOp52
 70
     0
102
RTVSPost2010Prop53
 90
        2
102
RTVSPost2010PropOp53
 70
     1
102
RTVSPost2010Prop54
  1
strokes_ogs.tif
102
RTVSPost2010PropOp54
 70
     1
102
RTVSPost2010Prop55
280
     0
102
RTVSPost2010PropOp55
 70
     1
102
RTVSPost2010Prop56
140
1.0
102
RTVSPost2010PropOp56
 70
     1
102
RTVSPost2010Prop57
140
1.0
102
RTVSPost2010PropOp57
 70
     1
  0
XRECORD
  5
392
102
{ACAD_REACTORS
330
391
102
}
330
391
100
AcDbXrecord
280
     1
102
RTVSPropertyOp0
 70
     1
102
RTVSPropertyOp1
 70
     1
102
RTVSPropertyOp2
 70
     1
102
RTVSPropertyOp3
 70
     1
102
RTVSPropertyOp4
 70
     1
102
RTVSPropertyOp5
 70
     1
102
RTVSPropertyOp6
 70
     1
102
RTVSPropertyOp7
 70
     1
102
RTVSPropertyOp8
 70
     1
102
RTVSPropertyOp9
 70
     1
102
RTVSPropertyOp10
 70
     1
102
RTVSPropertyOp11
 70
     1
102
RTVSPropertyOp12
 70
     1
102
RTVSPropertyOp13
 70
     1
102
RTVSPropertyOp14
 70
     1
102
RTVSPropertyOp15
 70
     1
102
RTVSPropertyOp16
 70
     1
102
RTVSPropertyOp17
 70
     1
102
RTVSPropertyOp18
 70
     1
102
RTVSPropertyOp19
 70
     1
102
RTVSPropertyOp20
 70
     1
102
RTVSPropertyOp21
 70
     1
102
RTVSPropertyOp22
 70
     1
102
RTVSPropertyOp23
 70
     1
102
RTVSPropertyOp24
 70
     1
102
RTVSPropertyOp25
 70
     1
102
RTVSPropertyOp26
 70
     1
102
RTVSPropertyOp27
 70
     1
102
RTVSPropertyOp28
 70
     1
102
RTVSPropertyOp29
 70
     1
102
RTVSPropertyOp30
 70
     1
102
RTVSPropertyOp31
 70
     1
102
RTVSPropertyOp32
 70
     1
102
RTVSPropertyOp33
 70
     1
102
RTVSPropertyOp34
 70
     1
102
RTVSPropertyOp35
 70
     1
102
RTVSPropertyOp36
 70
     1
102
RTVSPropertyOp37
 70
     1
102
RTVSPropertyOp38
 70
     1
102
RTVSPropertyOp39
 70
     1
102
RTVSPropertyOp40
 70
     1
102
RTVSPropertyOp41
 70
     1
102
RTVSPropertyOp42
 70
     1
102
RTVSPropertyOp43
 70
     1
102
RTVSPropertyOp44
 70
     1
102
RTVSPropertyOp45
 70
     1
102
RTVSPropertyOp46
 70
     1
102
RTVSPropertyOp47
 70
     1
102
RTVSPropertyOp48
 70
     1
102
RTVSPropertyOp49
 70
     1
102
RTVSPropertyOp50
 70
     1
102
RTVSPropertyOp51
 70
     0
102
RTVSPropertyOp52
 70
     0
102
RTVSPropertyOp53
 70
     1
102
RTVSPropertyOp54
 70
     1
102
RTVSPropertyOp55
 70
     1
102
RTVSPropertyOp56
 70
     1
102
RTVSPropertyOp57
 70
     1
102
RTVSPost2010Prop28
280
     0
102
RTVSPost2010PropOp28
 70
     1
102
RTVSPost2010Prop29
280
     1
102
RTVSPost2010PropOp29
 70
     1
102
RTVSPost2010Prop30
280
     1
102
RTVSPost2010PropOp30
 70
     1
102
RTVSPost2010Prop31
280
     0
102
RTVSPost2010PropOp31
 70
     1
102
RTVSPost2010Prop32
280
     0
102
RTVSPost2010PropOp32
 70
     1
102
RTVSPost2010Prop33
280
     0
102
RTVSPost2010PropOp33
 70
     1
102
RTVSPost2010Prop34
280
     0
102
RTVSPost2010PropOp34
 70
     1
102
RTVSPost2010Prop35
280
     0
102
RTVSPost2010PropOp35
 70
     1
102
RTVSPost2010Prop36
280
     0
102
RTVSPost2010PropOp36
 70
     1
102
RTVSPost2010Prop37
 90
       50
102
RTVSPost2010PropOp37
 70
     1
102
RTVSPost2010Prop38
140
0.0
102
RTVSPost2010PropOp38
 70
     1
102
RTVSPost2010Prop39
140
1.0
102
RTVSPost2010PropOp39
 70
     1
102
RTVSPost2010Prop40
 90
        0
102
RTVSPost2010PropOp40
 70
     1
102
RTVSPost2010Prop41ColorIndex
 90
      178
102
RTVSPost2010Prop41ColorRGB
 90
        0
102
RTVSPost2010PropOp41
 70
     1
102
RTVSPost2010Prop42
 90
       50
102
RTVSPost2010PropOp42
 70
     1
102
RTVSPost2010Prop43
 90
        3
102
RTVSPost2010PropOp43
 70
     1
102
RTVSPost2010Prop44ColorIndex
 90
        5
102
RTVSPost2010Prop44ColorRGB
 90
      255
102
RTVSPost2010PropOp44
 70
     1
102
RTVSPost2010Prop45
280
     0
102
RTVSPost2010PropOp45
 70
     1
102
RTVSPost2010Prop46
 90
       50
102
RTVSPost2010PropOp46
 70
     1
102
RTVSPost2010Prop47
 90
       50
102
RTVSPost2010PropOp47
 70
     1
102
RTVSPost2010Prop48
 90
       50
102
RTVSPost2010PropOp48
 70
     1
102
RTVSPost2010Prop49
280
     0
102
RTVSPost2010PropOp49
 70
     1
102
RTVSPost2010Prop50
 90
       50
102
RTVSPost2010PropOp50
 70
     1
102
RTVSPost2010Prop51ColorIndex
 90
      256
102
RTVSPost2010Prop51ColorRGB
 90
-16777216
102
RTVSPost2010PropOp51
 70
     0
102
RTVSPost2010Prop52
140
1.0
102
RTVSPost2010PropOp52
 70
     0
102
RTVSPost2010Prop53
 90
        2
102
RTVSPost2010PropOp53
 70
     1
102
RTVSPost2010Prop54
  1
strokes_ogs.tif
102
RTVSPost2010PropOp54
 70
     1
102
RTVSPost2010Prop55
280
     0
102
RTVSPost2010PropOp55
 70
     1
102
RTVSPost2010Prop56
140
1.0
102
RTVSPost2010PropOp56
 70
     1
102
RTVSPost2010Prop57
140
1.0
102
RTVSPost2010PropOp57
 70
     1
  0
XRECORD
  5
394
102
{ACAD_REACTORS
330
393
102
}
330
393
100
AcDbXrecord
280
     1
102
RTVSPropertyOp0
 70
     1
102
RTVSPropertyOp1
 70
     1
102
RTVSPropertyOp2
 70
     1
102
RTVSPropertyOp3
 70
     1
102
RTVSPropertyOp4
 70
     1
102
RTVSPropertyOp5
 70
     1
102
RTVSPropertyOp6
 70
     1
102
RTVSPropertyOp7
 70
     1
102
RTVSPropertyOp8
 70
     1
102
RTVSPropertyOp9
 70
     1
102
RTVSPropertyOp10
 70
     1
102
RTVSPropertyOp11
 70
     1
102
RTVSPropertyOp12
 70
     1
102
RTVSPropertyOp13
 70
     1
102
RTVSPropertyOp14
 70
     1
102
RTVSPropertyOp15
 70
     1
102
RTVSPropertyOp16
 70
     1
102
RTVSPropertyOp17
 70
     1
102
RTVSPropertyOp18
 70
     1
102
RTVSPropertyOp19
 70
     1
102
RTVSPropertyOp20
 70
     1
102
RTVSPropertyOp21
 70
     1
102
RTVSPropertyOp22
 70
     1
102
RTVSPropertyOp23
 70
     1
102
RTVSPropertyOp24
 70
     1
102
RTVSPropertyOp25
 70
     1
102
RTVSPropertyOp26
 70
     1
102
RTVSPropertyOp27
 70
     1
102
RTVSPropertyOp28
 70
     1
102
RTVSPropertyOp29
 70
     1
102
RTVSPropertyOp30
 70
     1
102
RTVSPropertyOp31
 70
     1
102
RTVSPropertyOp32
 70
     1
102
RTVSPropertyOp33
 70
     1
102
RTVSPropertyOp34
 70
     1
102
RTVSPropertyOp35
 70
     1
102
RTVSPropertyOp36
 70
     1
102
RTVSPropertyOp37
 70
     1
102
RTVSPropertyOp38
 70
     1
102
RTVSPropertyOp39
 70
     1
102
RTVSPropertyOp40
 70
     1
102
RTVSPropertyOp41
 70
     1
102
RTVSPropertyOp42
 70
     1
102
RTVSPropertyOp43
 70
     1
102
RTVSPropertyOp44
 70
     1
102
RTVSPropertyOp45
 70
     1
102
RTVSPropertyOp46
 70
     1
102
RTVSPropertyOp47
 70
     1
102
RTVSPropertyOp48
 70
     1
102
RTVSPropertyOp49
 70
     1
102
RTVSPropertyOp50
 70
     1
102
RTVSPropertyOp51
 70
     0
102
RTVSPropertyOp52
 70
     0
102
RTVSPropertyOp53
 70
     1
102
RTVSPropertyOp54
 70
     1
102
RTVSPropertyOp55
 70
     1
102
RTVSPropertyOp56
 70
     1
102
RTVSPropertyOp57
 70
     1
102
RTVSPost2010Prop28
280
     0
102
RTVSPost2010PropOp28
 70
     1
102
RTVSPost2010Prop29
280
     1
102
RTVSPost2010PropOp29
 70
     1
102
RTVSPost2010Prop30
280
     1
102
RTVSPost2010PropOp30
 70
     1
102
RTVSPost2010Prop31
280
     0
102
RTVSPost2010PropOp31
 70
     1
102
RTVSPost2010Prop32
280
     0
102
RTVSPost2010PropOp32
 70
     1
102
RTVSPost2010Prop33
280
     0
102
RTVSPost2010PropOp33
 70
     1
102
RTVSPost2010Prop34
280
     0
102
RTVSPost2010PropOp34
 70
     1
102
RTVSPost2010Prop35
280
     0
102
RTVSPost2010PropOp35
 70
     1
102
RTVSPost2010Prop36
280
     0
102
RTVSPost2010PropOp36
 70
     1
102
RTVSPost2010Prop37
 90
       50
102
RTVSPost2010PropOp37
 70
     1
102
RTVSPost2010Prop38
140
0.0
102
RTVSPost2010PropOp38
 70
     1
102
RTVSPost2010Prop39
140
1.0
102
RTVSPost2010PropOp39
 70
     1
102
RTVSPost2010Prop40
 90
        0
102
RTVSPost2010PropOp40
 70
     1
102
RTVSPost2010Prop41ColorIndex
 90
      178
102
RTVSPost2010Prop41ColorRGB
 90
        0
102
RTVSPost2010PropOp41
 70
     1
102
RTVSPost2010Prop42
 90
       50
102
RTVSPost2010PropOp42
 70
     1
102
RTVSPost2010Prop43
 90
        3
102
RTVSPost2010PropOp43
 70
     1
102
RTVSPost2010Prop44ColorIndex
 90
        5
102
RTVSPost2010Prop44ColorRGB
 90
      255
102
RTVSPost2010PropOp44
 70
     1
102
RTVSPost2010Prop45
280
     0
102
RTVSPost2010PropOp45
 70
     1
102
RTVSPost2010Prop46
 90
       50
102
RTVSPost2010PropOp46
 70
     1
102
RTVSPost2010Prop47
 90
       50
102
RTVSPost2010PropOp47
 70
     1
102
RTVSPost2010Prop48
 90
       50
102
RTVSPost2010PropOp48
 70
     1
102
RTVSPost2010Prop49
280
     0
102
RTVSPost2010PropOp49
 70
     1
102
RTVSPost2010Prop50
 90
       50
102
RTVSPost2010PropOp50
 70
     1
102
RTVSPost2010Prop51ColorIndex
 90
      256
102
RTVSPost2010Prop51ColorRGB
 90
-16777216
102
RTVSPost2010PropOp51
 70
     0
102
RTVSPost2010Prop52
140
1.0
102
RTVSPost2010PropOp52
 70
     0
102
RTVSPost2010Prop53
 90
        2
102
RTVSPost2010PropOp53
 70
     1
102
RTVSPost2010Prop54
  1
strokes_ogs.tif
102
RTVSPost2010PropOp54
 70
     1
102
RTVSPost2010Prop55
280
     0
102
RTVSPost2010PropOp55
 70
     1
102
RTVSPost2010Prop56
140
1.0
102
RTVSPost2010PropOp56
 70
     1
102
RTVSPost2010Prop57
140
1.0
102
RTVSPost2010PropOp57
 70
     1
  0
XRECORD
  5
384
102
{ACAD_REACTORS
330
383
102
}
330
383
100
AcDbXrecord
280
     1
102
RTVSPropertyOp0
 70
     1
102
RTVSPropertyOp1
 70
     1
102
RTVSPropertyOp2
 70
     1
102
RTVSPropertyOp3
 70
     1
102
RTVSPropertyOp4
 70
     1
102
RTVSPropertyOp5
 70
     1
102
RTVSPropertyOp6
 70
     1
102
RTVSPropertyOp7
 70
     1
102
RTVSPropertyOp8
 70
     1
102
RTVSPropertyOp9
 70
     1
102
RTVSPropertyOp10
 70
     1
102
RTVSPropertyOp11
 70
     1
102
RTVSPropertyOp12
 70
     1
102
RTVSPropertyOp13
 70
     1
102
RTVSPropertyOp14
 70
     1
102
RTVSPropertyOp15
 70
     1
102
RTVSPropertyOp16
 70
     1
102
RTVSPropertyOp17
 70
     1
102
RTVSPropertyOp18
 70
     1
102
RTVSPropertyOp19
 70
     1
102
RTVSPropertyOp20
 70
     1
102
RTVSPropertyOp21
 70
     1
102
RTVSPropertyOp22
 70
     1
102
RTVSPropertyOp23
 70
     1
102
RTVSPropertyOp24
 70
     1
102
RTVSPropertyOp25
 70
     1
102
RTVSPropertyOp26
 70
     1
102
RTVSPropertyOp27
 70
     1
102
RTVSPropertyOp28
 70
     1
102
RTVSPropertyOp29
 70
     1
102
RTVSPropertyOp30
 70
     1
102
RTVSPropertyOp31
 70
     1
102
RTVSPropertyOp32
 70
     1
102
RTVSPropertyOp33
 70
     1
102
RTVSPropertyOp34
 70
     1
102
RTVSPropertyOp35
 70
     1
102
RTVSPropertyOp36
 70
     1
102
RTVSPropertyOp37
 70
     1
102
RTVSPropertyOp38
 70
     1
102
RTVSPropertyOp39
 70
     1
102
RTVSPropertyOp40
 70
     1
102
RTVSPropertyOp41
 70
     1
102
RTVSPropertyOp42
 70
     1
102
RTVSPropertyOp43
 70
     1
102
RTVSPropertyOp44
 70
     1
102
RTVSPropertyOp45
 70
     1
102
RTVSPropertyOp46
 70
     1
102
RTVSPropertyOp47
 70
     1
102
RTVSPropertyOp48
 70
     1
102
RTVSPropertyOp49
 70
     1
102
RTVSPropertyOp50
 70
     1
102
RTVSPropertyOp51
 70
     0
102
RTVSPropertyOp52
 70
     0
102
RTVSPropertyOp53
 70
     1
102
RTVSPropertyOp54
 70
     1
102
RTVSPropertyOp55
 70
     1
102
RTVSPropertyOp56
 70
     1
102
RTVSPropertyOp57
 70
     1
102
RTVSPost2010Prop28
280
     0
102
RTVSPost2010PropOp28
 70
     1
102
RTVSPost2010Prop29
280
     1
102
RTVSPost2010PropOp29
 70
     1
102
RTVSPost2010Prop30
280
     1
102
RTVSPost2010PropOp30
 70
     1
102
RTVSPost2010Prop31
280
     0
102
RTVSPost2010PropOp31
 70
     1
102
RTVSPost2010Prop32
280
     0
102
RTVSPost2010PropOp32
 70
     1
102
RTVSPost2010Prop33
280
     0
102
RTVSPost2010PropOp33
 70
     1
102
RTVSPost2010Prop34
280
     0
102
RTVSPost2010PropOp34
 70
     1
102
RTVSPost2010Prop35
280
     0
102
RTVSPost2010PropOp35
 70
     1
102
RTVSPost2010Prop36
280
     0
102
RTVSPost2010PropOp36
 70
     1
102
RTVSPost2010Prop37
 90
       50
102
RTVSPost2010PropOp37
 70
     1
102
RTVSPost2010Prop38
140
0.0
102
RTVSPost2010PropOp38
 70
     1
102
RTVSPost2010Prop39
140
1.0
102
RTVSPost2010PropOp39
 70
     1
102
RTVSPost2010Prop40
 90
        0
102
RTVSPost2010PropOp40
 70
     1
102
RTVSPost2010Prop41ColorIndex
 90
      178
102
RTVSPost2010Prop41ColorRGB
 90
        0
102
RTVSPost2010PropOp41
 70
     1
102
RTVSPost2010Prop42
 90
       50
102
RTVSPost2010PropOp42
 70
     1
102
RTVSPost2010Prop43
 90
        3
102
RTVSPost2010PropOp43
 70
     1
102
RTVSPost2010Prop44ColorIndex
 90
        5
102
RTVSPost2010Prop44ColorRGB
 90
      255
102
RTVSPost2010PropOp44
 70
     1
102
RTVSPost2010Prop45
280
     0
102
RTVSPost2010PropOp45
 70
     1
102
RTVSPost2010Prop46
 90
       50
102
RTVSPost2010PropOp46
 70
     1
102
RTVSPost2010Prop47
 90
       50
102
RTVSPost2010PropOp47
 70
     1
102
RTVSPost2010Prop48
 90
       50
102
RTVSPost2010PropOp48
 70
     1
102
RTVSPost2010Prop49
280
     0
102
RTVSPost2010PropOp49
 70
     1
102
RTVSPost2010Prop50
 90
       50
102
RTVSPost2010PropOp50
 70
     1
102
RTVSPost2010Prop51ColorIndex
 90
      256
102
RTVSPost2010Prop51ColorRGB
 90
-16777216
102
RTVSPost2010PropOp51
 70
     0
102
RTVSPost2010Prop52
140
1.0
102
RTVSPost2010PropOp52
 70
     0
102
RTVSPost2010Prop53
 90
        2
102
RTVSPost2010PropOp53
 70
     1
102
RTVSPost2010Prop54
  1
strokes_ogs.tif
102
RTVSPost2010PropOp54
 70
     1
102
RTVSPost2010Prop55
280
     0
102
RTVSPost2010PropOp55
 70
     1
102
RTVSPost2010Prop56
140
1.0
102
RTVSPost2010PropOp56
 70
     1
102
RTVSPost2010Prop57
140
1.0
102
RTVSPost2010PropOp57
 70
     1
  0
XRECORD
  5
376
102
{ACAD_REACTORS
330
375
102
}
330
375
100
AcDbXrecord
280
     1
102
RTVSPropertyOp0
 70
     1
102
RTVSPropertyOp1
 70
     1
102
RTVSPropertyOp2
 70
     1
102
RTVSPropertyOp3
 70
     1
102
RTVSPropertyOp4
 70
     1
102
RTVSPropertyOp5
 70
     1
102
RTVSPropertyOp6
 70
     1
102
RTVSPropertyOp7
 70
     1
102
RTVSPropertyOp8
 70
     1
102
RTVSPropertyOp9
 70
     1
102
RTVSPropertyOp10
 70
     1
102
RTVSPropertyOp11
 70
     1
102
RTVSPropertyOp12
 70
     1
102
RTVSPropertyOp13
 70
     1
102
RTVSPropertyOp14
 70
     1
102
RTVSPropertyOp15
 70
     1
102
RTVSPropertyOp16
 70
     1
102
RTVSPropertyOp17
 70
     1
102
RTVSPropertyOp18
 70
     1
102
RTVSPropertyOp19
 70
     1
102
RTVSPropertyOp20
 70
     1
102
RTVSPropertyOp21
 70
     1
102
RTVSPropertyOp22
 70
     1
102
RTVSPropertyOp23
 70
     1
102
RTVSPropertyOp24
 70
     1
102
RTVSPropertyOp25
 70
     1
102
RTVSPropertyOp26
 70
     1
102
RTVSPropertyOp27
 70
     1
102
RTVSPropertyOp28
 70
     1
102
RTVSPropertyOp29
 70
     1
102
RTVSPropertyOp30
 70
     1
102
RTVSPropertyOp31
 70
     1
102
RTVSPropertyOp32
 70
     1
102
RTVSPropertyOp33
 70
     1
102
RTVSPropertyOp34
 70
     1
102
RTVSPropertyOp35
 70
     1
102
RTVSPropertyOp36
 70
     1
102
RTVSPropertyOp37
 70
     1
102
RTVSPropertyOp38
 70
     1
102
RTVSPropertyOp39
 70
     1
102
RTVSPropertyOp40
 70
     1
102
RTVSPropertyOp41
 70
     1
102
RTVSPropertyOp42
 70
     1
102
RTVSPropertyOp43
 70
     1
102
RTVSPropertyOp44
 70
     1
102
RTVSPropertyOp45
 70
     1
102
RTVSPropertyOp46
 70
     1
102
RTVSPropertyOp47
 70
     1
102
RTVSPropertyOp48
 70
     1
102
RTVSPropertyOp49
 70
     1
102
RTVSPropertyOp50
 70
     1
102
RTVSPropertyOp51
 70
     0
102
RTVSPropertyOp52
 70
     0
102
RTVSPropertyOp53
 70
     1
102
RTVSPropertyOp54
 70
     1
102
RTVSPropertyOp55
 70
     1
102
RTVSPropertyOp56
 70
     1
102
RTVSPropertyOp57
 70
     1
102
RTVSPost2010Prop28
280
     0
102
RTVSPost2010PropOp28
 70
     1
102
RTVSPost2010Prop29
280
     1
102
RTVSPost2010PropOp29
 70
     1
102
RTVSPost2010Prop30
280
     1
102
RTVSPost2010PropOp30
 70
     1
102
RTVSPost2010Prop31
280
     0
102
RTVSPost2010PropOp31
 70
     1
102
RTVSPost2010Prop32
280
     0
102
RTVSPost2010PropOp32
 70
     1
102
RTVSPost2010Prop33
280
     0
102
RTVSPost2010PropOp33
 70
     1
102
RTVSPost2010Prop34
280
     0
102
RTVSPost2010PropOp34
 70
     1
102
RTVSPost2010Prop35
280
     0
102
RTVSPost2010PropOp35
 70
     1
102
RTVSPost2010Prop36
280
     0
102
RTVSPost2010PropOp36
 70
     1
102
RTVSPost2010Prop37
 90
       50
102
RTVSPost2010PropOp37
 70
     1
102
RTVSPost2010Prop38
140
0.0
102
RTVSPost2010PropOp38
 70
     1
102
RTVSPost2010Prop39
140
1.0
102
RTVSPost2010PropOp39
 70
     1
102
RTVSPost2010Prop40
 90
        0
102
RTVSPost2010PropOp40
 70
     1
102
RTVSPost2010Prop41ColorIndex
 90
      178
102
RTVSPost2010Prop41ColorRGB
 90
        0
102
RTVSPost2010PropOp41
 70
     1
102
RTVSPost2010Prop42
 90
       50
102
RTVSPost2010PropOp42
 70
     1
102
RTVSPost2010Prop43
 90
        3
102
RTVSPost2010PropOp43
 70
     1
102
RTVSPost2010Prop44ColorIndex
 90
        5
102
RTVSPost2010Prop44ColorRGB
 90
      255
102
RTVSPost2010PropOp44
 70
     1
102
RTVSPost2010Prop45
280
     0
102
RTVSPost2010PropOp45
 70
     1
102
RTVSPost2010Prop46
 90
       50
102
RTVSPost2010PropOp46
 70
     1
102
RTVSPost2010Prop47
 90
       50
102
RTVSPost2010PropOp47
 70
     1
102
RTVSPost2010Prop48
 90
       50
102
RTVSPost2010PropOp48
 70
     1
102
RTVSPost2010Prop49
280
     0
102
RTVSPost2010PropOp49
 70
     1
102
RTVSPost2010Prop50
 90
       50
102
RTVSPost2010PropOp50
 70
     1
102
RTVSPost2010Prop51ColorIndex
 90
      256
102
RTVSPost2010Prop51ColorRGB
 90
-16777216
102
RTVSPost2010PropOp51
 70
     0
102
RTVSPost2010Prop52
140
1.0
102
RTVSPost2010PropOp52
 70
     0
102
RTVSPost2010Prop53
 90
        2
102
RTVSPost2010PropOp53
 70
     1
102
RTVSPost2010Prop54
  1
strokes_ogs.tif
102
RTVSPost2010PropOp54
 70
     1
102
RTVSPost2010Prop55
280
     0
102
RTVSPost2010PropOp55
 70
     1
102
RTVSPost2010Prop56
140
1.0
102
RTVSPost2010PropOp56
 70
     1
102
RTVSPost2010Prop57
140
1.0
102
RTVSPost2010PropOp57
 70
     1
  0
XRECORD
  5
396
102
{ACAD_REACTORS
330
395
102
}
330
395
100
AcDbXrecord
280
     1
102
RTVSPropertyOp0
 70
     1
102
RTVSPropertyOp1
 70
     1
102
RTVSPropertyOp2
 70
     1
102
RTVSPropertyOp3
 70
     1
102
RTVSPropertyOp4
 70
     1
102
RTVSPropertyOp5
 70
     1
102
RTVSPropertyOp6
 70
     1
102
RTVSPropertyOp7
 70
     1
102
RTVSPropertyOp8
 70
     1
102
RTVSPropertyOp9
 70
     1
102
RTVSPropertyOp10
 70
     1
102
RTVSPropertyOp11
 70
     1
102
RTVSPropertyOp12
 70
     1
102
RTVSPropertyOp13
 70
     1
102
RTVSPropertyOp14
 70
     1
102
RTVSPropertyOp15
 70
     1
102
RTVSPropertyOp16
 70
     1
102
RTVSPropertyOp17
 70
     1
102
RTVSPropertyOp18
 70
     1
102
RTVSPropertyOp19
 70
     1
102
RTVSPropertyOp20
 70
     1
102
RTVSPropertyOp21
 70
     1
102
RTVSPropertyOp22
 70
     1
102
RTVSPropertyOp23
 70
     1
102
RTVSPropertyOp24
 70
     1
102
RTVSPropertyOp25
 70
     1
102
RTVSPropertyOp26
 70
     1
102
RTVSPropertyOp27
 70
     1
102
RTVSPropertyOp28
 70
     1
102
RTVSPropertyOp29
 70
     1
102
RTVSPropertyOp30
 70
     1
102
RTVSPropertyOp31
 70
     1
102
RTVSPropertyOp32
 70
     1
102
RTVSPropertyOp33
 70
     1
102
RTVSPropertyOp34
 70
     1
102
RTVSPropertyOp35
 70
     1
102
RTVSPropertyOp36
 70
     1
102
RTVSPropertyOp37
 70
     1
102
RTVSPropertyOp38
 70
     1
102
RTVSPropertyOp39
 70
     1
102
RTVSPropertyOp40
 70
     1
102
RTVSPropertyOp41
 70
     1
102
RTVSPropertyOp42
 70
     1
102
RTVSPropertyOp43
 70
     1
102
RTVSPropertyOp44
 70
     1
102
RTVSPropertyOp45
 70
     1
102
RTVSPropertyOp46
 70
     1
102
RTVSPropertyOp47
 70
     1
102
RTVSPropertyOp48
 70
     1
102
RTVSPropertyOp49
 70
     1
102
RTVSPropertyOp50
 70
     1
102
RTVSPropertyOp51
 70
     0
102
RTVSPropertyOp52
 70
     0
102
RTVSPropertyOp53
 70
     1
102
RTVSPropertyOp54
 70
     1
102
RTVSPropertyOp55
 70
     1
102
RTVSPropertyOp56
 70
     1
102
RTVSPropertyOp57
 70
     1
102
RTVSPost2010Prop28
280
     0
102
RTVSPost2010PropOp28
 70
     1
102
RTVSPost2010Prop29
280
     1
102
RTVSPost2010PropOp29
 70
     1
102
RTVSPost2010Prop30
280
     1
102
RTVSPost2010PropOp30
 70
     1
102
RTVSPost2010Prop31
280
     0
102
RTVSPost2010PropOp31
 70
     1
102
RTVSPost2010Prop32
280
     0
102
RTVSPost2010PropOp32
 70
     1
102
RTVSPost2010Prop33
280
     0
102
RTVSPost2010PropOp33
 70
     1
102
RTVSPost2010Prop34
280
     0
102
RTVSPost2010PropOp34
 70
     1
102
RTVSPost2010Prop35
280
     0
102
RTVSPost2010PropOp35
 70
     1
102
RTVSPost2010Prop36
280
     0
102
RTVSPost2010PropOp36
 70
     1
102
RTVSPost2010Prop37
 90
       50
102
RTVSPost2010PropOp37
 70
     1
102
RTVSPost2010Prop38
140
0.0
102
RTVSPost2010PropOp38
 70
     1
102
RTVSPost2010Prop39
140
1.0
102
RTVSPost2010PropOp39
 70
     1
102
RTVSPost2010Prop40
 90
        0
102
RTVSPost2010PropOp40
 70
     1
102
RTVSPost2010Prop41ColorIndex
 90
      178
102
RTVSPost2010Prop41ColorRGB
 90
        0
102
RTVSPost2010PropOp41
 70
     1
102
RTVSPost2010Prop42
 90
       50
102
RTVSPost2010PropOp42
 70
     1
102
RTVSPost2010Prop43
 90
        3
102
RTVSPost2010PropOp43
 70
     1
102
RTVSPost2010Prop44ColorIndex
 90
        5
102
RTVSPost2010Prop44ColorRGB
 90
      255
102
RTVSPost2010PropOp44
 70
     1
102
RTVSPost2010Prop45
280
     0
102
RTVSPost2010PropOp45
 70
     1
102
RTVSPost2010Prop46
 90
       50
102
RTVSPost2010PropOp46
 70
     1
102
RTVSPost2010Prop47
 90
       50
102
RTVSPost2010PropOp47
 70
     1
102
RTVSPost2010Prop48
 90
       50
102
RTVSPost2010PropOp48
 70
     1
102
RTVSPost2010Prop49
280
     0
102
RTVSPost2010PropOp49
 70
     1
102
RTVSPost2010Prop50
 90
       50
102
RTVSPost2010PropOp50
 70
     1
102
RTVSPost2010Prop51ColorIndex
 90
      256
102
RTVSPost2010Prop51ColorRGB
 90
-16777216
102
RTVSPost2010PropOp51
 70
     0
102
RTVSPost2010Prop52
140
1.0
102
RTVSPost2010PropOp52
 70
     0
102
RTVSPost2010Prop53
 90
        2
102
RTVSPost2010PropOp53
 70
     1
102
RTVSPost2010Prop54
  1
strokes_ogs.tif
102
RTVSPost2010PropOp54
 70
     1
102
RTVSPost2010Prop55
280
     0
102
RTVSPost2010PropOp55
 70
     1
102
RTVSPost2010Prop56
140
1.0
102
RTVSPost2010PropOp56
 70
     1
102
RTVSPost2010Prop57
140
1.0
102
RTVSPost2010PropOp57
 70
     1
  0
ENDSEC
  0
EOF
