  0
SECTION
  2
HEADER
  9
$ACADVER
  1
AC1021
  9
$ACADMAINTVER
 70
    25
  9
$DWGCODEPAGE
  3
ANSI_1252
  9
$INSBASE
 10
0.0
 20
0.0
 30
0.0
  9
$EXTMIN
 10
1.000000000000000E+20
 20
1.000000000000000E+20
 30
1.000000000000000E+20
  9
$EXTMAX
 10
-1.000000000000000E+20
 20
-1.000000000000000E+20
 30
-1.000000000000000E+20
  9
$LIMMIN
 10
0.0
 20
0.0
  9
$LIMMAX
 10
12.0
 20
9.0
  9
$ORTHOMODE
 70
     0
  9
$REGENMODE
 70
     1
  9
$FILLMODE
 70
     1
  9
$QTEXTMODE
 70
     0
  9
$MIRRTEXT
 70
     1
  9
$LTSCALE
 40
1.0
  9
$ATTMODE
 70
     1
  9
$TEXTSIZE
 40
0.2
  9
$TRACEWID
 40
0.05
  9
$TEXTSTYLE
  7
Standard
  9
$CLAYER
  8
Graypants_Arc80
  9
$CELTYPE
  6
ByLayer
  9
$CECOLOR
 62
   256
  9
$CELTSCALE
 40
1.0
  9
$DISPSILH
 70
     0
  9
$DIMSCALE
 40
1.0
  9
$DIMASZ
 40
0.18
  9
$DIMEXO
 40
0.0625
  9
$DIMDLI
 40
0.38
  9
$DIMRND
 40
0.0
  9
$DIMDLE
 40
0.0
  9
$DIMEXE
 40
0.18
  9
$DIMTP
 40
0.0
  9
$DIMTM
 40
0.0
  9
$DIMTXT
 40
0.18
  9
$DIMCEN
 40
0.09
  9
$DIMTSZ
 40
0.0
  9
$DIMTOL
 70
     0
  9
$DIMLIM
 70
     0
  9
$DIMTIH
 70
     1
  9
$DIMTOH
 70
     1
  9
$DIMSE1
 70
     0
  9
$DIMSE2
 70
     0
  9
$DIMTAD
 70
     0
  9
$DIMZIN
 70
     0
  9
$DIMBLK
  1

  9
$DIMASO
 70
     1
  9
$DIMSHO
 70
     1
  9
$DIMPOST
  1

  9
$DIMAPOST
  1

  9
$DIMALT
 70
     0
  9
$DIMALTD
 70
     2
  9
$DIMALTF
 40
25.4
  9
$DIMLFAC
 40
1.0
  9
$DIMTOFL
 70
     0
  9
$DIMTVP
 40
0.0
  9
$DIMTIX
 70
     0
  9
$DIMSOXD
 70
     0
  9
$DIMSAH
 70
     0
  9
$DIMBLK1
  1

  9
$DIMBLK2
  1

  9
$DIMSTYLE
  2
STANDARD_ACAD
  9
$DIMCLRD
 70
     0
  9
$DIMCLRE
 70
     0
  9
$DIMCLRT
 70
     0
  9
$DIMTFAC
 40
1.0
  9
$DIMGAP
 40
0.09
  9
$DIMJUST
 70
     0
  9
$DIMSD1
 70
     0
  9
$DIMSD2
 70
     0
  9
$DIMTOLJ
 70
     1
  9
$DIMTZIN
 70
     0
  9
$DIMALTZ
 70
     0
  9
$DIMALTTZ
 70
     0
  9
$DIMUPT
 70
     0
  9
$DIMDEC
 70
     4
  9
$DIMTDEC
 70
     4
  9
$DIMALTU
 70
     2
  9
$DIMALTTD
 70
     2
  9
$DIMTXSTY
  7
Standard
  9
$DIMAUNIT
 70
     0
  9
$DIMADEC
 70
     0
  9
$DIMALTRND
 40
0.0
  9
$DIMAZIN
 70
     0
  9
$DIMDSEP
 70
    46
  9
$DIMATFIT
 70
     3
  9
$DIMFRAC
 70
     0
  9
$DIMLDRBLK
  1

  9
$DIMLUNIT
 70
     2
  9
$DIMLWD
 70
    -2
  9
$DIMLWE
 70
    -2
  9
$DIMTMOVE
 70
     2
  9
$DIMFXL
 40
1.0
  9
$DIMFXLON
 70
     0
  9
$DIMJOGANG
 40
0.7853981633974483
  9
$DIMTFILL
 70
     0
  9
$DIMTFILLCLR
 70
     0
  9
$DIMARCSYM
 70
     0
  9
$DIMLTYPE
  6

  9
$DIMLTEX1
  6

  9
$DIMLTEX2
  6

  9
$LUNITS
 70
     2
  9
$LUPREC
 70
     3
  9
$SKETCHINC
 40
0.1
  9
$FILLETRAD
 40
0.5
  9
$AUNITS
 70
     0
  9
$AUPREC
 70
     0
  9
$MENU
  1
.
  9
$ELEVATION
 40
0.0
  9
$PELEVATION
 40
0.0
  9
$THICKNESS
 40
0.0
  9
$LIMCHECK
 70
     0
  9
$CHAMFERA
 40
0.0
  9
$CHAMFERB
 40
0.0
  9
$CHAMFERC
 40
0.0
  9
$CHAMFERD
 40
0.0
  9
$SKPOLY
 70
     0
  9
$TDCREATE
 40
2460850.639941319
  9
$TDUCREATE
 40
2460850.973274653
  9
$TDUPDATE
 40
2460850.639992859
  9
$TDUUPDATE
 40
2460850.973326192
  9
$TDINDWG
 40
0.0000000116
  9
$TDUSRTIMER
 40
0.0000000116
  9
$USRTIMER
 70
     1
  9
$ANGBASE
 50
0.0
  9
$ANGDIR
 70
     0
  9
$PDMODE
 70
     0
  9
$PDSIZE
 40
0.0
  9
$PLINEWID
 40
0.0
  9
$SPLFRAME
 70
     0
  9
$SPLINETYPE
 70
     6
  9
$SPLINESEGS
 70
     8
  9
$HANDSEED
  5
41C
  9
$SURFTAB1
 70
     6
  9
$SURFTAB2
 70
     6
  9
$SURFTYPE
 70
     6
  9
$SURFU
 70
     6
  9
$SURFV
 70
     6
  9
$UCSBASE
  2

  9
$UCSNAME
  2

  9
$UCSORG
 10
0.0
 20
0.0
 30
0.0
  9
$UCSXDIR
 10
1.0
 20
0.0
 30
0.0
  9
$UCSYDIR
 10
0.0
 20
1.0
 30
0.0
  9
$UCSORTHOREF
  2

  9
$UCSORTHOVIEW
 70
     0
  9
$UCSORGTOP
 10
0.0
 20
0.0
 30
0.0
  9
$UCSORGBOTTOM
 10
0.0
 20
0.0
 30
0.0
  9
$UCSORGLEFT
 10
0.0
 20
0.0
 30
0.0
  9
$UCSORGRIGHT
 10
0.0
 20
0.0
 30
0.0
  9
$UCSORGFRONT
 10
0.0
 20
0.0
 30
0.0
  9
$UCSORGBACK
 10
0.0
 20
0.0
 30
0.0
  9
$PUCSBASE
  2

  9
$PUCSNAME
  2

  9
$PUCSORG
 10
0.0
 20
0.0
 30
0.0
  9
$PUCSXDIR
 10
1.0
 20
0.0
 30
0.0
  9
$PUCSYDIR
 10
0.0
 20
1.0
 30
0.0
  9
$PUCSORTHOREF
  2

  9
$PUCSORTHOVIEW
 70
     0
  9
$PUCSORGTOP
 10
0.0
 20
0.0
 30
0.0
  9
$PUCSORGBOTTOM
 10
0.0
 20
0.0
 30
0.0
  9
$PUCSORGLEFT
 10
0.0
 20
0.0
 30
0.0
  9
$PUCSORGRIGHT
 10
0.0
 20
0.0
 30
0.0
  9
$PUCSORGFRONT
 10
0.0
 20
0.0
 30
0.0
  9
$PUCSORGBACK
 10
0.0
 20
0.0
 30
0.0
  9
$USERI1
 70
     0
  9
$USERI2
 70
     0
  9
$USERI3
 70
     0
  9
$USERI4
 70
     0
  9
$USERI5
 70
     0
  9
$USERR1
 40
0.0
  9
$USERR2
 40
0.0
  9
$USERR3
 40
0.0
  9
$USERR4
 40
0.0
  9
$USERR5
 40
0.0
  9
$WORLDVIEW
 70
     1
  9
$SHADEDGE
 70
     3
  9
$SHADEDIF
 70
    70
  9
$TILEMODE
 70
     1
  9
$MAXACTVP
 70
    64
  9
$PINSBASE
 10
0.0
 20
0.0
 30
0.0
  9
$PLIMCHECK
 70
     0
  9
$PEXTMIN
 10
1.000000000000000E+20
 20
1.000000000000000E+20
 30
1.000000000000000E+20
  9
$PEXTMAX
 10
-1.000000000000000E+20
 20
-1.000000000000000E+20
 30
-1.000000000000000E+20
  9
$PLIMMIN
 10
0.0
 20
0.0
  9
$PLIMMAX
 10
12.0
 20
9.0
  9
$UNITMODE
 70
     0
  9
$VISRETAIN
 70
     1
  9
$PLINEGEN
 70
     0
  9
$PSLTSCALE
 70
     1
  9
$TREEDEPTH
 70
  3020
  9
$CMLSTYLE
  2
Standard
  9
$CMLJUST
 70
     0
  9
$CMLSCALE
 40
1.0
  9
$PROXYGRAPHICS
 70
     1
  9
$MEASUREMENT
 70
     1
  9
$CELWEIGHT
370
    -1
  9
$ENDCAPS
280
     0
  9
$JOINSTYLE
280
     0
  9
$LWDISPLAY
290
     0
  9
$INSUNITS
 70
     4
  9
$HYPERLINKBASE
  1

  9
$STYLESHEET
  1

  9
$XEDIT
290
     1
  9
$CEPSNTYPE
380
     0
  9
$PSTYLEMODE
290
     1
  9
$FINGERPRINTGUID
  2
{b1aeea0c-bb61-1a4f-8045-4945ee1a9bb6}
  9
$VERSIONGUID
  2
{FAEB1C32-E019-11D5-929B-00C0DF256EC4}
  9
$EXTNAMES
290
     1
  9
$PSVPSCALE
 40
0.0
  9
$OLESTARTUP
290
     0
  9
$SORTENTS
280
   127
  9
$INDEXCTL
280
     0
  9
$HIDETEXT
280
     1
  9
$XCLIPFRAME
290
     0
  9
$HALOGAP
280
     0
  9
$OBSCOLOR
 70
   257
  9
$OBSLTYPE
280
     0
  9
$INTERSECTIONDISPLAY
280
     0
  9
$INTERSECTIONCOLOR
 70
   257
  9
$DIMASSOC
280
     2
  9
$PROJECTNAME
  1

  9
$CAMERADISPLAY
290
     0
  9
$LENSLENGTH
 40
50.0
  9
$CAMERAHEIGHT
 40
0.0
  9
$STEPSPERSEC
 40
2.0
  9
$STEPSIZE
 40
6.0
  9
$3DDWFPREC
 40
2.0
  9
$PSOLWIDTH
 40
0.25
  9
$PSOLHEIGHT
 40
4.0
  9
$LOFTANG1
 40
1.570796326794897
  9
$LOFTANG2
 40
1.570796326794897
  9
$LOFTMAG1
 40
0.0
  9
$LOFTMAG2
 40
0.0
  9
$LOFTPARAM
 70
     7
  9
$LOFTNORMALS
280
     1
  9
$LATITUDE
 40
37.795
  9
$LONGITUDE
 40
-122.394
  9
$NORTHDIRECTION
 40
0.0
  9
$TIMEZONE
 70
 -8000
  9
$LIGHTGLYPHDISPLAY
280
     1
  9
$TILEMODELIGHTSYNCH
280
     1
  9
$CMATERIAL
347
44
  9
$SOLIDHIST
280
     0
  9
$SHOWHIST
280
     1
  9
$DWFFRAME
280
     2
  9
$DGNFRAME
280
     2
  9
$REALWORLDSCALE
290
     1
  9
$INTERFERECOLOR
 62
   256
  9
$CSHADOW
280
     0
  9
$SHADOWPLANELOCATION
 40
0.0
  0
ENDSEC
  0
SECTION
  2
CLASSES
  0
CLASS
  1
ACDBDICTIONARYWDFLT
  2
AcDbDictionaryWithDefault
  3
ObjectDBX Classes
 90
        0
 91
        3
280
     0
281
     0
  0
CLASS
  1
VISUALSTYLE
  2
AcDbVisualStyle
  3
ObjectDBX Classes
 90
     4095
 91
        3
280
     0
281
     0
  0
CLASS
  1
MATERIAL
  2
AcDbMaterial
  3
ObjectDBX Classes
 90
     1153
 91
        3
280
     0
281
     0
  0
CLASS
  1
SCALE
  2
AcDbScale
  3
ObjectDBX Classes
 90
     1153
 91
        3
280
     0
281
     0
  0
CLASS
  1
TABLESTYLE
  2
AcDbTableStyle
  3
ObjectDBX Classes
 90
     4095
 91
        3
280
     0
281
     0
  0
CLASS
  1
MLEADERSTYLE
  2
AcDbMLeaderStyle
  3
ACDB_MLEADERSTYLE_CLASS
 90
     4095
 91
        3
280
     0
281
     0
  0
CLASS
  1
SUN
  2
AcDbSun
  3
SCENEOE
 90
     1153
 91
        3
280
     0
281
     0
  0
CLASS
  1
DICTIONARYVAR
  2
AcDbDictionaryVar
  3
ObjectDBX Classes
 90
        0
 91
        3
280
     0
281
     0
  0
CLASS
  1
CELLSTYLEMAP
  2
AcDbCellStyleMap
  3
ObjectDBX Classes
 90
     1152
 91
        3
280
     0
281
     0
  0
ENDSEC
  0
SECTION
  2
TABLES
  0
TABLE
  2
VPORT
  5
8
330
0
100
AcDbSymbolTable
 70
     1
  0
VPORT
  5
29
330
8
100
AcDbSymbolTableRecord
100
AcDbViewportTableRecord
  2
*Active
 70
     0
 10
0.0
 20
0.0
 11
1.0
 21
1.0
 12
10.42990654205607
 22
4.5
 13
0.0
 23
0.0
 14
0.5
 24
0.5
 15
0.5
 25
0.5
 16
0.0
 26
0.0
 36
1.0
 17
0.0
 27
0.0
 37
0.0
 40
9.0
 41
1.972972972850329
 42
50.0
 43
0.0
 44
0.0
 50
0.0
 51
0.0
 71
     0
 72
   100
 73
     1
 74
     3
 75
     0
 76
     0
 77
     0
 78
     0
281
     0
 65
     1
110
0.0
120
0.0
130
0.0
111
1.0
121
0.0
131
0.0
112
0.0
122
1.0
132
0.0
 79
     0
146
0.0
348
2F
 60
     3
 61
     5
292
     1
282
     1
141
0.0
142
0.0
 63
   250
361
6D
  0
ENDTAB
  0
TABLE
  2
LTYPE
  5
5
330
0
100
AcDbSymbolTable
 70
     2
  0
LTYPE
  5
14
330
5
100
AcDbSymbolTableRecord
100
AcDbLinetypeTableRecord
  2
ByBlock
 70
     0
  3

 72
    65
 73
     0
 40
0.0
  0
LTYPE
  5
15
330
5
100
AcDbSymbolTableRecord
100
AcDbLinetypeTableRecord
  2
ByLayer
 70
     0
  3

 72
    65
 73
     0
 40
0.0
  0
LTYPE
  5
16
330
5
100
AcDbSymbolTableRecord
100
AcDbLinetypeTableRecord
  2
Continuous
 70
     0
  3
Solid line
 72
    65
 73
     0
 40
0.0
  0
LTYPE
  5
3CE
330
5
100
AcDbSymbolTableRecord
100
AcDbLinetypeTableRecord
  2
Hidden
 70
     0
  3

 72
    65
 73
     2
 40
4.0
 49
2.0
 74
     0
 49
-2.0
 74
     0
  0
ENDTAB
  0
TABLE
  2
LAYER
  5
2
330
0
100
AcDbSymbolTable
 70
     2
  0
LAYER
  5
10
330
2
100
AcDbSymbolTableRecord
100
AcDbLayerTableRecord
  2
0
 70
     0
 62
     7
  6
Continuous
370
    -3
390
F
347
46
  0
LAYER
  5
6E
330
2
100
AcDbSymbolTableRecord
100
AcDbLayerTableRecord
  2
Graypants_Arc80
 70
     0
 62
    36
420
  8866048
  6
Continuous
370
    -3
390
F
347
46
  0
ENDTAB
  0
TABLE
  2
STYLE
  5
3
330
0
100
AcDbSymbolTable
 70
     1
  0
STYLE
  5
11
330
3
100
AcDbSymbolTableRecord
100
AcDbTextStyleTableRecord
  2
Standard
 70
     0
 40
0.0
 41
1.0
 50
0.0
 71
     0
 42
0.2
  3
txt
  4

  0
ENDTAB
  0
TABLE
  2
VIEW
  5
6
330
0
100
AcDbSymbolTable
 70
     0
  0
ENDTAB
  0
TABLE
  2
UCS
  5
7
330
0
100
AcDbSymbolTable
 70
     0
  0
ENDTAB
  0
TABLE
  2
APPID
  5
9
330
0
100
AcDbSymbolTable
 70
     2
  0
APPID
  5
12
330
9
100
AcDbSymbolTableRecord
100
AcDbRegAppTableRecord
  2
ACAD
 70
     0
  0
APPID
  5
414
330
9
100
AcDbSymbolTableRecord
100
AcDbRegAppTableRecord
  2
ACAD_MLEADERVER
 70
     0
  0
ENDTAB
  0
TABLE
  2
DIMSTYLE
  5
A
330
0
100
AcDbSymbolTable
 70
     1
100
AcDbDimStyleTable
  0
DIMSTYLE
105
27
330
A
100
AcDbSymbolTableRecord
100
AcDbDimStyleTableRecord
  2
STANDARD_ACAD
 70
     0
178
     0
340
11
  0
ENDTAB
  0
TABLE
  2
BLOCK_RECORD
  5
1
330
0
100
AcDbSymbolTable
 70
     1
  0
BLOCK_RECORD
  5
1F
330
1
100
AcDbSymbolTableRecord
100
AcDbBlockTableRecord
  2
*Model_Space
340
22
 70
     0
280
     1
281
     0
  0
BLOCK_RECORD
  5
1B
330
1
100
AcDbSymbolTableRecord
100
AcDbBlockTableRecord
  2
*Paper_Space
340
1E
 70
     0
280
     1
281
     0
  0
BLOCK_RECORD
  5
23
330
1
100
AcDbSymbolTableRecord
100
AcDbBlockTableRecord
  2
*Paper_Space0
340
26
 70
     0
280
     1
281
     0
  0
ENDTAB
  0
ENDSEC
  0
SECTION
  2
BLOCKS
  0
BLOCK
  5
20
330
1F
100
AcDbEntity
  8
0
100
AcDbBlockBegin
  2
*Model_Space
 70
     0
 10
0.0
 20
0.0
 30
0.0
  3
*Model_Space
  1

  0
ENDBLK
  5
21
330
1F
100
AcDbEntity
  8
0
100
AcDbBlockEnd
  0
BLOCK
  5
1C
330
1B
100
AcDbEntity
 67
     1
  8
0
100
AcDbBlockBegin
  2
*Paper_Space
 70
     0
 10
0.0
 20
0.0
 30
0.0
  3
*Paper_Space
  1

  0
ENDBLK
  5
1D
330
1B
100
AcDbEntity
 67
     1
  8
0
100
AcDbBlockEnd
  0
BLOCK
  5
24
330
23
100
AcDbEntity
  8
0
100
AcDbBlockBegin
  2
*Paper_Space0
 70
     0
 10
0.0
 20
0.0
 30
0.0
  3
*Paper_Space0
  1

  0
ENDBLK
  5
25
330
23
100
AcDbEntity
  8
0
100
AcDbBlockEnd
  0
ENDSEC
  0
SECTION
  2
ENTITIES
  0
CIRCLE
  5
6F
330
1F
100
AcDbEntity
  8
Graypants_Arc80
370
    -3
100
AcDbCircle
 10
-0.0000000000003216
 20
-1518.497995924471
 30
0.0
 40
8.000000000000094
210
0.0
220
0.0
230
-1.0
  0
CIRCLE
  5
70
330
1F
100
AcDbEntity
  8
Graypants_Arc80
370
    -3
100
AcDbCircle
 10
-0.0000000000003216
 20
-1518.497995924471
 30
0.0
 40
7.750000000000094
210
0.0
220
0.0
230
-1.0
  0
ARC
  5
71
330
1F
100
AcDbEntity
  8
Graypants_Arc80
370
    -3
100
AcDbCircle
 10
-29.19169332393924
 20
-1518.497995924472
 30
0.0
 40
14.75000020551568
210
0.0
220
0.0
230
-1.0
100
AcDbArc
 50
348.2647426913734
 51
11.73525730862481
  0
LINE
  5
72
330
1F
100
AcDbEntity
  8
Graypants_Arc80
370
    -3
100
AcDbLine
 10
7.750000000000227
 20
-1270.497995924471
 30
0.0
 11
8.000000000000227
 21
-1270.747995924471
 31
0.0
  0
LINE
  5
73
330
1F
100
AcDbEntity
  8
Graypants_Arc80
370
    -3
100
AcDbLine
 10
-7.999999999999773
 20
-1270.747995924471
 30
0.0
 11
-7.749999999999773
 21
-1270.497995924471
 31
0.0
  0
LINE
  5
74
330
1F
100
AcDbEntity
  8
Graypants_Arc80
370
    -3
100
AcDbLine
 10
-7.999999999999773
 20
-1272.497995924471
 30
0.0
 11
-7.999999999999773
 21
-1270.747995924471
 31
0.0
  0
LINE
  5
75
330
1F
100
AcDbEntity
  8
Graypants_Arc80
370
    -3
100
AcDbLine
 10
8.000000000000227
 20
-1270.747995924471
 30
0.0
 11
8.000000000000227
 21
-1272.497995924471
 31
0.0
  0
LINE
  5
76
330
1F
100
AcDbEntity
  8
Graypants_Arc80
370
    -3
100
AcDbLine
 10
8.000000000000227
 20
-1272.497995924471
 30
0.0
 11
8.000000000000227
 21
-1481.497995924471
 31
0.0
  0
LINE
  5
77
330
1F
100
AcDbEntity
  8
Graypants_Arc80
370
    -3
100
AcDbLine
 10
14.75000000000023
 20
-1553.247995924471
 30
0.0
 11
14.50000000000023
 21
-1553.497995924471
 31
0.0
  0
LINE
  5
78
330
1F
100
AcDbEntity
  8
Graypants_Arc80
370
    -3
100
AcDbLine
 10
-14.74999999999977
 20
-1553.247995924471
 30
0.0
 11
-14.74999999999977
 21
-1483.747995924471
 31
0.0
  0
LINE
  5
79
330
1F
100
AcDbEntity
  8
Graypants_Arc80
370
    -3
100
AcDbLine
 10
14.50000000000023
 20
-1483.497995924471
 30
0.0
 11
14.75000000000023
 21
-1483.747995924471
 31
0.0
  0
LINE
  5
7A
330
1F
100
AcDbEntity
  8
Graypants_Arc80
370
    -3
100
AcDbLine
 10
-14.99999999999977
 20
-1481.997995924471
 30
0.0
 11
-14.49999999999977
 21
-1481.497995924471
 31
0.0
  0
LINE
  5
7B
330
1F
100
AcDbEntity
  8
Graypants_Arc80
370
    -3
100
AcDbLine
 10
14.50000000000023
 20
-1481.497995924471
 30
0.0
 11
15.00000000000023
 21
-1481.997995924471
 31
0.0
  0
LINE
  5
7C
330
1F
100
AcDbEntity
  8
Graypants_Arc80
370
    -3
100
AcDbLine
 10
-14.99999999999977
 20
-1483.497995924471
 30
0.0
 11
-14.99999999999977
 21
-1481.997995924471
 31
0.0
  0
LINE
  5
7D
330
1F
100
AcDbEntity
  8
Graypants_Arc80
370
    -3
100
AcDbLine
 10
15.00000000000023
 20
-1481.997995924471
 30
0.0
 11
15.00000000000023
 21
-1483.497995924471
 31
0.0
  0
LINE
  5
7E
330
1F
100
AcDbEntity
  8
Graypants_Arc80
370
    -3
100
AcDbLine
 10
-14.49999999999977
 20
-1553.497995924471
 30
0.0
 11
-14.74999999999977
 21
-1553.247995924471
 31
0.0
  0
LINE
  5
7F
330
1F
100
AcDbEntity
  8
Graypants_Arc80
370
    -3
100
AcDbLine
 10
-14.74999999999977
 20
-1483.747995924471
 30
0.0
 11
-14.49999999999977
 21
-1483.497995924471
 31
0.0
  0
LINE
  5
80
330
1F
100
AcDbEntity
  8
Graypants_Arc80
370
    -3
100
AcDbLine
 10
14.75000000000023
 20
-1483.747995924471
 30
0.0
 11
14.75000000000023
 21
-1515.497995924471
 31
0.0
  0
LINE
  5
81
330
1F
100
AcDbEntity
  8
Graypants_Arc80
370
    -3
100
AcDbLine
 10
14.75000000000023
 20
-1521.497995924479
 30
0.0
 11
14.75000000000023
 21
-1553.247995924471
 31
0.0
  0
ARC
  5
82
330
1F
100
AcDbEntity
  8
Graypants_Arc80
370
    -3
100
AcDbCircle
 10
0.0000621480267508
 20
-1518.49796425299
 30
0.0
 40
8.249930247151518
100
AcDbArc
 50
26.99999996609372
 51
27.00785180681423
  0
LINE
  5
83
330
1F
100
AcDbEntity
  8
Graypants_Arc80
370
    -3
100
AcDbLine
 10
-7.999999999999773
 20
-1481.497995924471
 30
0.0
 11
-7.999999999999773
 21
-1272.497995924471
 31
0.0
  0
LINE
  5
84
330
1F
100
AcDbEntity
  8
Graypants_Arc80
370
    -3
100
AcDbLine
 10
14.75000000000023
 20
-1483.747995924471
 30
0.0
 11
0.0000000000002274
 21
-1483.747995924471
 31
0.0
  0
LINE
  5
85
330
1F
100
AcDbEntity
  8
Graypants_Arc80
370
    -3
100
AcDbLine
 10
-14.99999999999977
 20
-1481.997995924471
 30
0.0
 11
15.00000000000023
 21
-1481.997995924471
 31
0.0
  0
LINE
  5
86
330
1F
100
AcDbEntity
  8
Graypants_Arc80
370
    -3
100
AcDbLine
 10
0.0000000000002274
 20
-1483.747995924471
 30
0.0
 11
-14.74999999999977
 21
-1483.747995924471
 31
0.0
  0
LINE
  5
87
330
1F
100
AcDbEntity
  8
Graypants_Arc80
370
    -3
100
AcDbLine
 10
-7.350913679513724
 20
-1522.2432111507
 30
0.0
 11
-7.350602075224288
 21
-1522.24382264565
 31
0.0
  0
ARC
  5
88
330
1F
100
AcDbEntity
  8
Graypants_Arc80
370
    -3
100
AcDbCircle
 10
-0.0000000000004547
 20
-1518.497995924471
 30
0.0
 40
8.25
210
0.0
220
0.0
230
-1.0
100
AcDbArc
 50
270.0000000000015
 51
89.99999999999842
  0
ARC
  5
89
330
1F
100
AcDbEntity
  8
Graypants_Arc80
370
    -3
100
AcDbCircle
 10
0.0000000000003411
 20
-1518.49799592447
 30
0.0
 40
8.250000000000531
100
AcDbArc
 50
207.0000000000044
 51
269.9999999999992
  0
ARC
  5
8A
330
1F
100
AcDbEntity
  8
Graypants_Arc80
370
    -3
100
AcDbCircle
 10
-0.0000000000002274
 20
-1844.184870924471
 30
0.0
 40
12.99999999999989
210
0.0
220
0.0
230
-1.0
100
AcDbArc
 50
180.000000000001
 51
359.999999999999
  0
ARC
  5
8B
330
1F
100
AcDbEntity
  8
Graypants_Arc80
370
    -3
100
AcDbCircle
 10
72.00000062458587
 20
-520.0091933149707
 30
0.0
 40
1.499999375414079
210
0.0
220
0.0
230
-1.0
100
AcDbArc
 50
269.9999761425586
 51
0.0000238574396891
  0
ARC
  5
8C
330
1F
100
AcDbEntity
  8
Graypants_Arc80
370
    -3
100
AcDbCircle
 10
-72.00000062458619
 20
-520.0091933149708
 30
0.0
 40
1.499999375414051
210
0.0
220
0.0
230
-1.0
100
AcDbArc
 50
179.999976142556
 51
270.0000238574408
  0
LINE
  5
8D
330
1F
100
AcDbEntity
  8
Graypants_Arc80
370
    -3
100
AcDbLine
 10
73.50000000000023
 20
-486.5091926903851
 30
0.0
 11
73.50000000000023
 21
-520.0091926903851
 31
0.0
  0
LINE
  5
8E
330
1F
100
AcDbEntity
  8
Graypants_Arc80
370
    -3
100
AcDbLine
 10
-73.49999999999977
 20
-520.0091926903851
 30
0.0
 11
-73.49999999999977
 21
-486.5091926903851
 31
0.0
  0
LINE
  5
8F
330
1F
100
AcDbEntity
  8
Graypants_Arc80
370
    -3
100
AcDbLine
 10
73.4999999999983
 20
-486.509192690384
 30
0.0
 11
-73.49999999999852
 21
-486.5091926903842
 31
0.0
  0
LINE
  5
90
330
1F
100
AcDbEntity
  8
Graypants_Arc80
370
    -3
100
AcDbLine
 10
1.500000000000227
 20
-521.5091926903847
 30
0.0
 11
1.500000000000227
 21
-1270.497995924471
 31
0.0
  0
LINE
  5
91
330
1F
100
AcDbEntity
  8
Graypants_Arc80
370
    -3
100
AcDbLine
 10
-1.499999999999773
 20
-1270.497995924471
 30
0.0
 11
-1.499999999999773
 21
-521.5091926903847
 31
0.0
  0
LINE
  5
92
330
1F
100
AcDbEntity
  8
Graypants_Arc80
370
    -3
100
AcDbLine
 10
0.0000000000002274
 20
-1270.747995924471
 30
0.0
 11
-7.999999999999773
 21
-1270.747995924471
 31
0.0
  0
LINE
  5
93
330
1F
100
AcDbEntity
  8
Graypants_Arc80
370
    -3
100
AcDbLine
 10
8.000000000000227
 20
-1270.747995924471
 30
0.0
 11
0.0000000000002274
 21
-1270.747995924471
 31
0.0
  0
LINE
  5
94
330
1F
100
AcDbEntity
  8
Graypants_Arc80
370
    -3
100
AcDbLine
 10
0.0000000000002274
 20
-1553.247995924471
 30
0.0
 11
14.75000000000023
 21
-1553.247995924471
 31
0.0
  0
LINE
  5
95
330
1F
100
AcDbEntity
  8
Graypants_Arc80
370
    -3
100
AcDbLine
 10
0.0000000000002274
 20
-1553.497995924471
 30
0.0
 11
14.50000000000023
 21
-1553.497995924471
 31
0.0
  0
LINE
  5
96
330
1F
100
AcDbEntity
  8
Graypants_Arc80
370
    -3
100
AcDbLine
 10
-14.99999999999977
 20
-1483.497995924471
 30
0.0
 11
15.00000000000023
 21
-1483.497995924471
 31
0.0
  0
LINE
  5
97
330
1F
100
AcDbEntity
  8
Graypants_Arc80
370
    -3
100
AcDbLine
 10
-14.74999999999977
 20
-1553.247995924471
 30
0.0
 11
0.0000000000002274
 21
-1553.247995924471
 31
0.0
  0
ARC
  5
98
330
1F
100
AcDbEntity
  8
Graypants_Arc80
370
    -3
100
AcDbCircle
 10
0.0
 20
-1518.497995924471
 30
0.0
 40
8.249999999999773
210
0.0
220
0.0
230
-1.0
100
AcDbArc
 50
90.00000000000158
 51
269.9999999999985
  0
LINE
  5
99
330
1F
100
AcDbEntity
  8
Graypants_Arc80
370
    -3
100
AcDbLine
 10
-7.749999999999773
 20
-1270.497995924471
 30
0.0
 11
7.750000000000227
 21
-1270.497995924471
 31
0.0
  0
LINE
  5
9A
330
1F
100
AcDbEntity
  8
Graypants_Arc80
370
    -3
100
AcDbLine
 10
14.50000000000023
 20
-1481.497995924471
 30
0.0
 11
-14.49999999999977
 21
-1481.497995924471
 31
0.0
  0
LINE
  5
9B
330
1F
100
AcDbEntity
  8
Graypants_Arc80
370
    -3
100
AcDbLine
 10
-14.49999999999977
 20
-1553.497995924471
 30
0.0
 11
0.0000000000002274
 21
-1553.497995924471
 31
0.0
  0
LINE
  5
9C
330
1F
100
AcDbEntity
  8
Graypants_Arc80
370
    -3
100
AcDbLine
 10
-71.9999999999998
 20
-521.5091926903846
 30
0.0
 11
72.00000000000023
 21
-521.5091926903846
 31
0.0
  0
CIRCLE
  5
9D
330
1F
100
AcDbEntity
  8
Graypants_Arc80
370
    -3
100
AcDbCircle
 10
385.3591926903885
 20
-1518.497995924471
 30
0.0
 40
2.499999999999943
  0
CIRCLE
  5
9E
330
1F
100
AcDbEntity
  8
Graypants_Arc80
370
    -3
100
AcDbCircle
 10
734.6591926899241
 20
-1518.498048196366
 30
0.0
 40
2.499999999999886
  0
ARC
  5
9F
330
1F
100
AcDbEntity
  8
Graypants_Arc80
370
    -3
100
AcDbCircle
 10
560.0091926903884
 20
-1515.669568799725
 30
0.0
 40
1.999999999999855
100
AcDbArc
 50
224.9999999999954
 51
315.0000000000047
  0
LINE
  5
A0
330
1F
100
AcDbEntity
  8
Graypants_Arc80
370
    -3
100
AcDbLine
 10
561.4234062527615
 20
-1517.083782362098
 30
0.0
 11
568.0091926903887
 21
-1510.497995924471
 31
0.0
  0
LINE
  5
A1
330
1F
100
AcDbEntity
  8
Graypants_Arc80
370
    -3
100
AcDbLine
 10
370.6091926903885
 20
-1553.247995924471
 30
0.0
 11
370.8591926903885
 21
-1553.497995924471
 31
0.0
  0
LINE
  5
A2
330
1F
100
AcDbEntity
  8
Graypants_Arc80
370
    -3
100
AcDbLine
 10
400.1091926903885
 20
-1553.247995924471
 30
0.0
 11
399.8591926903885
 21
-1553.497995924471
 31
0.0
  0
LINE
  5
A3
330
1F
100
AcDbEntity
  8
Graypants_Arc80
370
    -3
100
AcDbLine
 10
400.1091926903885
 20
-1483.747995924471
 30
0.0
 11
370.6091926903885
 21
-1483.747995924471
 31
0.0
  0
LINE
  5
A4
330
1F
100
AcDbEntity
  8
Graypants_Arc80
370
    -3
100
AcDbLine
 10
370.6091926903885
 20
-1483.747995924471
 30
0.0
 11
370.8591926903885
 21
-1483.497995924471
 31
0.0
  0
LINE
  5
A5
330
1F
100
AcDbEntity
  8
Graypants_Arc80
370
    -3
100
AcDbLine
 10
400.1091926903885
 20
-1483.747995924471
 30
0.0
 11
399.8591926903885
 21
-1483.497995924471
 31
0.0
  0
LINE
  5
A6
330
1F
100
AcDbEntity
  8
Graypants_Arc80
370
    -3
100
AcDbLine
 10
759.7591926903887
 20
-1526.497995924471
 30
0.0
 11
759.7591926903884
 21
-1510.497995924471
 31
0.0
  0
LINE
  5
A7
330
1F
100
AcDbEntity
  8
Graypants_Arc80
370
    -3
100
AcDbLine
 10
760.0091926903887
 20
-1518.497995924471
 30
0.0
 11
760.0091926903887
 21
-1510.747995924471
 31
0.0
  0
LINE
  5
A8
330
1F
100
AcDbEntity
  8
Graypants_Arc80
370
    -3
100
AcDbLine
 10
749.4091926903901
 20
-1483.747995924471
 30
0.0
 11
749.1591926903901
 21
-1483.497995924471
 31
0.0
  0
LINE
  5
A9
330
1F
100
AcDbEntity
  8
Graypants_Arc80
370
    -3
100
AcDbLine
 10
719.9091926903901
 20
-1483.747995924471
 30
0.0
 11
720.1591926903901
 21
-1483.497995924471
 31
0.0
  0
LINE
  5
AA
330
1F
100
AcDbEntity
  8
Graypants_Arc80
370
    -3
100
AcDbLine
 10
734.6591926903901
 20
-1481.497995924471
 30
0.0
 11
720.1591926903901
 21
-1481.497995924471
 31
0.0
  0
LINE
  5
AB
330
1F
100
AcDbEntity
  8
Graypants_Arc80
370
    -3
100
AcDbLine
 10
719.6591926903901
 20
-1481.997995924471
 30
0.0
 11
749.6591926903903
 21
-1481.997995924471
 31
0.0
  0
LINE
  5
AC
330
1F
100
AcDbEntity
  8
Graypants_Arc80
370
    -3
100
AcDbLine
 10
749.4091926903901
 20
-1483.747995924471
 30
0.0
 11
719.9091926903901
 21
-1483.747995924471
 31
0.0
  0
ARC
  5
AD
330
1F
100
AcDbEntity
  8
Graypants_Arc80
370
    -3
100
AcDbCircle
 10
-734.6591924599447
 20
-1518.497995924471
 30
0.0
 40
3.000000000002737
210
0.0
220
0.0
230
-1.0
100
AcDbArc
 50
269.9999955988174
 51
269.9991683058158
  0
LINE
  5
AE
330
1F
100
AcDbEntity
  8
Graypants_Arc80
370
    -3
100
AcDbLine
 10
370.6091926903885
 20
-1526.747995924471
 30
0.0
 11
370.6091926903885
 21
-1553.247995924471
 31
0.0
  0
LINE
  5
AF
330
1F
100
AcDbEntity
  8
Graypants_Arc80
370
    -3
100
AcDbLine
 10
370.6091926903885
 20
-1483.747995924471
 30
0.0
 11
370.6091926903885
 21
-1510.247995924471
 31
0.0
  0
LINE
  5
B0
330
1F
100
AcDbEntity
  8
Graypants_Arc80
370
    -3
100
AcDbLine
 10
400.1091926903885
 20
-1510.247995924471
 30
0.0
 11
400.1091926903885
 21
-1483.747995924471
 31
0.0
  0
LINE
  5
B1
330
1F
100
AcDbEntity
  8
Graypants_Arc80
370
    -3
100
AcDbLine
 10
400.1091926903885
 20
-1553.247995924471
 30
0.0
 11
400.1091926903885
 21
-1526.747995924471
 31
0.0
  0
ARC
  5
B2
330
1F
100
AcDbEntity
  8
Graypants_Arc80
370
    -3
100
AcDbCircle
 10
-385.3591924457677
 20
-1518.497995924471
 30
0.0
 40
3.000000000002739
210
0.0
220
0.0
230
-1.0
100
AcDbArc
 50
269.9999953280886
 51
269.9991680350913
  0
LINE
  5
B3
330
1F
100
AcDbEntity
  8
Graypants_Arc80
370
    -3
100
AcDbLine
 10
567.7591926903887
 20
-1270.497995924471
 30
0.0
 11
568.0091926903887
 21
-1270.747995924471
 31
0.0
  0
LINE
  5
B4
330
1F
100
AcDbEntity
  8
Graypants_Arc80
370
    -3
100
AcDbLine
 10
552.0091926903887
 20
-1270.747995924471
 30
0.0
 11
552.2591926903887
 21
-1270.497995924471
 31
0.0
  0
LINE
  5
B5
330
1F
100
AcDbEntity
  8
Graypants_Arc80
370
    -3
100
AcDbLine
 10
552.0091926903887
 20
-1272.497995924471
 30
0.0
 11
552.0091926903887
 21
-1270.747995924471
 31
0.0
  0
LINE
  5
B6
330
1F
100
AcDbEntity
  8
Graypants_Arc80
370
    -3
100
AcDbLine
 10
568.0091926903887
 20
-1270.747995924471
 30
0.0
 11
568.0091926903887
 21
-1272.497995924471
 31
0.0
  0
LINE
  5
B7
330
1F
100
AcDbEntity
  8
Graypants_Arc80
370
    -3
100
AcDbLine
 10
552.0091926903887
 20
-1500.497995924471
 30
0.0
 11
552.0091926903887
 21
-1272.497995924471
 31
0.0
  0
LINE
  5
B8
330
1F
100
AcDbEntity
  8
Graypants_Arc80
370
    -3
100
AcDbLine
 10
568.0091926903887
 20
-1272.497995924471
 30
0.0
 11
568.0091926903887
 21
-1500.497995924471
 31
0.0
  0
LINE
  5
B9
330
1F
100
AcDbEntity
  8
Graypants_Arc80
370
    -3
100
AcDbLine
 10
568.0091926903887
 20
-1501.497995924471
 30
0.0
 11
568.0091926903887
 21
-1510.497995924471
 31
0.0
  0
LINE
  5
BA
330
1F
100
AcDbEntity
  8
Graypants_Arc80
370
    -3
100
AcDbLine
 10
552.0091926903887
 20
-1510.497995924471
 30
0.0
 11
552.0091926903887
 21
-1501.497995924471
 31
0.0
  0
LINE
  5
BB
330
1F
100
AcDbEntity
  8
Graypants_Arc80
370
    -3
100
AcDbLine
 10
567.5091926903887
 20
-1500.497995924471
 30
0.0
 11
567.5091926903887
 21
-1501.497995924471
 31
0.0
  0
LINE
  5
BC
330
1F
100
AcDbEntity
  8
Graypants_Arc80
370
    -3
100
AcDbLine
 10
552.5091926903887
 20
-1501.497995924471
 30
0.0
 11
552.5091926903887
 21
-1500.497995924471
 31
0.0
  0
LINE
  5
BD
330
1F
100
AcDbEntity
  8
Graypants_Arc80
370
    -3
100
AcDbLine
 10
568.0091926863447
 20
-1510.497995928592
 30
0.0
 11
720.0478135386843
 21
-1510.497995928592
 31
0.0
  0
LINE
  5
BE
330
1F
100
AcDbEntity
  8
Graypants_Arc80
370
    -3
100
AcDbLine
 10
360.0091926903901
 20
-1510.747995924471
 30
0.0
 11
360.2591926903901
 21
-1510.497995924471
 31
0.0
  0
LINE
  5
BF
330
1F
100
AcDbEntity
  8
Graypants_Arc80
370
    -3
100
AcDbLine
 10
360.2591926903901
 20
-1526.497995924471
 30
0.0
 11
360.0091926903901
 21
-1526.247995924471
 31
0.0
  0
LINE
  5
C0
330
1F
100
AcDbEntity
  8
Graypants_Arc80
370
    -3
100
AcDbLine
 10
360.2591926903903
 20
-1510.497995924471
 30
0.0
 11
370.7475772301528
 21
-1510.497995924471
 31
0.0
  0
LINE
  5
C1
330
1F
100
AcDbEntity
  8
Graypants_Arc80
370
    -3
100
AcDbLine
 10
399.8591926903885
 20
-1481.497995924471
 30
0.0
 11
400.3591926903885
 21
-1481.997995924471
 31
0.0
  0
LINE
  5
C2
330
1F
100
AcDbEntity
  8
Graypants_Arc80
370
    -3
100
AcDbLine
 10
370.3591926903885
 20
-1481.997995924471
 30
0.0
 11
370.8591926903885
 21
-1481.497995924471
 31
0.0
  0
LINE
  5
C3
330
1F
100
AcDbEntity
  8
Graypants_Arc80
370
    -3
100
AcDbLine
 10
400.3591926903885
 20
-1481.997995924471
 30
0.0
 11
400.3591926903885
 21
-1483.497995924471
 31
0.0
  0
LINE
  5
C4
330
1F
100
AcDbEntity
  8
Graypants_Arc80
370
    -3
100
AcDbLine
 10
370.3591926903885
 20
-1483.497995924471
 30
0.0
 11
370.3591926903885
 21
-1481.997995924471
 31
0.0
  0
LINE
  5
C5
330
1F
100
AcDbEntity
  8
Graypants_Arc80
370
    -3
100
AcDbLine
 10
760.0091926903887
 20
-1526.247995924471
 30
0.0
 11
759.7591926903887
 21
-1526.497995924471
 31
0.0
  0
LINE
  5
C6
330
1F
100
AcDbEntity
  8
Graypants_Arc80
370
    -3
100
AcDbLine
 10
759.7591926903887
 20
-1510.497995924471
 30
0.0
 11
760.0091926903887
 21
-1510.747995924471
 31
0.0
  0
LINE
  5
C7
330
1F
100
AcDbEntity
  8
Graypants_Arc80
370
    -3
100
AcDbLine
 10
760.0091926903887
 20
-1526.247995924471
 30
0.0
 11
760.0091926903887
 21
-1518.497995924471
 31
0.0
  0
LINE
  5
C8
330
1F
100
AcDbEntity
  8
Graypants_Arc80
370
    -3
100
AcDbLine
 10
759.7591926903887
 20
-1526.497995924471
 30
0.0
 11
749.2709188921752
 21
-1526.497995924471
 31
0.0
  0
LINE
  5
C9
330
1F
100
AcDbEntity
  8
Graypants_Arc80
370
    -3
100
AcDbLine
 10
749.4091926903901
 20
-1483.747995924471
 30
0.0
 11
749.4091926903901
 21
-1510.247995924471
 31
0.0
  0
LINE
  5
CA
330
1F
100
AcDbEntity
  8
Graypants_Arc80
370
    -3
100
AcDbLine
 10
749.4091926903901
 20
-1526.747995924471
 30
0.0
 11
749.4091926903901
 21
-1553.247995924471
 31
0.0
  0
LINE
  5
CB
330
1F
100
AcDbEntity
  8
Graypants_Arc80
370
    -3
100
AcDbLine
 10
719.9091926903901
 20
-1553.247995924471
 30
0.0
 11
719.9091926903901
 21
-1526.747995924471
 31
0.0
  0
LINE
  5
CC
330
1F
100
AcDbEntity
  8
Graypants_Arc80
370
    -3
100
AcDbLine
 10
719.9091926903901
 20
-1510.247995924471
 30
0.0
 11
719.9091926903901
 21
-1483.747995924471
 31
0.0
  0
LINE
  5
CD
330
1F
100
AcDbEntity
  8
Graypants_Arc80
370
    -3
100
AcDbLine
 10
720.1591926903901
 20
-1553.497995924471
 30
0.0
 11
719.9091926903901
 21
-1553.247995924471
 31
0.0
  0
LINE
  5
CE
330
1F
100
AcDbEntity
  8
Graypants_Arc80
370
    -3
100
AcDbLine
 10
749.4091926903901
 20
-1553.247995924471
 30
0.0
 11
749.1591926903901
 21
-1553.497995924471
 31
0.0
  0
LINE
  5
CF
330
1F
100
AcDbEntity
  8
Graypants_Arc80
370
    -3
100
AcDbLine
 10
749.1591926903901
 20
-1481.497995924471
 30
0.0
 11
749.6591926903901
 21
-1481.997995924471
 31
0.0
  0
LINE
  5
D0
330
1F
100
AcDbEntity
  8
Graypants_Arc80
370
    -3
100
AcDbLine
 10
719.6591926903901
 20
-1481.997995924471
 30
0.0
 11
720.1591926903901
 21
-1481.497995924471
 31
0.0
  0
LINE
  5
D1
330
1F
100
AcDbEntity
  8
Graypants_Arc80
370
    -3
100
AcDbLine
 10
749.1591926903901
 20
-1481.497995924471
 30
0.0
 11
734.6591926903901
 21
-1481.497995924471
 31
0.0
  0
LINE
  5
D2
330
1F
100
AcDbEntity
  8
Graypants_Arc80
370
    -3
100
AcDbLine
 10
749.6591926903901
 20
-1481.997995924471
 30
0.0
 11
749.6591926903901
 21
-1483.497995924471
 31
0.0
  0
LINE
  5
D3
330
1F
100
AcDbEntity
  8
Graypants_Arc80
370
    -3
100
AcDbLine
 10
719.6591926903901
 20
-1483.497995924471
 30
0.0
 11
719.6591926903901
 21
-1481.997995924471
 31
0.0
  0
LINE
  5
D4
330
1F
100
AcDbEntity
  8
Graypants_Arc80
370
    -3
100
AcDbLine
 10
552.0091926903885
 20
-1510.497995924471
 30
0.0
 11
558.5949791280153
 21
-1517.083782362098
 31
0.0
  0
LINE
  5
D5
330
1F
100
AcDbEntity
  8
Graypants_Arc80
370
    -3
100
AcDbLine
 10
399.9713345913477
 20
-1510.497995928592
 30
0.0
 11
552.0091926944325
 21
-1510.497995928592
 31
0.0
  0
LINE
  5
D6
330
1F
100
AcDbEntity
  8
Graypants_Arc80
370
    -3
100
AcDbLine
 10
720.0477226940992
 20
-1526.49799592035
 30
0.0
 11
399.9712437467627
 21
-1526.49799592035
 31
0.0
  0
LINE
  5
D7
330
1F
100
AcDbEntity
  8
Graypants_Arc80
370
    -3
100
AcDbLine
 10
370.7480475507866
 20
-1526.497995924471
 30
0.0
 11
360.2591926903901
 21
-1526.497995924471
 31
0.0
  0
LINE
  5
D8
330
1F
100
AcDbEntity
  8
Graypants_Arc80
370
    -3
100
AcDbLine
 10
749.2710097346602
 20
-1510.497995924471
 30
0.0
 11
759.7591926903887
 21
-1510.497995924471
 31
0.0
  0
LINE
  5
D9
330
1F
100
AcDbEntity
  8
Graypants_Arc80
370
    -3
100
AcDbLine
 10
360.2591926903901
 20
-1510.497995924471
 30
0.0
 11
360.2591926903901
 21
-1526.497995924471
 31
0.0
  0
LINE
  5
DA
330
1F
100
AcDbEntity
  8
Graypants_Arc80
370
    -3
100
AcDbLine
 10
370.3591926903885
 20
-1481.997995924471
 30
0.0
 11
400.3591926903885
 21
-1481.997995924471
 31
0.0
  0
LINE
  5
DB
330
1F
100
AcDbEntity
  8
Graypants_Arc80
370
    -3
100
AcDbLine
 10
360.0091926903901
 20
-1510.747995924471
 30
0.0
 11
360.0091926903901
 21
-1526.247995924471
 31
0.0
  0
LINE
  5
DC
330
1F
100
AcDbEntity
  8
Graypants_Arc80
370
    -3
100
AcDbLine
 10
399.8591926903885
 20
-1481.497995924471
 30
0.0
 11
370.8591926903885
 21
-1481.497995924471
 31
0.0
  0
POLYLINE
  5
DD
330
1F
100
AcDbEntity
  8
Graypants_Arc80
370
    -3
100
AcDb2dPolyline
 66
     1
 10
0.0
 20
0.0
 30
0.0
  0
VERTEX
  5
DE
330
DD
100
AcDbEntity
  8
Graypants_Arc80
370
    -3
100
AcDbVertex
100
AcDb2dVertex
 10
398.7523861384286
 20
-1553.49799592447
 30
0.0
  0
VERTEX
  5
DF
330
DD
100
AcDbEntity
  8
Graypants_Arc80
370
    -3
100
AcDbVertex
100
AcDb2dVertex
 10
398.8842247986641
 20
-1556.823828311849
 30
0.0
  0
VERTEX
  5
E0
330
DD
100
AcDbEntity
  8
Graypants_Arc80
370
    -3
100
AcDbVertex
100
AcDb2dVertex
 10
399.0345039326928
 20
-1560.132085029041
 30
0.0
  0
VERTEX
  5
E1
330
DD
100
AcDbEntity
  8
Graypants_Arc80
370
    -3
100
AcDbVertex
100
AcDb2dVertex
 10
399.2030133732741
 20
-1563.422636158155
 30
0.0
  0
VERTEX
  5
E2
330
DD
100
AcDbEntity
  8
Graypants_Arc80
370
    -3
100
AcDbVertex
100
AcDb2dVertex
 10
399.3895429531678
 20
-1566.695351781298
 30
0.0
  0
VERTEX
  5
E3
330
DD
100
AcDbEntity
  8
Graypants_Arc80
370
    -3
100
AcDbVertex
100
AcDb2dVertex
 10
399.5938825051338
 20
-1569.950101980578
 30
0.0
  0
VERTEX
  5
E4
330
DD
100
AcDbEntity
  8
Graypants_Arc80
370
    -3
100
AcDbVertex
100
AcDb2dVertex
 10
399.8158218619318
 20
-1573.186756838103
 30
0.0
  0
VERTEX
  5
E5
330
DD
100
AcDbEntity
  8
Graypants_Arc80
370
    -3
100
AcDbVertex
100
AcDb2dVertex
 10
400.0551508563213
 20
-1576.40518643598
 30
0.0
  0
VERTEX
  5
E6
330
DD
100
AcDbEntity
  8
Graypants_Arc80
370
    -3
100
AcDbVertex
100
AcDb2dVertex
 10
400.3116593210624
 20
-1579.605260856318
 30
0.0
  0
VERTEX
  5
E7
330
DD
100
AcDbEntity
  8
Graypants_Arc80
370
    -3
100
AcDbVertex
100
AcDb2dVertex
 10
400.5851370889146
 20
-1582.786850181224
 30
0.0
  0
VERTEX
  5
E8
330
DD
100
AcDbEntity
  8
Graypants_Arc80
370
    -3
100
AcDbVertex
100
AcDb2dVertex
 10
400.8753739926377
 20
-1585.949824492806
 30
0.0
  0
VERTEX
  5
E9
330
DD
100
AcDbEntity
  8
Graypants_Arc80
370
    -3
100
AcDbVertex
100
AcDb2dVertex
 10
401.1821598649915
 20
-1589.094053873172
 30
0.0
  0
VERTEX
  5
EA
330
DD
100
AcDbEntity
  8
Graypants_Arc80
370
    -3
100
AcDbVertex
100
AcDb2dVertex
 10
401.5052845387357
 20
-1592.219408404429
 30
0.0
  0
VERTEX
  5
EB
330
DD
100
AcDbEntity
  8
Graypants_Arc80
370
    -3
100
AcDbVertex
100
AcDb2dVertex
 10
401.84453784663
 20
-1595.325758168686
 30
0.0
  0
VERTEX
  5
EC
330
DD
100
AcDbEntity
  8
Graypants_Arc80
370
    -3
100
AcDbVertex
100
AcDb2dVertex
 10
402.1997096214341
 20
-1598.412973248049
 30
0.0
  0
VERTEX
  5
ED
330
DD
100
AcDbEntity
  8
Graypants_Arc80
370
    -3
100
AcDbVertex
100
AcDb2dVertex
 10
402.5705896959079
 20
-1601.480923724627
 30
0.0
  0
VERTEX
  5
EE
330
DD
100
AcDbEntity
  8
Graypants_Arc80
370
    -3
100
AcDbVertex
100
AcDb2dVertex
 10
402.956967902811
 20
-1604.529479680529
 30
0.0
  0
VERTEX
  5
EF
330
DD
100
AcDbEntity
  8
Graypants_Arc80
370
    -3
100
AcDbVertex
100
AcDb2dVertex
 10
403.5220893583976
 20
-1608.753966255326
 30
0.0
  0
VERTEX
  5
F0
330
DD
100
AcDbEntity
  8
Graypants_Arc80
370
    -3
100
AcDbVertex
100
AcDb2dVertex
 10
404.1165343466387
 20
-1612.939910566836
 30
0.0
  0
VERTEX
  5
F1
330
DD
100
AcDbEntity
  8
Graypants_Arc80
370
    -3
100
AcDbVertex
100
AcDb2dVertex
 10
404.7398245532375
 20
-1617.087141465767
 30
0.0
  0
VERTEX
  5
F2
330
DD
100
AcDbEntity
  8
Graypants_Arc80
370
    -3
100
AcDbVertex
100
AcDb2dVertex
 10
405.3914816638973
 20
-1621.195487802829
 30
0.0
  0
VERTEX
  5
F3
330
DD
100
AcDbEntity
  8
Graypants_Arc80
370
    -3
100
AcDbVertex
100
AcDb2dVertex
 10
406.0710273643214
 20
-1625.26477842873
 30
0.0
  0
VERTEX
  5
F4
330
DD
100
AcDbEntity
  8
Graypants_Arc80
370
    -3
100
AcDbVertex
100
AcDb2dVertex
 10
406.777983340213
 20
-1629.294842194181
 30
0.0
  0
VERTEX
  5
F5
330
DD
100
AcDbEntity
  8
Graypants_Arc80
370
    -3
100
AcDbVertex
100
AcDb2dVertex
 10
407.5118712772755
 20
-1633.285507949889
 30
0.0
  0
VERTEX
  5
F6
330
DD
100
AcDbEntity
  8
Graypants_Arc80
370
    -3
100
AcDbVertex
100
AcDb2dVertex
 10
408.2722128612123
 20
-1637.236604546566
 30
0.0
  0
VERTEX
  5
F7
330
DD
100
AcDbEntity
  8
Graypants_Arc80
370
    -3
100
AcDbVertex
100
AcDb2dVertex
 10
409.0585297777263
 20
-1641.147960834919
 30
0.0
  0
VERTEX
  5
F8
330
DD
100
AcDbEntity
  8
Graypants_Arc80
370
    -3
100
AcDbVertex
100
AcDb2dVertex
 10
409.870343712521
 20
-1645.019405665658
 30
0.0
  0
VERTEX
  5
F9
330
DD
100
AcDbEntity
  8
Graypants_Arc80
370
    -3
100
AcDbVertex
100
AcDb2dVertex
 10
410.7071763512997
 20
-1648.850767889493
 30
0.0
  0
VERTEX
  5
FA
330
DD
100
AcDbEntity
  8
Graypants_Arc80
370
    -3
100
AcDbVertex
100
AcDb2dVertex
 10
411.5685493797656
 20
-1652.641876357133
 30
0.0
  0
VERTEX
  5
FB
330
DD
100
AcDbEntity
  8
Graypants_Arc80
370
    -3
100
AcDbVertex
100
AcDb2dVertex
 10
412.453984483622
 20
-1656.392559919287
 30
0.0
  0
VERTEX
  5
FC
330
DD
100
AcDbEntity
  8
Graypants_Arc80
370
    -3
100
AcDbVertex
100
AcDb2dVertex
 10
413.3630033485722
 20
-1660.102647426664
 30
0.0
  0
VERTEX
  5
FD
330
DD
100
AcDbEntity
  8
Graypants_Arc80
370
    -3
100
AcDbVertex
100
AcDb2dVertex
 10
414.2951276603195
 20
-1663.771967729974
 30
0.0
  0
VERTEX
  5
FE
330
DD
100
AcDbEntity
  8
Graypants_Arc80
370
    -3
100
AcDbVertex
100
AcDb2dVertex
 10
415.2498791045671
 20
-1667.400349679926
 30
0.0
  0
VERTEX
  5
FF
330
DD
100
AcDbEntity
  8
Graypants_Arc80
370
    -3
100
AcDbVertex
100
AcDb2dVertex
 10
416.226779100009
 20
-1670.987588559101
 30
0.0
  0
VERTEX
  5
100
330
DD
100
AcDbEntity
  8
Graypants_Arc80
370
    -3
100
AcDbVertex
100
AcDb2dVertex
 10
417.2254003764575
 20
-1674.533574873513
 30
0.0
  0
VERTEX
  5
101
330
DD
100
AcDbEntity
  8
Graypants_Arc80
370
    -3
100
AcDbVertex
100
AcDb2dVertex
 10
418.245341586293
 20
-1678.038280309019
 30
0.0
  0
VERTEX
  5
102
330
DD
100
AcDbEntity
  8
Graypants_Arc80
370
    -3
100
AcDbVertex
100
AcDb2dVertex
 10
419.2862013818964
 20
-1681.501676551477
 30
0.0
  0
VERTEX
  5
103
330
DD
100
AcDbEntity
  8
Graypants_Arc80
370
    -3
100
AcDbVertex
100
AcDb2dVertex
 10
420.3475784156482
 20
-1684.923735286743
 30
0.0
  0
VERTEX
  5
104
330
DD
100
AcDbEntity
  8
Graypants_Arc80
370
    -3
100
AcDbVertex
100
AcDb2dVertex
 10
421.429071339929
 20
-1688.304428200675
 30
0.0
  0
VERTEX
  5
105
330
DD
100
AcDbEntity
  8
Graypants_Arc80
370
    -3
100
AcDbVertex
100
AcDb2dVertex
 10
422.5302788071195
 20
-1691.643726979131
 30
0.0
  0
VERTEX
  5
106
330
DD
100
AcDbEntity
  8
Graypants_Arc80
370
    -3
100
AcDbVertex
100
AcDb2dVertex
 10
423.6507994696004
 20
-1694.941603307968
 30
0.0
  0
VERTEX
  5
107
330
DD
100
AcDbEntity
  8
Graypants_Arc80
370
    -3
100
AcDbVertex
100
AcDb2dVertex
 10
424.7902319797523
 20
-1698.198028873043
 30
0.0
  0
VERTEX
  5
108
330
DD
100
AcDbEntity
  8
Graypants_Arc80
370
    -3
100
AcDbVertex
100
AcDb2dVertex
 10
425.9481749899557
 20
-1701.412975360214
 30
0.0
  0
VERTEX
  5
109
330
DD
100
AcDbEntity
  8
Graypants_Arc80
370
    -3
100
AcDbVertex
100
AcDb2dVertex
 10
427.1242271525914
 20
-1704.586414455337
 30
0.0
  0
VERTEX
  5
10A
330
DD
100
AcDbEntity
  8
Graypants_Arc80
370
    -3
100
AcDbVertex
100
AcDb2dVertex
 10
428.31798712004
 20
-1707.718317844271
 30
0.0
  0
VERTEX
  5
10B
330
DD
100
AcDbEntity
  8
Graypants_Arc80
370
    -3
100
AcDbVertex
100
AcDb2dVertex
 10
429.5290535446821
 20
-1710.808657212872
 30
0.0
  0
VERTEX
  5
10C
330
DD
100
AcDbEntity
  8
Graypants_Arc80
370
    -3
100
AcDbVertex
100
AcDb2dVertex
 10
430.7570250788983
 20
-1713.857404246999
 30
0.0
  0
VERTEX
  5
10D
330
DD
100
AcDbEntity
  8
Graypants_Arc80
370
    -3
100
AcDbVertex
100
AcDb2dVertex
 10
432.0015003750693
 20
-1716.864530632507
 30
0.0
  0
VERTEX
  5
10E
330
DD
100
AcDbEntity
  8
Graypants_Arc80
370
    -3
100
AcDbVertex
100
AcDb2dVertex
 10
433.2620780855758
 20
-1719.830008055256
 30
0.0
  0
VERTEX
  5
10F
330
DD
100
AcDbEntity
  8
Graypants_Arc80
370
    -3
100
AcDbVertex
100
AcDb2dVertex
 10
434.538335881105
 20
-1722.753762550015
 30
0.0
  0
VERTEX
  5
110
330
DD
100
AcDbEntity
  8
Graypants_Arc80
370
    -3
100
AcDbVertex
100
AcDb2dVertex
 10
435.8298947861497
 20
-1725.635789200189
 30
0.0
  0
VERTEX
  5
111
330
DD
100
AcDbEntity
  8
Graypants_Arc80
370
    -3
100
AcDbVertex
100
AcDb2dVertex
 10
437.1364184837991
 20
-1728.476163264583
 30
0.0
  0
VERTEX
  5
112
330
DD
100
AcDbEntity
  8
Graypants_Arc80
370
    -3
100
AcDbVertex
100
AcDb2dVertex
 10
438.4575706571421
 20
-1731.274960002002
 30
0.0
  0
VERTEX
  5
113
330
DD
100
AcDbEntity
  8
Graypants_Arc80
370
    -3
100
AcDbVertex
100
AcDb2dVertex
 10
439.7930149892678
 20
-1734.03225467125
 30
0.0
  0
VERTEX
  5
114
330
DD
100
AcDbEntity
  8
Graypants_Arc80
370
    -3
100
AcDbVertex
100
AcDb2dVertex
 10
441.1424151632651
 20
-1736.748122531134
 30
0.0
  0
VERTEX
  5
115
330
DD
100
AcDbEntity
  8
Graypants_Arc80
370
    -3
100
AcDbVertex
100
AcDb2dVertex
 10
442.505434862223
 20
-1739.422638840457
 30
0.0
  0
VERTEX
  5
116
330
DD
100
AcDbEntity
  8
Graypants_Arc80
370
    -3
100
AcDbVertex
100
AcDb2dVertex
 10
443.8817377692305
 20
-1742.055878858026
 30
0.0
  0
VERTEX
  5
117
330
DD
100
AcDbEntity
  8
Graypants_Arc80
370
    -3
100
AcDbVertex
100
AcDb2dVertex
 10
445.2709875673768
 20
-1744.647917842645
 30
0.0
  0
VERTEX
  5
118
330
DD
100
AcDbEntity
  8
Graypants_Arc80
370
    -3
100
AcDbVertex
100
AcDb2dVertex
 10
446.6728479397507
 20
-1747.19883105312
 30
0.0
  0
VERTEX
  5
119
330
DD
100
AcDbEntity
  8
Graypants_Arc80
370
    -3
100
AcDbVertex
100
AcDb2dVertex
 10
448.0869825694414
 20
-1749.708693748255
 30
0.0
  0
VERTEX
  5
11A
330
DD
100
AcDbEntity
  8
Graypants_Arc80
370
    -3
100
AcDbVertex
100
AcDb2dVertex
 10
449.5130551395377
 20
-1752.177581186857
 30
0.0
  0
VERTEX
  5
11B
330
DD
100
AcDbEntity
  8
Graypants_Arc80
370
    -3
100
AcDbVertex
100
AcDb2dVertex
 10
450.9507293331288
 20
-1754.605568627729
 30
0.0
  0
VERTEX
  5
11C
330
DD
100
AcDbEntity
  8
Graypants_Arc80
370
    -3
100
AcDbVertex
100
AcDb2dVertex
 10
452.3996688333035
 20
-1756.992731329677
 30
0.0
  0
VERTEX
  5
11D
330
DD
100
AcDbEntity
  8
Graypants_Arc80
370
    -3
100
AcDbVertex
100
AcDb2dVertex
 10
453.859537323151
 20
-1759.339144551506
 30
0.0
  0
VERTEX
  5
11E
330
DD
100
AcDbEntity
  8
Graypants_Arc80
370
    -3
100
AcDbVertex
100
AcDb2dVertex
 10
455.3299984857601
 20
-1761.644883552021
 30
0.0
  0
VERTEX
  5
11F
330
DD
100
AcDbEntity
  8
Graypants_Arc80
370
    -3
100
AcDbVertex
100
AcDb2dVertex
 10
456.8105834953969
 20
-1763.909943189592
 30
0.0
  0
VERTEX
  5
120
330
DD
100
AcDbEntity
  8
Graypants_Arc80
370
    -3
100
AcDbVertex
100
AcDb2dVertex
 10
458.3008671164723
 20
-1766.134357738961
 30
0.0
  0
VERTEX
  5
121
330
DD
100
AcDbEntity
  8
Graypants_Arc80
370
    -3
100
AcDbVertex
100
AcDb2dVertex
 10
459.8005784172931
 20
-1768.318261583489
 30
0.0
  0
VERTEX
  5
122
330
DD
100
AcDbEntity
  8
Graypants_Arc80
370
    -3
100
AcDbVertex
100
AcDb2dVertex
 10
461.3094464661662
 20
-1770.461789106538
 30
0.0
  0
VERTEX
  5
123
330
DD
100
AcDbEntity
  8
Graypants_Arc80
370
    -3
100
AcDbVertex
100
AcDb2dVertex
 10
462.8272003313985
 20
-1772.565074691472
 30
0.0
  0
VERTEX
  5
124
330
DD
100
AcDbEntity
  8
Graypants_Arc80
370
    -3
100
AcDbVertex
100
AcDb2dVertex
 10
464.3535690812968
 20
-1774.628252721651
 30
0.0
  0
VERTEX
  5
125
330
DD
100
AcDbEntity
  8
Graypants_Arc80
370
    -3
100
AcDbVertex
100
AcDb2dVertex
 10
465.8882817841679
 20
-1776.651457580439
 30
0.0
  0
VERTEX
  5
126
330
DD
100
AcDbEntity
  8
Graypants_Arc80
370
    -3
100
AcDbVertex
100
AcDb2dVertex
 10
467.4310675083187
 20
-1778.634823651198
 30
0.0
  0
VERTEX
  5
127
330
DD
100
AcDbEntity
  8
Graypants_Arc80
370
    -3
100
AcDbVertex
100
AcDb2dVertex
 10
468.9816553220561
 20
-1780.57848531729
 30
0.0
  0
VERTEX
  5
128
330
DD
100
AcDbEntity
  8
Graypants_Arc80
370
    -3
100
AcDbVertex
100
AcDb2dVertex
 10
470.5397742936869
 20
-1782.482576962077
 30
0.0
  0
VERTEX
  5
129
330
DD
100
AcDbEntity
  8
Graypants_Arc80
370
    -3
100
AcDbVertex
100
AcDb2dVertex
 10
472.1051534915181
 20
-1784.347232968922
 30
0.0
  0
VERTEX
  5
12A
330
DD
100
AcDbEntity
  8
Graypants_Arc80
370
    -3
100
AcDbVertex
100
AcDb2dVertex
 10
473.6775219838563
 20
-1786.172587721187
 30
0.0
  0
VERTEX
  5
12B
330
DD
100
AcDbEntity
  8
Graypants_Arc80
370
    -3
100
AcDbVertex
100
AcDb2dVertex
 10
475.2566088390084
 20
-1787.958775602233
 30
0.0
  0
VERTEX
  5
12C
330
DD
100
AcDbEntity
  8
Graypants_Arc80
370
    -3
100
AcDbVertex
100
AcDb2dVertex
 10
476.8421431252814
 20
-1789.705930995424
 30
0.0
  0
VERTEX
  5
12D
330
DD
100
AcDbEntity
  8
Graypants_Arc80
370
    -3
100
AcDbVertex
100
AcDb2dVertex
 10
478.433853910982
 20
-1791.414188284122
 30
0.0
  0
VERTEX
  5
12E
330
DD
100
AcDbEntity
  8
Graypants_Arc80
370
    -3
100
AcDbVertex
100
AcDb2dVertex
 10
480.0314702644172
 20
-1793.08368185169
 30
0.0
  0
VERTEX
  5
12F
330
DD
100
AcDbEntity
  8
Graypants_Arc80
370
    -3
100
AcDbVertex
100
AcDb2dVertex
 10
481.6347026446693
 20
-1794.714565396742
 30
0.0
  0
VERTEX
  5
130
330
DD
100
AcDbEntity
  8
Graypants_Arc80
370
    -3
100
AcDbVertex
100
AcDb2dVertex
 10
483.243288117534
 20
-1796.307028883019
 30
0.0
  0
VERTEX
  5
131
330
DD
100
AcDbEntity
  8
Graypants_Arc80
370
    -3
100
AcDbVertex
100
AcDb2dVertex
 10
484.8569956613884
 20
-1797.861261091567
 30
0.0
  0
VERTEX
  5
132
330
DD
100
AcDbEntity
  8
Graypants_Arc80
370
    -3
100
AcDbVertex
100
AcDb2dVertex
 10
486.4755942546093
 20
-1799.377450803431
 30
0.0
  0
VERTEX
  5
133
330
DD
100
AcDbEntity
  8
Graypants_Arc80
370
    -3
100
AcDbVertex
100
AcDb2dVertex
 10
488.0988528755736
 20
-1800.85578679966
 30
0.0
  0
VERTEX
  5
134
330
DD
100
AcDbEntity
  8
Graypants_Arc80
370
    -3
100
AcDbVertex
100
AcDb2dVertex
 10
489.7265405026584
 20
-1802.296457861299
 30
0.0
  0
VERTEX
  5
135
330
DD
100
AcDbEntity
  8
Graypants_Arc80
370
    -3
100
AcDbVertex
100
AcDb2dVertex
 10
491.3584261142404
 20
-1803.699652769394
 30
0.0
  0
VERTEX
  5
136
330
DD
100
AcDbEntity
  8
Graypants_Arc80
370
    -3
100
AcDbVertex
100
AcDb2dVertex
 10
492.9942786886967
 20
-1805.065560304991
 30
0.0
  0
VERTEX
  5
137
330
DD
100
AcDbEntity
  8
Graypants_Arc80
370
    -3
100
AcDbVertex
100
AcDb2dVertex
 10
494.6338672044041
 20
-1806.394369249138
 30
0.0
  0
VERTEX
  5
138
330
DD
100
AcDbEntity
  8
Graypants_Arc80
370
    -3
100
AcDbVertex
100
AcDb2dVertex
 10
496.2769606397395
 20
-1807.686268382881
 30
0.0
  0
VERTEX
  5
139
330
DD
100
AcDbEntity
  8
Graypants_Arc80
370
    -3
100
AcDbVertex
100
AcDb2dVertex
 10
497.9233279730799
 20
-1808.941446487265
 30
0.0
  0
VERTEX
  5
13A
330
DD
100
AcDbEntity
  8
Graypants_Arc80
370
    -3
100
AcDbVertex
100
AcDb2dVertex
 10
499.5727381828023
 20
-1810.160092343338
 30
0.0
  0
VERTEX
  5
13B
330
DD
100
AcDbEntity
  8
Graypants_Arc80
370
    -3
100
AcDbVertex
100
AcDb2dVertex
 10
501.2249602472834
 20
-1811.342394732146
 30
0.0
  0
VERTEX
  5
13C
330
DD
100
AcDbEntity
  8
Graypants_Arc80
370
    -3
100
AcDbVertex
100
AcDb2dVertex
 10
502.8797631449003
 20
-1812.488542434735
 30
0.0
  0
VERTEX
  5
13D
330
DD
100
AcDbEntity
  8
Graypants_Arc80
370
    -3
100
AcDbVertex
100
AcDb2dVertex
 10
504.5369158540298
 20
-1813.598724232152
 30
0.0
  0
VERTEX
  5
13E
330
DD
100
AcDbEntity
  8
Graypants_Arc80
370
    -3
100
AcDbVertex
100
AcDb2dVertex
 10
506.1961873530489
 20
-1814.673128905442
 30
0.0
  0
VERTEX
  5
13F
330
DD
100
AcDbEntity
  8
Graypants_Arc80
370
    -3
100
AcDbVertex
100
AcDb2dVertex
 10
507.8572352940342
 20
-1815.711947013637
 30
0.0
  0
VERTEX
  5
140
330
DD
100
AcDbEntity
  8
Graypants_Arc80
370
    -3
100
AcDbVertex
100
AcDb2dVertex
 10
509.5198038054579
 20
-1816.715359038748
 30
0.0
  0
VERTEX
  5
141
330
DD
100
AcDbEntity
  8
Graypants_Arc80
370
    -3
100
AcDbVertex
100
AcDb2dVertex
 10
511.1837915802901
 20
-1817.683538646294
 30
0.0
  0
VERTEX
  5
142
330
DD
100
AcDbEntity
  8
Graypants_Arc80
370
    -3
100
AcDbVertex
100
AcDb2dVertex
 10
512.8490973115013
 20
-1818.616659501794
 30
0.0
  0
VERTEX
  5
143
330
DD
100
AcDbEntity
  8
Graypants_Arc80
370
    -3
100
AcDbVertex
100
AcDb2dVertex
 10
514.5156196920616
 20
-1819.514895270767
 30
0.0
  0
VERTEX
  5
144
330
DD
100
AcDbEntity
  8
Graypants_Arc80
370
    -3
100
AcDbVertex
100
AcDb2dVertex
 10
516.1832574149414
 20
-1820.378419618731
 30
0.0
  0
VERTEX
  5
145
330
DD
100
AcDbEntity
  8
Graypants_Arc80
370
    -3
100
AcDbVertex
100
AcDb2dVertex
 10
517.8519091731112
 20
-1821.207406211206
 30
0.0
  0
VERTEX
  5
146
330
DD
100
AcDbEntity
  8
Graypants_Arc80
370
    -3
100
AcDbVertex
100
AcDb2dVertex
 10
519.5214736595408
 20
-1822.00202871371
 30
0.0
  0
VERTEX
  5
147
330
DD
100
AcDbEntity
  8
Graypants_Arc80
370
    -3
100
AcDbVertex
100
AcDb2dVertex
 10
521.1918495672008
 20
-1822.762460791762
 30
0.0
  0
VERTEX
  5
148
330
DD
100
AcDbEntity
  8
Graypants_Arc80
370
    -3
100
AcDbVertex
100
AcDb2dVertex
 10
522.8629355890614
 20
-1823.48887611088
 30
0.0
  0
VERTEX
  5
149
330
DD
100
AcDbEntity
  8
Graypants_Arc80
370
    -3
100
AcDbVertex
100
AcDb2dVertex
 10
524.534630418093
 20
-1824.181448336585
 30
0.0
  0
VERTEX
  5
14A
330
DD
100
AcDbEntity
  8
Graypants_Arc80
370
    -3
100
AcDbVertex
100
AcDb2dVertex
 10
526.2068327472657
 20
-1824.840351134394
 30
0.0
  0
VERTEX
  5
14B
330
DD
100
AcDbEntity
  8
Graypants_Arc80
370
    -3
100
AcDbVertex
100
AcDb2dVertex
 10
527.8794412695498
 20
-1825.465758169826
 30
0.0
  0
VERTEX
  5
14C
330
DD
100
AcDbEntity
  8
Graypants_Arc80
370
    -3
100
AcDbVertex
100
AcDb2dVertex
 10
529.5523546779158
 20
-1826.0578431084
 30
0.0
  0
VERTEX
  5
14D
330
DD
100
AcDbEntity
  8
Graypants_Arc80
370
    -3
100
AcDbVertex
100
AcDb2dVertex
 10
531.2254716653338
 20
-1826.616779615636
 30
0.0
  0
VERTEX
  5
14E
330
DD
100
AcDbEntity
  8
Graypants_Arc80
370
    -3
100
AcDbVertex
100
AcDb2dVertex
 10
532.8986909247741
 20
-1827.142741357051
 30
0.0
  0
VERTEX
  5
14F
330
DD
100
AcDbEntity
  8
Graypants_Arc80
370
    -3
100
AcDbVertex
100
AcDb2dVertex
 10
534.5719793150952
 20
-1827.635967443316
 30
0.0
  0
VERTEX
  5
150
330
DD
100
AcDbEntity
  8
Graypants_Arc80
370
    -3
100
AcDbVertex
100
AcDb2dVertex
 10
536.2453802748887
 20
-1828.096647865137
 30
0.0
  0
VERTEX
  5
151
330
DD
100
AcDbEntity
  8
Graypants_Arc80
370
    -3
100
AcDbVertex
100
AcDb2dVertex
 10
537.9189073667254
 20
-1828.524882608086
 30
0.0
  0
VERTEX
  5
152
330
DD
100
AcDbEntity
  8
Graypants_Arc80
370
    -3
100
AcDbVertex
100
AcDb2dVertex
 10
539.592574153176
 20
-1828.920771657736
 30
0.0
  0
VERTEX
  5
153
330
DD
100
AcDbEntity
  8
Graypants_Arc80
370
    -3
100
AcDbVertex
100
AcDb2dVertex
 10
541.2663941968109
 20
-1829.284414999658
 30
0.0
  0
VERTEX
  5
154
330
DD
100
AcDbEntity
  8
Graypants_Arc80
370
    -3
100
AcDbVertex
100
AcDb2dVertex
 10
542.9403810602008
 20
-1829.615912619425
 30
0.0
  0
VERTEX
  5
155
330
DD
100
AcDbEntity
  8
Graypants_Arc80
370
    -3
100
AcDbVertex
100
AcDb2dVertex
 10
544.6145483059163
 20
-1829.91536450261
 30
0.0
  0
VERTEX
  5
156
330
DD
100
AcDbEntity
  8
Graypants_Arc80
370
    -3
100
AcDbVertex
100
AcDb2dVertex
 10
546.288909496528
 20
-1830.182870634784
 30
0.0
  0
VERTEX
  5
157
330
DD
100
AcDbEntity
  8
Graypants_Arc80
370
    -3
100
AcDbVertex
100
AcDb2dVertex
 10
547.9634781946065
 20
-1830.418531001519
 30
0.0
  0
VERTEX
  5
158
330
DD
100
AcDbEntity
  8
Graypants_Arc80
370
    -3
100
AcDbVertex
100
AcDb2dVertex
 10
549.6382679627225
 20
-1830.622445588389
 30
0.0
  0
VERTEX
  5
159
330
DD
100
AcDbEntity
  8
Graypants_Arc80
370
    -3
100
AcDbVertex
100
AcDb2dVertex
 10
551.3132923634464
 20
-1830.794714380965
 30
0.0
  0
VERTEX
  5
15A
330
DD
100
AcDbEntity
  8
Graypants_Arc80
370
    -3
100
AcDbVertex
100
AcDb2dVertex
 10
552.9885649593491
 20
-1830.93543736482
 30
0.0
  0
VERTEX
  5
15B
330
DD
100
AcDbEntity
  8
Graypants_Arc80
370
    -3
100
AcDbVertex
100
AcDb2dVertex
 10
554.664099313001
 20
-1831.044714525526
 30
0.0
  0
VERTEX
  5
15C
330
DD
100
AcDbEntity
  8
Graypants_Arc80
370
    -3
100
AcDbVertex
100
AcDb2dVertex
 10
556.3399089869727
 20
-1831.122645848655
 30
0.0
  0
VERTEX
  5
15D
330
DD
100
AcDbEntity
  8
Graypants_Arc80
370
    -3
100
AcDbVertex
100
AcDb2dVertex
 10
558.0160075438348
 20
-1831.169331319779
 30
0.0
  0
VERTEX
  5
15E
330
DD
100
AcDbEntity
  8
Graypants_Arc80
370
    -3
100
AcDbVertex
100
AcDb2dVertex
 10
559.6924085461582
 20
-1831.184870924471
 30
0.0
  0
VERTEX
  5
15F
330
DD
100
AcDbEntity
  8
Graypants_Arc80
370
    -3
100
AcDbVertex
100
AcDb2dVertex
 10
561.3689647932244
 20
-1831.16932885778
 30
0.0
  0
VERTEX
  5
160
330
DD
100
AcDbEntity
  8
Graypants_Arc80
370
    -3
100
AcDbVertex
100
AcDb2dVertex
 10
563.045525414539
 20
-1831.122634578339
 30
0.0
  0
VERTEX
  5
161
330
DD
100
AcDbEntity
  8
Graypants_Arc80
370
    -3
100
AcDbVertex
100
AcDb2dVertex
 10
564.7220984680068
 20
-1831.044685967091
 30
0.0
  0
VERTEX
  5
162
330
DD
100
AcDbEntity
  8
Graypants_Arc80
370
    -3
100
AcDbVertex
100
AcDb2dVertex
 10
566.3986920115331
 20
-1830.935380904982
 30
0.0
  0
VERTEX
  5
163
330
DD
100
AcDbEntity
  8
Graypants_Arc80
370
    -3
100
AcDbVertex
100
AcDb2dVertex
 10
568.075314103023
 20
-1830.794617272956
 30
0.0
  0
VERTEX
  5
164
330
DD
100
AcDbEntity
  8
Graypants_Arc80
370
    -3
100
AcDbVertex
100
AcDb2dVertex
 10
569.7519728003815
 20
-1830.622292951958
 30
0.0
  0
VERTEX
  5
165
330
DD
100
AcDbEntity
  8
Graypants_Arc80
370
    -3
100
AcDbVertex
100
AcDb2dVertex
 10
571.4286761615139
 20
-1830.418305822933
 30
0.0
  0
VERTEX
  5
166
330
DD
100
AcDbEntity
  8
Graypants_Arc80
370
    -3
100
AcDbVertex
100
AcDb2dVertex
 10
573.1054322443254
 20
-1830.182553766825
 30
0.0
  0
VERTEX
  5
167
330
DD
100
AcDbEntity
  8
Graypants_Arc80
370
    -3
100
AcDbVertex
100
AcDb2dVertex
 10
574.782249106721
 20
-1829.91493466458
 30
0.0
  0
VERTEX
  5
168
330
DD
100
AcDbEntity
  8
Graypants_Arc80
370
    -3
100
AcDbVertex
100
AcDb2dVertex
 10
576.459134806606
 20
-1829.615346397142
 30
0.0
  0
VERTEX
  5
169
330
DD
100
AcDbEntity
  8
Graypants_Arc80
370
    -3
100
AcDbVertex
100
AcDb2dVertex
 10
578.1360974018855
 20
-1829.283686845456
 30
0.0
  0
VERTEX
  5
16A
330
DD
100
AcDbEntity
  8
Graypants_Arc80
370
    -3
100
AcDbVertex
100
AcDb2dVertex
 10
579.8131449504647
 20
-1828.919853890467
 30
0.0
  0
VERTEX
  5
16B
330
DD
100
AcDbEntity
  8
Graypants_Arc80
370
    -3
100
AcDbVertex
100
AcDb2dVertex
 10
581.4902855102484
 20
-1828.52374541312
 30
0.0
  0
VERTEX
  5
16C
330
DD
100
AcDbEntity
  8
Graypants_Arc80
370
    -3
100
AcDbVertex
100
AcDb2dVertex
 10
583.1675271391423
 20
-1828.095259294359
 30
0.0
  0
VERTEX
  5
16D
330
DD
100
AcDbEntity
  8
Graypants_Arc80
370
    -3
100
AcDbVertex
100
AcDb2dVertex
 10
584.844877895051
 20
-1827.634293415129
 30
0.0
  0
VERTEX
  5
16E
330
DD
100
AcDbEntity
  8
Graypants_Arc80
370
    -3
100
AcDbVertex
100
AcDb2dVertex
 10
586.52234583588
 20
-1827.140745656375
 30
0.0
  0
VERTEX
  5
16F
330
DD
100
AcDbEntity
  8
Graypants_Arc80
370
    -3
100
AcDbVertex
100
AcDb2dVertex
 10
588.1999664636832
 20
-1826.614424919794
 30
0.0
  0
VERTEX
  5
170
330
DD
100
AcDbEntity
  8
Graypants_Arc80
370
    -3
100
AcDbVertex
100
AcDb2dVertex
 10
589.8776986470821
 20
-1826.055093418524
 30
0.0
  0
VERTEX
  5
171
330
DD
100
AcDbEntity
  8
Graypants_Arc80
370
    -3
100
AcDbVertex
100
AcDb2dVertex
 10
591.5554354938329
 20
-1825.462579000678
 30
0.0
  0
VERTEX
  5
172
330
DD
100
AcDbEntity
  8
Graypants_Arc80
370
    -3
100
AcDbVertex
100
AcDb2dVertex
 10
593.2330701116919
 20
-1824.836709514366
 30
0.0
  0
VERTEX
  5
173
330
DD
100
AcDbEntity
  8
Graypants_Arc80
370
    -3
100
AcDbVertex
100
AcDb2dVertex
 10
594.9104956084152
 20
-1824.177312807697
 30
0.0
  0
VERTEX
  5
174
330
DD
100
AcDbEntity
  8
Graypants_Arc80
370
    -3
100
AcDbVertex
100
AcDb2dVertex
 10
596.5876050917591
 20
-1823.484216728783
 30
0.0
  0
VERTEX
  5
175
330
DD
100
AcDbEntity
  8
Graypants_Arc80
370
    -3
100
AcDbVertex
100
AcDb2dVertex
 10
598.2642916694798
 20
-1822.757249125734
 30
0.0
  0
VERTEX
  5
176
330
DD
100
AcDbEntity
  8
Graypants_Arc80
370
    -3
100
AcDbVertex
100
AcDb2dVertex
 10
599.9404484493334
 20
-1821.996237846661
 30
0.0
  0
VERTEX
  5
177
330
DD
100
AcDbEntity
  8
Graypants_Arc80
370
    -3
100
AcDbVertex
100
AcDb2dVertex
 10
601.6159685390762
 20
-1821.201010739674
 30
0.0
  0
VERTEX
  5
178
330
DD
100
AcDbEntity
  8
Graypants_Arc80
370
    -3
100
AcDbVertex
100
AcDb2dVertex
 10
603.2907450464643
 20
-1820.371395652884
 30
0.0
  0
VERTEX
  5
179
330
DD
100
AcDbEntity
  8
Graypants_Arc80
370
    -3
100
AcDbVertex
100
AcDb2dVertex
 10
604.964671079254
 20
-1819.507220434401
 30
0.0
  0
VERTEX
  5
17A
330
DD
100
AcDbEntity
  8
Graypants_Arc80
370
    -3
100
AcDbVertex
100
AcDb2dVertex
 10
606.6376397452013
 20
-1818.608312932335
 30
0.0
  0
VERTEX
  5
17B
330
DD
100
AcDbEntity
  8
Graypants_Arc80
370
    -3
100
AcDbVertex
100
AcDb2dVertex
 10
608.3095441520628
 20
-1817.674500994798
 30
0.0
  0
VERTEX
  5
17C
330
DD
100
AcDbEntity
  8
Graypants_Arc80
370
    -3
100
AcDbVertex
100
AcDb2dVertex
 10
609.9802774075943
 20
-1816.7056124699
 30
0.0
  0
VERTEX
  5
17D
330
DD
100
AcDbEntity
  8
Graypants_Arc80
370
    -3
100
AcDbVertex
100
AcDb2dVertex
 10
611.6497326195522
 20
-1815.701475205751
 30
0.0
  0
VERTEX
  5
17E
330
DD
100
AcDbEntity
  8
Graypants_Arc80
370
    -3
100
AcDbVertex
100
AcDb2dVertex
 10
613.3178028956926
 20
-1814.661917050461
 30
0.0
  0
VERTEX
  5
17F
330
DD
100
AcDbEntity
  8
Graypants_Arc80
370
    -3
100
AcDbVertex
100
AcDb2dVertex
 10
614.9842183691267
 20
-1813.586764147337
 30
0.0
  0
VERTEX
  5
180
330
DD
100
AcDbEntity
  8
Graypants_Arc80
370
    -3
100
AcDbVertex
100
AcDb2dVertex
 10
616.6486225929098
 20
-1812.475832910156
 30
0.0
  0
VERTEX
  5
181
330
DD
100
AcDbEntity
  8
Graypants_Arc80
370
    -3
100
AcDbVertex
100
AcDb2dVertex
 10
618.3107788047143
 20
-1811.328936592736
 30
0.0
  0
VERTEX
  5
182
330
DD
100
AcDbEntity
  8
Graypants_Arc80
370
    -3
100
AcDbVertex
100
AcDb2dVertex
 10
619.9704502422131
 20
-1810.145888448893
 30
0.0
  0
VERTEX
  5
183
330
DD
100
AcDbEntity
  8
Graypants_Arc80
370
    -3
100
AcDbVertex
100
AcDb2dVertex
 10
621.6274001430787
 20
-1808.926501732448
 30
0.0
  0
VERTEX
  5
184
330
DD
100
AcDbEntity
  8
Graypants_Arc80
370
    -3
100
AcDbVertex
100
AcDb2dVertex
 10
623.2813917449837
 20
-1807.670589697217
 30
0.0
  0
VERTEX
  5
185
330
DD
100
AcDbEntity
  8
Graypants_Arc80
370
    -3
100
AcDbVertex
100
AcDb2dVertex
 10
624.9321882856004
 20
-1806.377965597019
 30
0.0
  0
VERTEX
  5
186
330
DD
100
AcDbEntity
  8
Graypants_Arc80
370
    -3
100
AcDbVertex
100
AcDb2dVertex
 10
626.5795530026018
 20
-1805.048442685671
 30
0.0
  0
VERTEX
  5
187
330
DD
100
AcDbEntity
  8
Graypants_Arc80
370
    -3
100
AcDbVertex
100
AcDb2dVertex
 10
628.2232491336601
 20
-1803.681834216992
 30
0.0
  0
VERTEX
  5
188
330
DD
100
AcDbEntity
  8
Graypants_Arc80
370
    -3
100
AcDbVertex
100
AcDb2dVertex
 10
629.8630399164484
 20
-1802.2779534448
 30
0.0
  0
VERTEX
  5
189
330
DD
100
AcDbEntity
  8
Graypants_Arc80
370
    -3
100
AcDbVertex
100
AcDb2dVertex
 10
631.4986885886389
 20
-1800.836613622912
 30
0.0
  0
VERTEX
  5
18A
330
DD
100
AcDbEntity
  8
Graypants_Arc80
370
    -3
100
AcDbVertex
100
AcDb2dVertex
 10
633.1299583879041
 20
-1799.357628005148
 30
0.0
  0
VERTEX
  5
18B
330
DD
100
AcDbEntity
  8
Graypants_Arc80
370
    -3
100
AcDbVertex
100
AcDb2dVertex
 10
634.756612551917
 20
-1797.840809845324
 30
0.0
  0
VERTEX
  5
18C
330
DD
100
AcDbEntity
  8
Graypants_Arc80
370
    -3
100
AcDbVertex
100
AcDb2dVertex
 10
636.3784143183498
 20
-1796.285972397259
 30
0.0
  0
VERTEX
  5
18D
330
DD
100
AcDbEntity
  8
Graypants_Arc80
370
    -3
100
AcDbVertex
100
AcDb2dVertex
 10
637.9951269248752
 20
-1794.692928914771
 30
0.0
  0
VERTEX
  5
18E
330
DD
100
AcDbEntity
  8
Graypants_Arc80
370
    -3
100
AcDbVertex
100
AcDb2dVertex
 10
639.606513609166
 20
-1793.061492651678
 30
0.0
  0
VERTEX
  5
18F
330
DD
100
AcDbEntity
  8
Graypants_Arc80
370
    -3
100
AcDbVertex
100
AcDb2dVertex
 10
641.2123069177951
 20
-1791.391475435346
 30
0.0
  0
VERTEX
  5
190
330
DD
100
AcDbEntity
  8
Graypants_Arc80
370
    -3
100
AcDbVertex
100
AcDb2dVertex
 10
642.8122134059878
 20
-1789.682724370816
 30
0.0
  0
VERTEX
  5
191
330
DD
100
AcDbEntity
  8
Graypants_Arc80
370
    -3
100
AcDbVertex
100
AcDb2dVertex
 10
644.4059573243946
 20
-1787.935105628415
 30
0.0
  0
VERTEX
  5
192
330
DD
100
AcDbEntity
  8
Graypants_Arc80
370
    -3
100
AcDbVertex
100
AcDb2dVertex
 10
645.9932629236666
 20
-1786.14848537847
 30
0.0
  0
VERTEX
  5
193
330
DD
100
AcDbEntity
  8
Graypants_Arc80
370
    -3
100
AcDbVertex
100
AcDb2dVertex
 10
647.5738544544542
 20
-1784.322729791308
 30
0.0
  0
VERTEX
  5
194
330
DD
100
AcDbEntity
  8
Graypants_Arc80
370
    -3
100
AcDbVertex
100
AcDb2dVertex
 10
649.1474561674081
 20
-1782.457705037257
 30
0.0
  0
VERTEX
  5
195
330
DD
100
AcDbEntity
  8
Graypants_Arc80
370
    -3
100
AcDbVertex
100
AcDb2dVertex
 10
650.713792313179
 20
-1780.553277286645
 30
0.0
  0
VERTEX
  5
196
330
DD
100
AcDbEntity
  8
Graypants_Arc80
370
    -3
100
AcDbVertex
100
AcDb2dVertex
 10
652.2725871424177
 20
-1778.609312709797
 30
0.0
  0
VERTEX
  5
197
330
DD
100
AcDbEntity
  8
Graypants_Arc80
370
    -3
100
AcDbVertex
100
AcDb2dVertex
 10
653.8235649057747
 20
-1776.625677477042
 30
0.0
  0
VERTEX
  5
198
330
DD
100
AcDbEntity
  8
Graypants_Arc80
370
    -3
100
AcDbVertex
100
AcDb2dVertex
 10
655.3664498539006
 20
-1774.602237758707
 30
0.0
  0
VERTEX
  5
199
330
DD
100
AcDbEntity
  8
Graypants_Arc80
370
    -3
100
AcDbVertex
100
AcDb2dVertex
 10
656.9009662374463
 20
-1772.53885972512
 30
0.0
  0
VERTEX
  5
19A
330
DD
100
AcDbEntity
  8
Graypants_Arc80
370
    -3
100
AcDbVertex
100
AcDb2dVertex
 10
658.4268383070624
 20
-1770.435409546607
 30
0.0
  0
VERTEX
  5
19B
330
DD
100
AcDbEntity
  8
Graypants_Arc80
370
    -3
100
AcDbVertex
100
AcDb2dVertex
 10
659.9437903133996
 20
-1768.291753393496
 30
0.0
  0
VERTEX
  5
19C
330
DD
100
AcDbEntity
  8
Graypants_Arc80
370
    -3
100
AcDbVertex
100
AcDb2dVertex
 10
661.4515465071087
 20
-1766.107757436114
 30
0.0
  0
VERTEX
  5
19D
330
DD
100
AcDbEntity
  8
Graypants_Arc80
370
    -3
100
AcDbVertex
100
AcDb2dVertex
 10
662.9498311388402
 20
-1763.883287844789
 30
0.0
  0
VERTEX
  5
19E
330
DD
100
AcDbEntity
  8
Graypants_Arc80
370
    -3
100
AcDbVertex
100
AcDb2dVertex
 10
664.4383684592448
 20
-1761.618210789848
 30
0.0
  0
VERTEX
  5
19F
330
DD
100
AcDbEntity
  8
Graypants_Arc80
370
    -3
100
AcDbVertex
100
AcDb2dVertex
 10
665.9167271977565
 20
-1759.312490371134
 30
0.0
  0
VERTEX
  5
1A0
330
DD
100
AcDbEntity
  8
Graypants_Arc80
370
    -3
100
AcDbVertex
100
AcDb2dVertex
 10
667.3844325638502
 20
-1756.966129357178
 30
0.0
  0
VERTEX
  5
1A1
330
DD
100
AcDbEntity
  8
Graypants_Arc80
370
    -3
100
AcDbVertex
100
AcDb2dVertex
 10
668.8411435282378
 20
-1754.579051921332
 30
0.0
  0
VERTEX
  5
1A2
330
DD
100
AcDbEntity
  8
Graypants_Arc80
370
    -3
100
AcDbVertex
100
AcDb2dVertex
 10
670.2865190616315
 20
-1752.151182236953
 30
0.0
  0
VERTEX
  5
1A3
330
DD
100
AcDbEntity
  8
Graypants_Arc80
370
    -3
100
AcDbVertex
100
AcDb2dVertex
 10
671.7202181347434
 20
-1749.682444477395
 30
0.0
  0
VERTEX
  5
1A4
330
DD
100
AcDbEntity
  8
Graypants_Arc80
370
    -3
100
AcDbVertex
100
AcDb2dVertex
 10
673.1418997182857
 20
-1747.172762816012
 30
0.0
  0
VERTEX
  5
1A5
330
DD
100
AcDbEntity
  8
Graypants_Arc80
370
    -3
100
AcDbVertex
100
AcDb2dVertex
 10
674.5512227829702
 20
-1744.622061426159
 30
0.0
  0
VERTEX
  5
1A6
330
DD
100
AcDbEntity
  8
Graypants_Arc80
370
    -3
100
AcDbVertex
100
AcDb2dVertex
 10
675.9478462995094
 20
-1742.030264481191
 30
0.0
  0
VERTEX
  5
1A7
330
DD
100
AcDbEntity
  8
Graypants_Arc80
370
    -3
100
AcDbVertex
100
AcDb2dVertex
 10
677.3314292386152
 20
-1739.397296154462
 30
0.0
  0
VERTEX
  5
1A8
330
DD
100
AcDbEntity
  8
Graypants_Arc80
370
    -3
100
AcDbVertex
100
AcDb2dVertex
 10
678.7016305709998
 20
-1736.723080619327
 30
0.0
  0
VERTEX
  5
1A9
330
DD
100
AcDbEntity
  8
Graypants_Arc80
370
    -3
100
AcDbVertex
100
AcDb2dVertex
 10
680.0581092673751
 20
-1734.007542049139
 30
0.0
  0
VERTEX
  5
1AA
330
DD
100
AcDbEntity
  8
Graypants_Arc80
370
    -3
100
AcDbVertex
100
AcDb2dVertex
 10
681.4005242984534
 20
-1731.250604617256
 30
0.0
  0
VERTEX
  5
1AB
330
DD
100
AcDbEntity
  8
Graypants_Arc80
370
    -3
100
AcDbVertex
100
AcDb2dVertex
 10
682.7285346349469
 20
-1728.45219249703
 30
0.0
  0
VERTEX
  5
1AC
330
DD
100
AcDbEntity
  8
Graypants_Arc80
370
    -3
100
AcDbVertex
100
AcDb2dVertex
 10
684.0417992475674
 20
-1725.612229861815
 30
0.0
  0
VERTEX
  5
1AD
330
DD
100
AcDbEntity
  8
Graypants_Arc80
370
    -3
100
AcDbVertex
100
AcDb2dVertex
 10
685.3399771070272
 20
-1722.730640884968
 30
0.0
  0
VERTEX
  5
1AE
330
DD
100
AcDbEntity
  8
Graypants_Arc80
370
    -3
100
AcDbVertex
100
AcDb2dVertex
 10
686.6227271840384
 20
-1719.807349739842
 30
0.0
  0
VERTEX
  5
1AF
330
DD
100
AcDbEntity
  8
Graypants_Arc80
370
    -3
100
AcDbVertex
100
AcDb2dVertex
 10
687.8896665397307
 20
-1716.842355797575
 30
0.0
  0
VERTEX
  5
1B0
330
DD
100
AcDbEntity
  8
Graypants_Arc80
370
    -3
100
AcDbVertex
100
AcDb2dVertex
 10
689.1403700641355
 20
-1713.835727530517
 30
0.0
  0
VERTEX
  5
1B1
330
DD
100
AcDbEntity
  8
Graypants_Arc80
370
    -3
100
AcDbVertex
100
AcDb2dVertex
 10
690.3744334713168
 20
-1710.787492763838
 30
0.0
  0
VERTEX
  5
1B2
330
DD
100
AcDbEntity
  8
Graypants_Arc80
370
    -3
100
AcDbVertex
100
AcDb2dVertex
 10
691.5914524753389
 20
-1707.697679322712
 30
0.0
  0
VERTEX
  5
1B3
330
DD
100
AcDbEntity
  8
Graypants_Arc80
370
    -3
100
AcDbVertex
100
AcDb2dVertex
 10
692.7910227902657
 20
-1704.566315032311
 30
0.0
  0
VERTEX
  5
1B4
330
DD
100
AcDbEntity
  8
Graypants_Arc80
370
    -3
100
AcDbVertex
100
AcDb2dVertex
 10
693.9727401301614
 20
-1701.393427717806
 30
0.0
  0
VERTEX
  5
1B5
330
DD
100
AcDbEntity
  8
Graypants_Arc80
370
    -3
100
AcDbVertex
100
AcDb2dVertex
 10
695.1362002090899
 20
-1698.179045204372
 30
0.0
  0
VERTEX
  5
1B6
330
DD
100
AcDbEntity
  8
Graypants_Arc80
370
    -3
100
AcDbVertex
100
AcDb2dVertex
 10
696.2809987411156
 20
-1694.923195317178
 30
0.0
  0
VERTEX
  5
1B7
330
DD
100
AcDbEntity
  8
Graypants_Arc80
370
    -3
100
AcDbVertex
100
AcDb2dVertex
 10
697.4067314403023
 20
-1691.625905881398
 30
0.0
  0
VERTEX
  5
1B8
330
DD
100
AcDbEntity
  8
Graypants_Arc80
370
    -3
100
AcDbVertex
100
AcDb2dVertex
 10
698.5129940207144
 20
-1688.287204722204
 30
0.0
  0
VERTEX
  5
1B9
330
DD
100
AcDbEntity
  8
Graypants_Arc80
370
    -3
100
AcDbVertex
100
AcDb2dVertex
 10
699.599382196416
 20
-1684.907119664768
 30
0.0
  0
VERTEX
  5
1BA
330
DD
100
AcDbEntity
  8
Graypants_Arc80
370
    -3
100
AcDbVertex
100
AcDb2dVertex
 10
700.6654916814707
 20
-1681.485678534263
 30
0.0
  0
VERTEX
  5
1BB
330
DD
100
AcDbEntity
  8
Graypants_Arc80
370
    -3
100
AcDbVertex
100
AcDb2dVertex
 10
701.7109181899432
 20
-1678.02290915586
 30
0.0
  0
VERTEX
  5
1BC
330
DD
100
AcDbEntity
  8
Graypants_Arc80
370
    -3
100
AcDbVertex
100
AcDb2dVertex
 10
702.7352574358972
 20
-1674.518839354732
 30
0.0
  0
VERTEX
  5
1BD
330
DD
100
AcDbEntity
  8
Graypants_Arc80
370
    -3
100
AcDbVertex
100
AcDb2dVertex
 10
703.738105133397
 20
-1670.973496956051
 30
0.0
  0
VERTEX
  5
1BE
330
DD
100
AcDbEntity
  8
Graypants_Arc80
370
    -3
100
AcDbVertex
100
AcDb2dVertex
 10
704.7190569965065
 20
-1667.386909784989
 30
0.0
  0
VERTEX
  5
1BF
330
DD
100
AcDbEntity
  8
Graypants_Arc80
370
    -3
100
AcDbVertex
100
AcDb2dVertex
 10
705.6776840668956
 20
-1663.759178680972
 30
0.0
  0
VERTEX
  5
1C0
330
DD
100
AcDbEntity
  8
Graypants_Arc80
370
    -3
100
AcDbVertex
100
AcDb2dVertex
 10
706.6135090124253
 20
-1660.090499998001
 30
0.0
  0
VERTEX
  5
1C1
330
DD
100
AcDbEntity
  8
Graypants_Arc80
370
    -3
100
AcDbVertex
100
AcDb2dVertex
 10
707.5260549864474
 20
-1656.381044833115
 30
0.0
  0
VERTEX
  5
1C2
330
DD
100
AcDbEntity
  8
Graypants_Arc80
370
    -3
100
AcDbVertex
100
AcDb2dVertex
 10
708.4148451423137
 20
-1652.630984283353
 30
0.0
  0
VERTEX
  5
1C3
330
DD
100
AcDbEntity
  8
Graypants_Arc80
370
    -3
100
AcDbVertex
100
AcDb2dVertex
 10
709.2794026333753
 20
-1648.840489445755
 30
0.0
  0
VERTEX
  5
1C4
330
DD
100
AcDbEntity
  8
Graypants_Arc80
370
    -3
100
AcDbVertex
100
AcDb2dVertex
 10
710.1192506129843
 20
-1645.009731417358
 30
0.0
  0
VERTEX
  5
1C5
330
DD
100
AcDbEntity
  8
Graypants_Arc80
370
    -3
100
AcDbVertex
100
AcDb2dVertex
 10
710.9339122344921
 20
-1641.138881295201
 30
0.0
  0
VERTEX
  5
1C6
330
DD
100
AcDbEntity
  8
Graypants_Arc80
370
    -3
100
AcDbVertex
100
AcDb2dVertex
 10
711.7229106512505
 20
-1637.228110176323
 30
0.0
  0
VERTEX
  5
1C7
330
DD
100
AcDbEntity
  8
Graypants_Arc80
370
    -3
100
AcDbVertex
100
AcDb2dVertex
 10
712.4857690166109
 20
-1633.277589157763
 30
0.0
  0
VERTEX
  5
1C8
330
DD
100
AcDbEntity
  8
Graypants_Arc80
370
    -3
100
AcDbVertex
100
AcDb2dVertex
 10
713.222010483925
 20
-1629.28748933656
 30
0.0
  0
VERTEX
  5
1C9
330
DD
100
AcDbEntity
  8
Graypants_Arc80
370
    -3
100
AcDbVertex
100
AcDb2dVertex
 10
713.9311582065446
 20
-1625.257981809752
 30
0.0
  0
VERTEX
  5
1CA
330
DD
100
AcDbEntity
  8
Graypants_Arc80
370
    -3
100
AcDbVertex
100
AcDb2dVertex
 10
714.6127353378213
 20
-1621.189237674379
 30
0.0
  0
VERTEX
  5
1CB
330
DD
100
AcDbEntity
  8
Graypants_Arc80
370
    -3
100
AcDbVertex
100
AcDb2dVertex
 10
715.2662650311065
 20
-1617.081428027477
 30
0.0
  0
VERTEX
  5
1CC
330
DD
100
AcDbEntity
  8
Graypants_Arc80
370
    -3
100
AcDbVertex
100
AcDb2dVertex
 10
715.891270439752
 20
-1612.934723966088
 30
0.0
  0
VERTEX
  5
1CD
330
DD
100
AcDbEntity
  8
Graypants_Arc80
370
    -3
100
AcDbVertex
100
AcDb2dVertex
 10
716.4872747171096
 20
-1608.749296587248
 30
0.0
  0
VERTEX
  5
1CE
330
DD
100
AcDbEntity
  8
Graypants_Arc80
370
    -3
100
AcDbVertex
100
AcDb2dVertex
 10
717.0538010165304
 20
-1604.525316987998
 30
0.0
  0
VERTEX
  5
1CF
330
DD
100
AcDbEntity
  8
Graypants_Arc80
370
    -3
100
AcDbVertex
100
AcDb2dVertex
 10
717.441088366061
 20
-1601.477136975855
 30
0.0
  0
VERTEX
  5
1D0
330
DD
100
AcDbEntity
  8
Graypants_Arc80
370
    -3
100
AcDbVertex
100
AcDb2dVertex
 10
717.8128023545321
 20
-1598.409546403875
 30
0.0
  0
VERTEX
  5
1D1
330
DD
100
AcDbEntity
  8
Graypants_Arc80
370
    -3
100
AcDbVertex
100
AcDb2dVertex
 10
718.1687360559474
 20
-1595.322675319042
 30
0.0
  0
VERTEX
  5
1D2
330
DD
100
AcDbEntity
  8
Graypants_Arc80
370
    -3
100
AcDbVertex
100
AcDb2dVertex
 10
718.5086825443107
 20
-1592.216653768342
 30
0.0
  0
VERTEX
  5
1D3
330
DD
100
AcDbEntity
  8
Graypants_Arc80
370
    -3
100
AcDbVertex
100
AcDb2dVertex
 10
718.8324348936255
 20
-1589.091611798757
 30
0.0
  0
VERTEX
  5
1D4
330
DD
100
AcDbEntity
  8
Graypants_Arc80
370
    -3
100
AcDbVertex
100
AcDb2dVertex
 10
719.1397861778956
 20
-1585.947679457273
 30
0.0
  0
VERTEX
  5
1D5
330
DD
100
AcDbEntity
  8
Graypants_Arc80
370
    -3
100
AcDbVertex
100
AcDb2dVertex
 10
719.4305294711246
 20
-1582.784986790873
 30
0.0
  0
VERTEX
  5
1D6
330
DD
100
AcDbEntity
  8
Graypants_Arc80
370
    -3
100
AcDbVertex
100
AcDb2dVertex
 10
719.7044578473159
 20
-1579.603663846542
 30
0.0
  0
VERTEX
  5
1D7
330
DD
100
AcDbEntity
  8
Graypants_Arc80
370
    -3
100
AcDbVertex
100
AcDb2dVertex
 10
719.9613643804735
 20
-1576.403840671263
 30
0.0
  0
VERTEX
  5
1D8
330
DD
100
AcDbEntity
  8
Graypants_Arc80
370
    -3
100
AcDbVertex
100
AcDb2dVertex
 10
720.2010421446009
 20
-1573.185647312022
 30
0.0
  0
VERTEX
  5
1D9
330
DD
100
AcDbEntity
  8
Graypants_Arc80
370
    -3
100
AcDbVertex
100
AcDb2dVertex
 10
720.4232842137019
 20
-1569.949213815803
 30
0.0
  0
VERTEX
  5
1DA
330
DD
100
AcDbEntity
  8
Graypants_Arc80
370
    -3
100
AcDbVertex
100
AcDb2dVertex
 10
720.6278836617798
 20
-1566.694670229588
 30
0.0
  0
VERTEX
  5
1DB
330
DD
100
AcDbEntity
  8
Graypants_Arc80
370
    -3
100
AcDbVertex
100
AcDb2dVertex
 10
720.8146335628387
 20
-1563.422146600363
 30
0.0
  0
VERTEX
  5
1DC
330
DD
100
AcDbEntity
  8
Graypants_Arc80
370
    -3
100
AcDbVertex
100
AcDb2dVertex
 10
720.9833269908821
 20
-1560.131772975113
 30
0.0
  0
VERTEX
  5
1DD
330
DD
100
AcDbEntity
  8
Graypants_Arc80
370
    -3
100
AcDbVertex
100
AcDb2dVertex
 10
721.1337570199134
 20
-1556.823679400821
 30
0.0
  0
VERTEX
  5
1DE
330
DD
100
AcDbEntity
  8
Graypants_Arc80
370
    -3
100
AcDbVertex
100
AcDb2dVertex
 10
721.2657167239366
 20
-1553.497995924471
 30
0.0
  0
SEQEND
  5
1DF
330
DD
100
AcDbEntity
  8
Graypants_Arc80
370
    -3
  0
LINE
  5
1E0
330
1F
100
AcDbEntity
  8
Graypants_Arc80
370
    -3
100
AcDbLine
 10
633.5091926903827
 20
-486.5091926903838
 30
0.0
 11
486.509192690386
 21
-486.5091926903838
 31
0.0
  0
ARC
  5
1E1
330
1F
100
AcDbEntity
  8
Graypants_Arc80
370
    -3
100
AcDbCircle
 10
-488.0091914357699
 20
-520.0091939449983
 30
0.0
 40
1.499998745387372
210
0.0
220
0.0
230
-1.0
100
AcDbArc
 50
269.9999520772653
 51
0.0000479227411574
  0
ARC
  5
1E2
330
1F
100
AcDbEntity
  8
Graypants_Arc80
370
    -3
100
AcDbCircle
 10
-632.0091933149694
 20
-520.0091933149702
 30
0.0
 40
1.499999375413966
210
0.0
220
0.0
230
-1.0
100
AcDbArc
 50
179.9999761425473
 51
270.000023857444
  0
LINE
  5
1E3
330
1F
100
AcDbEntity
  8
Graypants_Arc80
370
    -3
100
AcDbLine
 10
633.5091926903827
 20
-486.5091926903838
 30
0.0
 11
633.5091926903832
 21
-520.009192690384
 31
0.0
  0
LINE
  5
1E4
330
1F
100
AcDbEntity
  8
Graypants_Arc80
370
    -3
100
AcDbLine
 10
486.5091926903833
 20
-520.009192690386
 30
0.0
 11
486.5091926903829
 21
-486.5091926903858
 31
0.0
  0
LINE
  5
1E5
330
1F
100
AcDbEntity
  8
Graypants_Arc80
370
    -3
100
AcDbLine
 10
561.5091926903832
 20
-521.5091926903845
 30
0.0
 11
561.5091926903887
 21
-1270.497995924471
 31
0.0
  0
LINE
  5
1E6
330
1F
100
AcDbEntity
  8
Graypants_Arc80
370
    -3
100
AcDbLine
 10
558.5091926903887
 20
-1270.497995924471
 30
0.0
 11
558.5091926903832
 21
-521.5091926903845
 31
0.0
  0
LINE
  5
1E7
330
1F
100
AcDbEntity
  8
Graypants_Arc80
370
    -3
100
AcDbLine
 10
568.0091926903887
 20
-1270.747995924471
 30
0.0
 11
552.0091926903887
 21
-1270.747995924471
 31
0.0
  0
LINE
  5
1E8
330
1F
100
AcDbEntity
  8
Graypants_Arc80
370
    -3
100
AcDbLine
 10
560.0091926903887
 20
-1500.497995924471
 30
0.0
 11
568.0091926903887
 21
-1500.497995924471
 31
0.0
  0
LINE
  5
1E9
330
1F
100
AcDbEntity
  8
Graypants_Arc80
370
    -3
100
AcDbLine
 10
568.0091926903887
 20
-1501.497995924471
 30
0.0
 11
552.0091926903887
 21
-1501.497995924471
 31
0.0
  0
LINE
  5
1EA
330
1F
100
AcDbEntity
  8
Graypants_Arc80
370
    -3
100
AcDbLine
 10
370.6091926903885
 20
-1553.247995924471
 30
0.0
 11
400.1091926903885
 21
-1553.247995924471
 31
0.0
  0
LINE
  5
1EB
330
1F
100
AcDbEntity
  8
Graypants_Arc80
370
    -3
100
AcDbLine
 10
370.8591926903885
 20
-1553.497995924471
 30
0.0
 11
399.8591926903885
 21
-1553.497995924471
 31
0.0
  0
POLYLINE
  5
1EC
330
1F
100
AcDbEntity
  8
Graypants_Arc80
370
    -3
100
AcDb2dPolyline
 66
     1
 10
0.0
 20
0.0
 30
0.0
  0
VERTEX
  5
1ED
330
1EC
100
AcDbEntity
  8
Graypants_Arc80
370
    -3
100
AcDbVertex
100
AcDb2dVertex
 10
400.1091926903885
 20
-1526.747995924471
 30
0.0
  0
VERTEX
  5
1EE
330
1EC
100
AcDbEntity
  8
Graypants_Arc80
370
    -3
100
AcDbVertex
100
AcDb2dVertex
 10
399.7570214215941
 20
-1526.100460799308
 30
0.0
  0
VERTEX
  5
1EF
330
1EC
100
AcDbEntity
  8
Graypants_Arc80
370
    -3
100
AcDbVertex
100
AcDb2dVertex
 10
399.3682804530612
 20
-1525.335725075459
 30
0.0
  0
VERTEX
  5
1F0
330
1EC
100
AcDbEntity
  8
Graypants_Arc80
370
    -3
100
AcDbVertex
100
AcDb2dVertex
 10
399.1407817484814
 20
-1524.856627614241
 30
0.0
  0
VERTEX
  5
1F1
330
1EC
100
AcDbEntity
  8
Graypants_Arc80
370
    -3
100
AcDbVertex
100
AcDb2dVertex
 10
398.9032711853903
 20
-1524.323977582421
 30
0.0
  0
VERTEX
  5
1F2
330
1EC
100
AcDbEntity
  8
Graypants_Arc80
370
    -3
100
AcDbVertex
100
AcDb2dVertex
 10
398.6616500424901
 20
-1523.737783286997
 30
0.0
  0
VERTEX
  5
1F3
330
1EC
100
AcDbEntity
  8
Graypants_Arc80
370
    -3
100
AcDbVertex
100
AcDb2dVertex
 10
398.5412093152182
 20
-1523.423979684908
 30
0.0
  0
VERTEX
  5
1F4
330
1EC
100
AcDbEntity
  8
Graypants_Arc80
370
    -3
100
AcDbVertex
100
AcDb2dVertex
 10
398.4230330098844
 20
-1523.09842241484
 30
0.0
  0
VERTEX
  5
1F5
330
1EC
100
AcDbEntity
  8
Graypants_Arc80
370
    -3
100
AcDbVertex
100
AcDb2dVertex
 10
398.3088272939716
 20
-1522.763406236677
 30
0.0
  0
VERTEX
  5
1F6
330
1EC
100
AcDbEntity
  8
Graypants_Arc80
370
    -3
100
AcDbVertex
100
AcDb2dVertex
 10
398.199410762582
 20
-1522.418763491594
 30
0.0
  0
VERTEX
  5
1F7
330
1EC
100
AcDbEntity
  8
Graypants_Arc80
370
    -3
100
AcDbVertex
100
AcDb2dVertex
 10
398.0956544111999
 20
-1522.064245845286
 30
0.0
  0
VERTEX
  5
1F8
330
1EC
100
AcDbEntity
  8
Graypants_Arc80
370
    -3
100
AcDbVertex
100
AcDb2dVertex
 10
397.9984292353089
 20
-1521.699604963447
 30
0.0
  0
VERTEX
  5
1F9
330
1EC
100
AcDbEntity
  8
Graypants_Arc80
370
    -3
100
AcDbVertex
100
AcDb2dVertex
 10
397.9086556042701
 20
-1521.324501027008
 30
0.0
  0
VERTEX
  5
1FA
330
1EC
100
AcDbEntity
  8
Graypants_Arc80
370
    -3
100
AcDbVertex
100
AcDb2dVertex
 10
397.8273740515907
 20
-1520.938394755775
 30
0.0
  0
VERTEX
  5
1FB
330
1EC
100
AcDbEntity
  8
Graypants_Arc80
370
    -3
100
AcDbVertex
100
AcDb2dVertex
 10
397.756085677221
 20
-1520.543133129871
 30
0.0
  0
VERTEX
  5
1FC
330
1EC
100
AcDbEntity
  8
Graypants_Arc80
370
    -3
100
AcDbVertex
100
AcDb2dVertex
 10
397.6963438433058
 20
-1520.142775110237
 30
0.0
  0
VERTEX
  5
1FD
330
1EC
100
AcDbEntity
  8
Graypants_Arc80
370
    -3
100
AcDbVertex
100
AcDb2dVertex
 10
397.6490142716197
 20
-1519.738768939894
 30
0.0
  0
VERTEX
  5
1FE
330
1EC
100
AcDbEntity
  8
Graypants_Arc80
370
    -3
100
AcDbVertex
100
AcDb2dVertex
 10
397.6145460605689
 20
-1519.330654006523
 30
0.0
  0
VERTEX
  5
1FF
330
1EC
100
AcDbEntity
  8
Graypants_Arc80
370
    -3
100
AcDbVertex
100
AcDb2dVertex
 10
397.5934439100956
 20
-1518.91833747234
 30
0.0
  0
VERTEX
  5
200
330
1EC
100
AcDbEntity
  8
Graypants_Arc80
370
    -3
100
AcDbVertex
100
AcDb2dVertex
 10
397.5862125201422
 20
-1518.501726499562
 30
0.0
  0
VERTEX
  5
201
330
1EC
100
AcDbEntity
  8
Graypants_Arc80
370
    -3
100
AcDbVertex
100
AcDb2dVertex
 10
397.5931922757351
 20
-1518.085085482204
 30
0.0
  0
VERTEX
  5
202
330
1EC
100
AcDbEntity
  8
Graypants_Arc80
370
    -3
100
AcDbVertex
100
AcDb2dVertex
 10
397.6140507804981
 20
-1517.672697023275
 30
0.0
  0
VERTEX
  5
203
330
1EC
100
AcDbEntity
  8
Graypants_Arc80
370
    -3
100
AcDbVertex
100
AcDb2dVertex
 10
397.6482835622691
 20
-1517.264495598485
 30
0.0
  0
VERTEX
  5
204
330
1EC
100
AcDbEntity
  8
Graypants_Arc80
370
    -3
100
AcDbVertex
100
AcDb2dVertex
 10
397.6953861488859
 20
-1516.860415683543
 30
0.0
  0
VERTEX
  5
205
330
1EC
100
AcDbEntity
  8
Graypants_Arc80
370
    -3
100
AcDbVertex
100
AcDb2dVertex
 10
397.7549457320763
 20
-1516.460297982379
 30
0.0
  0
VERTEX
  5
206
330
1EC
100
AcDbEntity
  8
Graypants_Arc80
370
    -3
100
AcDbVertex
100
AcDb2dVertex
 10
397.8259976545919
 20
-1516.065528779316
 30
0.0
  0
VERTEX
  5
207
330
1EC
100
AcDbEntity
  8
Graypants_Arc80
370
    -3
100
AcDbVertex
100
AcDb2dVertex
 10
397.9072096708064
 20
-1515.678360920654
 30
0.0
  0
VERTEX
  5
208
330
1EC
100
AcDbEntity
  8
Graypants_Arc80
370
    -3
100
AcDbVertex
100
AcDb2dVertex
 10
397.9972495350935
 20
-1515.301047252691
 30
0.0
  0
VERTEX
  5
209
330
1EC
100
AcDbEntity
  8
Graypants_Arc80
370
    -3
100
AcDbVertex
100
AcDb2dVertex
 10
398.0949664611698
 20
-1514.934288848458
 30
0.0
  0
VERTEX
  5
20A
330
1EC
100
AcDbEntity
  8
Graypants_Arc80
370
    -3
100
AcDbVertex
100
AcDb2dVertex
 10
398.1994963917614
 20
-1514.577103278211
 30
0.0
  0
VERTEX
  5
20B
330
1EC
100
AcDbEntity
  8
Graypants_Arc80
370
    -3
100
AcDbVertex
100
AcDb2dVertex
 10
398.3100563669155
 20
-1514.228960888026
 30
0.0
  0
VERTEX
  5
20C
330
1EC
100
AcDbEntity
  8
Graypants_Arc80
370
    -3
100
AcDbVertex
100
AcDb2dVertex
 10
398.4252550390964
 20
-1513.891263318781
 30
0.0
  0
VERTEX
  5
20D
330
1EC
100
AcDbEntity
  8
Graypants_Arc80
370
    -3
100
AcDbVertex
100
AcDb2dVertex
 10
398.5432878291688
 20
-1513.566334421042
 30
0.0
  0
VERTEX
  5
20E
330
1EC
100
AcDbEntity
  8
Graypants_Arc80
370
    -3
100
AcDbVertex
100
AcDb2dVertex
 10
398.6630259484002
 20
-1513.254561130291
 30
0.0
  0
VERTEX
  5
20F
330
1EC
100
AcDbEntity
  8
Graypants_Arc80
370
    -3
100
AcDbVertex
100
AcDb2dVertex
 10
398.9044139828127
 20
-1512.669358016628
 30
0.0
  0
VERTEX
  5
210
330
1EC
100
AcDbEntity
  8
Graypants_Arc80
370
    -3
100
AcDbVertex
100
AcDb2dVertex
 10
399.1432085570705
 20
-1512.134127653605
 30
0.0
  0
VERTEX
  5
211
330
1EC
100
AcDbEntity
  8
Graypants_Arc80
370
    -3
100
AcDbVertex
100
AcDb2dVertex
 10
399.3701626440799
 20
-1511.656411382623
 30
0.0
  0
VERTEX
  5
212
330
1EC
100
AcDbEntity
  8
Graypants_Arc80
370
    -3
100
AcDbVertex
100
AcDb2dVertex
 10
399.7570539754684
 20
-1510.895469398085
 30
0.0
  0
VERTEX
  5
213
330
1EC
100
AcDbEntity
  8
Graypants_Arc80
370
    -3
100
AcDbVertex
100
AcDb2dVertex
 10
400.1091926903885
 20
-1510.247995924471
 30
0.0
  0
SEQEND
  5
214
330
1EC
100
AcDbEntity
  8
Graypants_Arc80
370
    -3
  0
POLYLINE
  5
215
330
1F
100
AcDbEntity
  8
Graypants_Arc80
370
    -3
100
AcDb2dPolyline
 66
     1
 10
0.0
 20
0.0
 30
0.0
  0
VERTEX
  5
216
330
215
100
AcDbEntity
  8
Graypants_Arc80
370
    -3
100
AcDbVertex
100
AcDb2dVertex
 10
370.6091926903885
 20
-1510.247995924471
 30
0.0
  0
VERTEX
  5
217
330
215
100
AcDbEntity
  8
Graypants_Arc80
370
    -3
100
AcDbVertex
100
AcDb2dVertex
 10
370.9613639591827
 20
-1510.895531049634
 30
0.0
  0
VERTEX
  5
218
330
215
100
AcDbEntity
  8
Graypants_Arc80
370
    -3
100
AcDbVertex
100
AcDb2dVertex
 10
371.3501049277156
 20
-1511.660266773483
 30
0.0
  0
VERTEX
  5
219
330
215
100
AcDbEntity
  8
Graypants_Arc80
370
    -3
100
AcDbVertex
100
AcDb2dVertex
 10
371.5776036322954
 20
-1512.139364234701
 30
0.0
  0
VERTEX
  5
21A
330
215
100
AcDbEntity
  8
Graypants_Arc80
370
    -3
100
AcDbVertex
100
AcDb2dVertex
 10
371.8151141953865
 20
-1512.672014266521
 30
0.0
  0
VERTEX
  5
21B
330
215
100
AcDbEntity
  8
Graypants_Arc80
370
    -3
100
AcDbVertex
100
AcDb2dVertex
 10
372.0567353382868
 20
-1513.258208561945
 30
0.0
  0
VERTEX
  5
21C
330
215
100
AcDbEntity
  8
Graypants_Arc80
370
    -3
100
AcDbVertex
100
AcDb2dVertex
 10
372.1771760655586
 20
-1513.572012164033
 30
0.0
  0
VERTEX
  5
21D
330
215
100
AcDbEntity
  8
Graypants_Arc80
370
    -3
100
AcDbVertex
100
AcDb2dVertex
 10
372.2953523708924
 20
-1513.897569434102
 30
0.0
  0
VERTEX
  5
21E
330
215
100
AcDbEntity
  8
Graypants_Arc80
370
    -3
100
AcDbVertex
100
AcDb2dVertex
 10
372.4095580868052
 20
-1514.232585612264
 30
0.0
  0
VERTEX
  5
21F
330
215
100
AcDbEntity
  8
Graypants_Arc80
370
    -3
100
AcDbVertex
100
AcDb2dVertex
 10
372.5189746181948
 20
-1514.577228357347
 30
0.0
  0
VERTEX
  5
220
330
215
100
AcDbEntity
  8
Graypants_Arc80
370
    -3
100
AcDbVertex
100
AcDb2dVertex
 10
372.622730969577
 20
-1514.931746003656
 30
0.0
  0
VERTEX
  5
221
330
215
100
AcDbEntity
  8
Graypants_Arc80
370
    -3
100
AcDbVertex
100
AcDb2dVertex
 10
372.7199561454679
 20
-1515.296386885495
 30
0.0
  0
VERTEX
  5
222
330
215
100
AcDbEntity
  8
Graypants_Arc80
370
    -3
100
AcDbVertex
100
AcDb2dVertex
 10
372.8097297765067
 20
-1515.671490821933
 30
0.0
  0
VERTEX
  5
223
330
215
100
AcDbEntity
  8
Graypants_Arc80
370
    -3
100
AcDbVertex
100
AcDb2dVertex
 10
372.8910113291863
 20
-1516.057597093167
 30
0.0
  0
VERTEX
  5
224
330
215
100
AcDbEntity
  8
Graypants_Arc80
370
    -3
100
AcDbVertex
100
AcDb2dVertex
 10
372.9622997035559
 20
-1516.45285871907
 30
0.0
  0
VERTEX
  5
225
330
215
100
AcDbEntity
  8
Graypants_Arc80
370
    -3
100
AcDbVertex
100
AcDb2dVertex
 10
373.0220415374711
 20
-1516.853216738705
 30
0.0
  0
VERTEX
  5
226
330
215
100
AcDbEntity
  8
Graypants_Arc80
370
    -3
100
AcDbVertex
100
AcDb2dVertex
 10
373.0693711091572
 20
-1517.257222909047
 30
0.0
  0
VERTEX
  5
227
330
215
100
AcDbEntity
  8
Graypants_Arc80
370
    -3
100
AcDbVertex
100
AcDb2dVertex
 10
373.103839320208
 20
-1517.665337842419
 30
0.0
  0
VERTEX
  5
228
330
215
100
AcDbEntity
  8
Graypants_Arc80
370
    -3
100
AcDbVertex
100
AcDb2dVertex
 10
373.1249414706813
 20
-1518.077654376602
 30
0.0
  0
VERTEX
  5
229
330
215
100
AcDbEntity
  8
Graypants_Arc80
370
    -3
100
AcDbVertex
100
AcDb2dVertex
 10
373.1321728606347
 20
-1518.494265349379
 30
0.0
  0
VERTEX
  5
22A
330
215
100
AcDbEntity
  8
Graypants_Arc80
370
    -3
100
AcDbVertex
100
AcDb2dVertex
 10
373.1251931050418
 20
-1518.910906366737
 30
0.0
  0
VERTEX
  5
22B
330
215
100
AcDbEntity
  8
Graypants_Arc80
370
    -3
100
AcDbVertex
100
AcDb2dVertex
 10
373.1043346002788
 20
-1519.323294825666
 30
0.0
  0
VERTEX
  5
22C
330
215
100
AcDbEntity
  8
Graypants_Arc80
370
    -3
100
AcDbVertex
100
AcDb2dVertex
 10
373.0701018185077
 20
-1519.731496250457
 30
0.0
  0
VERTEX
  5
22D
330
215
100
AcDbEntity
  8
Graypants_Arc80
370
    -3
100
AcDbVertex
100
AcDb2dVertex
 10
373.0229992318909
 20
-1520.135576165399
 30
0.0
  0
VERTEX
  5
22E
330
215
100
AcDbEntity
  8
Graypants_Arc80
370
    -3
100
AcDbVertex
100
AcDb2dVertex
 10
372.9634396487004
 20
-1520.535693866563
 30
0.0
  0
VERTEX
  5
22F
330
215
100
AcDbEntity
  8
Graypants_Arc80
370
    -3
100
AcDbVertex
100
AcDb2dVertex
 10
372.8923877261849
 20
-1520.930463069626
 30
0.0
  0
VERTEX
  5
230
330
215
100
AcDbEntity
  8
Graypants_Arc80
370
    -3
100
AcDbVertex
100
AcDb2dVertex
 10
372.8111757099704
 20
-1521.317630928288
 30
0.0
  0
VERTEX
  5
231
330
215
100
AcDbEntity
  8
Graypants_Arc80
370
    -3
100
AcDbVertex
100
AcDb2dVertex
 10
372.7211358456833
 20
-1521.694944596251
 30
0.0
  0
VERTEX
  5
232
330
215
100
AcDbEntity
  8
Graypants_Arc80
370
    -3
100
AcDbVertex
100
AcDb2dVertex
 10
372.623418919607
 20
-1522.061703000484
 30
0.0
  0
VERTEX
  5
233
330
215
100
AcDbEntity
  8
Graypants_Arc80
370
    -3
100
AcDbVertex
100
AcDb2dVertex
 10
372.5188889890154
 20
-1522.418888570731
 30
0.0
  0
VERTEX
  5
234
330
215
100
AcDbEntity
  8
Graypants_Arc80
370
    -3
100
AcDbVertex
100
AcDb2dVertex
 10
372.4083290138613
 20
-1522.767030960915
 30
0.0
  0
VERTEX
  5
235
330
215
100
AcDbEntity
  8
Graypants_Arc80
370
    -3
100
AcDbVertex
100
AcDb2dVertex
 10
372.2931303416805
 20
-1523.104728530161
 30
0.0
  0
VERTEX
  5
236
330
215
100
AcDbEntity
  8
Graypants_Arc80
370
    -3
100
AcDbVertex
100
AcDb2dVertex
 10
372.1750975516081
 20
-1523.429657427899
 30
0.0
  0
VERTEX
  5
237
330
215
100
AcDbEntity
  8
Graypants_Arc80
370
    -3
100
AcDbVertex
100
AcDb2dVertex
 10
372.0553594323767
 20
-1523.74143071865
 30
0.0
  0
VERTEX
  5
238
330
215
100
AcDbEntity
  8
Graypants_Arc80
370
    -3
100
AcDbVertex
100
AcDb2dVertex
 10
371.8139713979641
 20
-1524.326633832314
 30
0.0
  0
VERTEX
  5
239
330
215
100
AcDbEntity
  8
Graypants_Arc80
370
    -3
100
AcDbVertex
100
AcDb2dVertex
 10
371.5751768237063
 20
-1524.861864195336
 30
0.0
  0
VERTEX
  5
23A
330
215
100
AcDbEntity
  8
Graypants_Arc80
370
    -3
100
AcDbVertex
100
AcDb2dVertex
 10
371.3482227366969
 20
-1525.339580466318
 30
0.0
  0
VERTEX
  5
23B
330
215
100
AcDbEntity
  8
Graypants_Arc80
370
    -3
100
AcDbVertex
100
AcDb2dVertex
 10
370.9613314053085
 20
-1526.100522450857
 30
0.0
  0
VERTEX
  5
23C
330
215
100
AcDbEntity
  8
Graypants_Arc80
370
    -3
100
AcDbVertex
100
AcDb2dVertex
 10
370.6091926903885
 20
-1526.747995924471
 30
0.0
  0
SEQEND
  5
23D
330
215
100
AcDbEntity
  8
Graypants_Arc80
370
    -3
  0
LINE
  5
23E
330
1F
100
AcDbEntity
  8
Graypants_Arc80
370
    -3
100
AcDbLine
 10
734.6591926903901
 20
-1483.497995924471
 30
0.0
 11
749.6591926903901
 21
-1483.497995924471
 31
0.0
  0
LINE
  5
23F
330
1F
100
AcDbEntity
  8
Graypants_Arc80
370
    -3
100
AcDbLine
 10
719.9091926903901
 20
-1553.247995924471
 30
0.0
 11
749.4091926903901
 21
-1553.247995924471
 31
0.0
  0
LINE
  5
240
330
1F
100
AcDbEntity
  8
Graypants_Arc80
370
    -3
100
AcDbLine
 10
720.1591926903901
 20
-1553.497995924471
 30
0.0
 11
749.1591926903901
 21
-1553.497995924471
 31
0.0
  0
POLYLINE
  5
241
330
1F
100
AcDbEntity
  8
Graypants_Arc80
370
    -3
100
AcDb2dPolyline
 66
     1
 10
0.0
 20
0.0
 30
0.0
  0
VERTEX
  5
242
330
241
100
AcDbEntity
  8
Graypants_Arc80
370
    -3
100
AcDbVertex
100
AcDb2dVertex
 10
749.4091926903901
 20
-1526.747995924471
 30
0.0
  0
VERTEX
  5
243
330
241
100
AcDbEntity
  8
Graypants_Arc80
370
    -3
100
AcDbVertex
100
AcDb2dVertex
 10
749.0570214215957
 20
-1526.100460799308
 30
0.0
  0
VERTEX
  5
244
330
241
100
AcDbEntity
  8
Graypants_Arc80
370
    -3
100
AcDbVertex
100
AcDb2dVertex
 10
748.6682804530631
 20
-1525.335725075459
 30
0.0
  0
VERTEX
  5
245
330
241
100
AcDbEntity
  8
Graypants_Arc80
370
    -3
100
AcDbVertex
100
AcDb2dVertex
 10
748.4407817484831
 20
-1524.856627614241
 30
0.0
  0
VERTEX
  5
246
330
241
100
AcDbEntity
  8
Graypants_Arc80
370
    -3
100
AcDbVertex
100
AcDb2dVertex
 10
748.2032711853923
 20
-1524.323977582421
 30
0.0
  0
VERTEX
  5
247
330
241
100
AcDbEntity
  8
Graypants_Arc80
370
    -3
100
AcDbVertex
100
AcDb2dVertex
 10
747.9616500424919
 20
-1523.737783286997
 30
0.0
  0
VERTEX
  5
248
330
241
100
AcDbEntity
  8
Graypants_Arc80
370
    -3
100
AcDbVertex
100
AcDb2dVertex
 10
747.84120931522
 20
-1523.423979684908
 30
0.0
  0
VERTEX
  5
249
330
241
100
AcDbEntity
  8
Graypants_Arc80
370
    -3
100
AcDbVertex
100
AcDb2dVertex
 10
747.7230330098863
 20
-1523.09842241484
 30
0.0
  0
VERTEX
  5
24A
330
241
100
AcDbEntity
  8
Graypants_Arc80
370
    -3
100
AcDbVertex
100
AcDb2dVertex
 10
747.6088272939735
 20
-1522.763406236677
 30
0.0
  0
VERTEX
  5
24B
330
241
100
AcDbEntity
  8
Graypants_Arc80
370
    -3
100
AcDbVertex
100
AcDb2dVertex
 10
747.4994107625839
 20
-1522.418763491594
 30
0.0
  0
VERTEX
  5
24C
330
241
100
AcDbEntity
  8
Graypants_Arc80
370
    -3
100
AcDbVertex
100
AcDb2dVertex
 10
747.3956544112017
 20
-1522.064245845286
 30
0.0
  0
VERTEX
  5
24D
330
241
100
AcDbEntity
  8
Graypants_Arc80
370
    -3
100
AcDbVertex
100
AcDb2dVertex
 10
747.2984292353108
 20
-1521.699604963447
 30
0.0
  0
VERTEX
  5
24E
330
241
100
AcDbEntity
  8
Graypants_Arc80
370
    -3
100
AcDbVertex
100
AcDb2dVertex
 10
747.2086556042718
 20
-1521.324501027008
 30
0.0
  0
VERTEX
  5
24F
330
241
100
AcDbEntity
  8
Graypants_Arc80
370
    -3
100
AcDbVertex
100
AcDb2dVertex
 10
747.1273740515924
 20
-1520.938394755775
 30
0.0
  0
VERTEX
  5
250
330
241
100
AcDbEntity
  8
Graypants_Arc80
370
    -3
100
AcDbVertex
100
AcDb2dVertex
 10
747.0560856772229
 20
-1520.543133129871
 30
0.0
  0
VERTEX
  5
251
330
241
100
AcDbEntity
  8
Graypants_Arc80
370
    -3
100
AcDbVertex
100
AcDb2dVertex
 10
746.9963438433076
 20
-1520.142775110237
 30
0.0
  0
VERTEX
  5
252
330
241
100
AcDbEntity
  8
Graypants_Arc80
370
    -3
100
AcDbVertex
100
AcDb2dVertex
 10
746.9490142716214
 20
-1519.738768939894
 30
0.0
  0
VERTEX
  5
253
330
241
100
AcDbEntity
  8
Graypants_Arc80
370
    -3
100
AcDbVertex
100
AcDb2dVertex
 10
746.9145460605707
 20
-1519.330654006523
 30
0.0
  0
VERTEX
  5
254
330
241
100
AcDbEntity
  8
Graypants_Arc80
370
    -3
100
AcDbVertex
100
AcDb2dVertex
 10
746.8934439100974
 20
-1518.91833747234
 30
0.0
  0
VERTEX
  5
255
330
241
100
AcDbEntity
  8
Graypants_Arc80
370
    -3
100
AcDbVertex
100
AcDb2dVertex
 10
746.8862125201439
 20
-1518.501726499562
 30
0.0
  0
VERTEX
  5
256
330
241
100
AcDbEntity
  8
Graypants_Arc80
370
    -3
100
AcDbVertex
100
AcDb2dVertex
 10
746.8931922757369
 20
-1518.085085482204
 30
0.0
  0
VERTEX
  5
257
330
241
100
AcDbEntity
  8
Graypants_Arc80
370
    -3
100
AcDbVertex
100
AcDb2dVertex
 10
746.9140507804999
 20
-1517.672697023275
 30
0.0
  0
VERTEX
  5
258
330
241
100
AcDbEntity
  8
Graypants_Arc80
370
    -3
100
AcDbVertex
100
AcDb2dVertex
 10
746.9482835622711
 20
-1517.264495598485
 30
0.0
  0
VERTEX
  5
259
330
241
100
AcDbEntity
  8
Graypants_Arc80
370
    -3
100
AcDbVertex
100
AcDb2dVertex
 10
746.9953861488879
 20
-1516.860415683543
 30
0.0
  0
VERTEX
  5
25A
330
241
100
AcDbEntity
  8
Graypants_Arc80
370
    -3
100
AcDbVertex
100
AcDb2dVertex
 10
747.0549457320782
 20
-1516.460297982379
 30
0.0
  0
VERTEX
  5
25B
330
241
100
AcDbEntity
  8
Graypants_Arc80
370
    -3
100
AcDbVertex
100
AcDb2dVertex
 10
747.1259976545937
 20
-1516.065528779316
 30
0.0
  0
VERTEX
  5
25C
330
241
100
AcDbEntity
  8
Graypants_Arc80
370
    -3
100
AcDbVertex
100
AcDb2dVertex
 10
747.2072096708082
 20
-1515.678360920654
 30
0.0
  0
VERTEX
  5
25D
330
241
100
AcDbEntity
  8
Graypants_Arc80
370
    -3
100
AcDbVertex
100
AcDb2dVertex
 10
747.2972495350953
 20
-1515.301047252691
 30
0.0
  0
VERTEX
  5
25E
330
241
100
AcDbEntity
  8
Graypants_Arc80
370
    -3
100
AcDbVertex
100
AcDb2dVertex
 10
747.3949664611716
 20
-1514.934288848458
 30
0.0
  0
VERTEX
  5
25F
330
241
100
AcDbEntity
  8
Graypants_Arc80
370
    -3
100
AcDbVertex
100
AcDb2dVertex
 10
747.4994963917633
 20
-1514.577103278211
 30
0.0
  0
VERTEX
  5
260
330
241
100
AcDbEntity
  8
Graypants_Arc80
370
    -3
100
AcDbVertex
100
AcDb2dVertex
 10
747.6100563669173
 20
-1514.228960888026
 30
0.0
  0
VERTEX
  5
261
330
241
100
AcDbEntity
  8
Graypants_Arc80
370
    -3
100
AcDbVertex
100
AcDb2dVertex
 10
747.7252550390981
 20
-1513.891263318781
 30
0.0
  0
VERTEX
  5
262
330
241
100
AcDbEntity
  8
Graypants_Arc80
370
    -3
100
AcDbVertex
100
AcDb2dVertex
 10
747.8432878291705
 20
-1513.566334421042
 30
0.0
  0
VERTEX
  5
263
330
241
100
AcDbEntity
  8
Graypants_Arc80
370
    -3
100
AcDbVertex
100
AcDb2dVertex
 10
747.9630259484019
 20
-1513.254561130291
 30
0.0
  0
VERTEX
  5
264
330
241
100
AcDbEntity
  8
Graypants_Arc80
370
    -3
100
AcDbVertex
100
AcDb2dVertex
 10
748.2044139828146
 20
-1512.669358016628
 30
0.0
  0
VERTEX
  5
265
330
241
100
AcDbEntity
  8
Graypants_Arc80
370
    -3
100
AcDbVertex
100
AcDb2dVertex
 10
748.4432085570724
 20
-1512.134127653605
 30
0.0
  0
VERTEX
  5
266
330
241
100
AcDbEntity
  8
Graypants_Arc80
370
    -3
100
AcDbVertex
100
AcDb2dVertex
 10
748.6701626440819
 20
-1511.656411382623
 30
0.0
  0
VERTEX
  5
267
330
241
100
AcDbEntity
  8
Graypants_Arc80
370
    -3
100
AcDbVertex
100
AcDb2dVertex
 10
749.0570539754701
 20
-1510.895469398085
 30
0.0
  0
VERTEX
  5
268
330
241
100
AcDbEntity
  8
Graypants_Arc80
370
    -3
100
AcDbVertex
100
AcDb2dVertex
 10
749.4091926903901
 20
-1510.247995924471
 30
0.0
  0
SEQEND
  5
269
330
241
100
AcDbEntity
  8
Graypants_Arc80
370
    -3
  0
POLYLINE
  5
26A
330
1F
100
AcDbEntity
  8
Graypants_Arc80
370
    -3
100
AcDb2dPolyline
 66
     1
 10
0.0
 20
0.0
 30
0.0
  0
VERTEX
  5
26B
330
26A
100
AcDbEntity
  8
Graypants_Arc80
370
    -3
100
AcDbVertex
100
AcDb2dVertex
 10
719.9091926903901
 20
-1510.247995924471
 30
0.0
  0
VERTEX
  5
26C
330
26A
100
AcDbEntity
  8
Graypants_Arc80
370
    -3
100
AcDbVertex
100
AcDb2dVertex
 10
720.2613639591845
 20
-1510.895531049634
 30
0.0
  0
VERTEX
  5
26D
330
26A
100
AcDbEntity
  8
Graypants_Arc80
370
    -3
100
AcDbVertex
100
AcDb2dVertex
 10
720.6501049277174
 20
-1511.660266773483
 30
0.0
  0
VERTEX
  5
26E
330
26A
100
AcDbEntity
  8
Graypants_Arc80
370
    -3
100
AcDbVertex
100
AcDb2dVertex
 10
720.8776036322971
 20
-1512.139364234701
 30
0.0
  0
VERTEX
  5
26F
330
26A
100
AcDbEntity
  8
Graypants_Arc80
370
    -3
100
AcDbVertex
100
AcDb2dVertex
 10
721.1151141953884
 20
-1512.672014266521
 30
0.0
  0
VERTEX
  5
270
330
26A
100
AcDbEntity
  8
Graypants_Arc80
370
    -3
100
AcDbVertex
100
AcDb2dVertex
 10
721.3567353382884
 20
-1513.258208561945
 30
0.0
  0
VERTEX
  5
271
330
26A
100
AcDbEntity
  8
Graypants_Arc80
370
    -3
100
AcDbVertex
100
AcDb2dVertex
 10
721.4771760655605
 20
-1513.572012164033
 30
0.0
  0
VERTEX
  5
272
330
26A
100
AcDbEntity
  8
Graypants_Arc80
370
    -3
100
AcDbVertex
100
AcDb2dVertex
 10
721.5953523708944
 20
-1513.897569434102
 30
0.0
  0
VERTEX
  5
273
330
26A
100
AcDbEntity
  8
Graypants_Arc80
370
    -3
100
AcDbVertex
100
AcDb2dVertex
 10
721.7095580868072
 20
-1514.232585612264
 30
0.0
  0
VERTEX
  5
274
330
26A
100
AcDbEntity
  8
Graypants_Arc80
370
    -3
100
AcDbVertex
100
AcDb2dVertex
 10
721.8189746181968
 20
-1514.577228357347
 30
0.0
  0
VERTEX
  5
275
330
26A
100
AcDbEntity
  8
Graypants_Arc80
370
    -3
100
AcDbVertex
100
AcDb2dVertex
 10
721.922730969579
 20
-1514.931746003656
 30
0.0
  0
VERTEX
  5
276
330
26A
100
AcDbEntity
  8
Graypants_Arc80
370
    -3
100
AcDbVertex
100
AcDb2dVertex
 10
722.0199561454699
 20
-1515.296386885495
 30
0.0
  0
VERTEX
  5
277
330
26A
100
AcDbEntity
  8
Graypants_Arc80
370
    -3
100
AcDbVertex
100
AcDb2dVertex
 10
722.1097297765085
 20
-1515.671490821933
 30
0.0
  0
VERTEX
  5
278
330
26A
100
AcDbEntity
  8
Graypants_Arc80
370
    -3
100
AcDbVertex
100
AcDb2dVertex
 10
722.191011329188
 20
-1516.057597093167
 30
0.0
  0
VERTEX
  5
279
330
26A
100
AcDbEntity
  8
Graypants_Arc80
370
    -3
100
AcDbVertex
100
AcDb2dVertex
 10
722.2622997035576
 20
-1516.45285871907
 30
0.0
  0
VERTEX
  5
27A
330
26A
100
AcDbEntity
  8
Graypants_Arc80
370
    -3
100
AcDbVertex
100
AcDb2dVertex
 10
722.3220415374728
 20
-1516.853216738705
 30
0.0
  0
VERTEX
  5
27B
330
26A
100
AcDbEntity
  8
Graypants_Arc80
370
    -3
100
AcDbVertex
100
AcDb2dVertex
 10
722.3693711091589
 20
-1517.257222909047
 30
0.0
  0
VERTEX
  5
27C
330
26A
100
AcDbEntity
  8
Graypants_Arc80
370
    -3
100
AcDbVertex
100
AcDb2dVertex
 10
722.4038393202097
 20
-1517.665337842419
 30
0.0
  0
VERTEX
  5
27D
330
26A
100
AcDbEntity
  8
Graypants_Arc80
370
    -3
100
AcDbVertex
100
AcDb2dVertex
 10
722.4249414706829
 20
-1518.077654376602
 30
0.0
  0
VERTEX
  5
27E
330
26A
100
AcDbEntity
  8
Graypants_Arc80
370
    -3
100
AcDbVertex
100
AcDb2dVertex
 10
722.4321728606365
 20
-1518.494265349379
 30
0.0
  0
VERTEX
  5
27F
330
26A
100
AcDbEntity
  8
Graypants_Arc80
370
    -3
100
AcDbVertex
100
AcDb2dVertex
 10
722.4251931050436
 20
-1518.910906366737
 30
0.0
  0
VERTEX
  5
280
330
26A
100
AcDbEntity
  8
Graypants_Arc80
370
    -3
100
AcDbVertex
100
AcDb2dVertex
 10
722.4043346002805
 20
-1519.323294825666
 30
0.0
  0
VERTEX
  5
281
330
26A
100
AcDbEntity
  8
Graypants_Arc80
370
    -3
100
AcDbVertex
100
AcDb2dVertex
 10
722.3701018185095
 20
-1519.731496250457
 30
0.0
  0
VERTEX
  5
282
330
26A
100
AcDbEntity
  8
Graypants_Arc80
370
    -3
100
AcDbVertex
100
AcDb2dVertex
 10
722.3229992318928
 20
-1520.135576165399
 30
0.0
  0
VERTEX
  5
283
330
26A
100
AcDbEntity
  8
Graypants_Arc80
370
    -3
100
AcDbVertex
100
AcDb2dVertex
 10
722.2634396487025
 20
-1520.535693866563
 30
0.0
  0
VERTEX
  5
284
330
26A
100
AcDbEntity
  8
Graypants_Arc80
370
    -3
100
AcDbVertex
100
AcDb2dVertex
 10
722.1923877261868
 20
-1520.930463069626
 30
0.0
  0
VERTEX
  5
285
330
26A
100
AcDbEntity
  8
Graypants_Arc80
370
    -3
100
AcDbVertex
100
AcDb2dVertex
 10
722.1111757099723
 20
-1521.317630928288
 30
0.0
  0
VERTEX
  5
286
330
26A
100
AcDbEntity
  8
Graypants_Arc80
370
    -3
100
AcDbVertex
100
AcDb2dVertex
 10
722.0211358456852
 20
-1521.694944596251
 30
0.0
  0
VERTEX
  5
287
330
26A
100
AcDbEntity
  8
Graypants_Arc80
370
    -3
100
AcDbVertex
100
AcDb2dVertex
 10
721.9234189196088
 20
-1522.061703000484
 30
0.0
  0
VERTEX
  5
288
330
26A
100
AcDbEntity
  8
Graypants_Arc80
370
    -3
100
AcDbVertex
100
AcDb2dVertex
 10
721.8188889890173
 20
-1522.418888570731
 30
0.0
  0
VERTEX
  5
289
330
26A
100
AcDbEntity
  8
Graypants_Arc80
370
    -3
100
AcDbVertex
100
AcDb2dVertex
 10
721.708329013863
 20
-1522.767030960915
 30
0.0
  0
VERTEX
  5
28A
330
26A
100
AcDbEntity
  8
Graypants_Arc80
370
    -3
100
AcDbVertex
100
AcDb2dVertex
 10
721.5931303416821
 20
-1523.104728530161
 30
0.0
  0
VERTEX
  5
28B
330
26A
100
AcDbEntity
  8
Graypants_Arc80
370
    -3
100
AcDbVertex
100
AcDb2dVertex
 10
721.4750975516099
 20
-1523.429657427899
 30
0.0
  0
VERTEX
  5
28C
330
26A
100
AcDbEntity
  8
Graypants_Arc80
370
    -3
100
AcDbVertex
100
AcDb2dVertex
 10
721.3553594323785
 20
-1523.74143071865
 30
0.0
  0
VERTEX
  5
28D
330
26A
100
AcDbEntity
  8
Graypants_Arc80
370
    -3
100
AcDbVertex
100
AcDb2dVertex
 10
721.1139713979659
 20
-1524.326633832314
 30
0.0
  0
VERTEX
  5
28E
330
26A
100
AcDbEntity
  8
Graypants_Arc80
370
    -3
100
AcDbVertex
100
AcDb2dVertex
 10
720.8751768237082
 20
-1524.861864195336
 30
0.0
  0
VERTEX
  5
28F
330
26A
100
AcDbEntity
  8
Graypants_Arc80
370
    -3
100
AcDbVertex
100
AcDb2dVertex
 10
720.6482227366988
 20
-1525.339580466318
 30
0.0
  0
VERTEX
  5
290
330
26A
100
AcDbEntity
  8
Graypants_Arc80
370
    -3
100
AcDbVertex
100
AcDb2dVertex
 10
720.2613314053103
 20
-1526.100522450857
 30
0.0
  0
VERTEX
  5
291
330
26A
100
AcDbEntity
  8
Graypants_Arc80
370
    -3
100
AcDbVertex
100
AcDb2dVertex
 10
719.9091926903901
 20
-1526.747995924471
 30
0.0
  0
SEQEND
  5
292
330
26A
100
AcDbEntity
  8
Graypants_Arc80
370
    -3
  0
LINE
  5
293
330
1F
100
AcDbEntity
  8
Graypants_Arc80
370
    -3
100
AcDbLine
 10
719.6591926903901
 20
-1483.497995924471
 30
0.0
 11
734.6591926903901
 21
-1483.497995924471
 31
0.0
  0
LINE
  5
294
330
1F
100
AcDbEntity
  8
Graypants_Arc80
370
    -3
100
AcDbLine
 10
552.2591926903887
 20
-1270.497995924471
 30
0.0
 11
567.7591926903887
 21
-1270.497995924471
 31
0.0
  0
LINE
  5
295
330
1F
100
AcDbEntity
  8
Graypants_Arc80
370
    -3
100
AcDbLine
 10
552.0091926903887
 20
-1500.497995924471
 30
0.0
 11
560.0091926903887
 21
-1500.497995924471
 31
0.0
  0
LINE
  5
296
330
1F
100
AcDbEntity
  8
Graypants_Arc80
370
    -3
100
AcDbLine
 10
370.3591926903885
 20
-1483.497995924471
 30
0.0
 11
400.3591926903885
 21
-1483.497995924471
 31
0.0
  0
LINE
  5
297
330
1F
100
AcDbEntity
  8
Graypants_Arc80
370
    -3
100
AcDbLine
 10
488.0091926903831
 20
-521.509192690385
 30
0.0
 11
632.0091926903831
 21
-521.5091926903841
 31
0.0
  0
LINE
  5
298
330
1F
100
AcDbEntity
  8
Graypants_Arc80
370
    -3
100
AcDbLine
 10
-7.999999999999773
 20
-199.7499999999941
 30
0.0
 11
8.000000000000227
 21
-199.7499999999941
 31
0.0
  0
LINE
  5
299
330
1F
100
AcDbEntity
  8
Graypants_Arc80
370
    -3
100
AcDbLine
 10
-7.749999999999773
 20
-199.9999999999941
 30
0.0
 11
7.750000000000227
 21
-199.9999999999941
 31
0.0
  0
LINE
  5
29A
330
1F
100
AcDbEntity
  8
Graypants_Arc80
370
    -3
100
AcDbLine
 10
8.000000000000227
 20
199.7500000000041
 30
0.0
 11
-7.999999999999773
 21
199.7500000000041
 31
0.0
  0
LINE
  5
29B
330
1F
100
AcDbEntity
  8
Graypants_Arc80
370
    -3
100
AcDbLine
 10
7.750000000000227
 20
200.0000000000041
 30
0.0
 11
-7.749999999999773
 21
200.0000000000041
 31
0.0
  0
LINE
  5
29C
330
1F
100
AcDbEntity
  8
Graypants_Arc80
370
    -3
100
AcDbLine
 10
-7.749999999999773
 20
-199.9999999999941
 30
0.0
 11
-7.999999999999773
 21
-199.7499999999941
 31
0.0
  0
LINE
  5
29D
330
1F
100
AcDbEntity
  8
Graypants_Arc80
370
    -3
100
AcDbLine
 10
8.000000000000227
 20
-199.7499999999941
 30
0.0
 11
7.750000000000227
 21
-199.9999999999941
 31
0.0
  0
LINE
  5
29E
330
1F
100
AcDbEntity
  8
Graypants_Arc80
370
    -3
100
AcDbLine
 10
-7.999999999999773
 20
-199.7499999999941
 30
0.0
 11
-7.999999999999773
 21
-187.3385775404454
 31
0.0
  0
LINE
  5
29F
330
1F
100
AcDbEntity
  8
Graypants_Arc80
370
    -3
100
AcDbLine
 10
7.750000000000227
 20
200.0000000000041
 30
0.0
 11
8.000000000000227
 21
199.7500000000041
 31
0.0
  0
LINE
  5
2A0
330
1F
100
AcDbEntity
  8
Graypants_Arc80
370
    -3
100
AcDbLine
 10
-7.999999999999773
 20
199.7500000000041
 30
0.0
 11
-7.749999999999773
 21
200.0000000000041
 31
0.0
  0
LINE
  5
2A1
330
1F
100
AcDbEntity
  8
Graypants_Arc80
370
    -3
100
AcDbLine
 10
8.000000000000227
 20
199.7500000000041
 30
0.0
 11
8.000000000000227
 21
187.3385775404554
 31
0.0
  0
LINE
  5
2A2
330
1F
100
AcDbEntity
  8
Graypants_Arc80
370
    -3
100
AcDbLine
 10
8.000000000000227
 20
-187.3385775404454
 30
0.0
 11
8.000000000000227
 21
-199.7499999999941
 31
0.0
  0
LINE
  5
2A3
330
1F
100
AcDbEntity
  8
Graypants_Arc80
370
    -3
100
AcDbLine
 10
-7.999999999999773
 20
187.3385775404554
 30
0.0
 11
-7.999999999999773
 21
199.7500000000041
 31
0.0
  0
CIRCLE
  5
2A4
330
1F
100
AcDbEntity
  8
Graypants_Arc80
370
    -3
100
AcDbCircle
 10
-0.0000000000002211
 20
-174.649999999996
 30
0.0
 40
14.49999999999999
210
0.0
220
0.0
230
-1.0
  0
CIRCLE
  5
2A5
330
1F
100
AcDbEntity
  8
Graypants_Arc80
370
    -3
100
AcDbCircle
 10
0.0000000000002211
 20
-174.649999999996
 30
0.0
 40
14.99999999999999
  0
CIRCLE
  5
2A6
330
1F
100
AcDbEntity
  8
Graypants_Arc80
370
    -3
100
AcDbCircle
 10
-0.0000000000002211
 20
174.650000000006
 30
0.0
 40
14.50000000000001
210
0.0
220
0.0
230
-1.0
  0
CIRCLE
  5
2A7
330
1F
100
AcDbEntity
  8
Graypants_Arc80
370
    -3
100
AcDbCircle
 10
0.0000000000002211
 20
174.650000000006
 30
0.0
 40
15.00000000000001
  0
LINE
  5
2A8
330
1F
100
AcDbEntity
  8
Graypants_Arc80
100
AcDbLine
 10
-7.999999999999773
 20
-1272.497995924471
 30
0.0
 11
8.000000000000227
 21
-1272.497995924471
 31
0.0
  0
LINE
  5
2A9
330
1F
100
AcDbEntity
  8
Graypants_Arc80
100
AcDbLine
 10
552.0091926903887
 20
-1272.497995924471
 30
0.0
 11
568.0091926903887
 21
-1272.497995924471
 31
0.0
  0
LINE
  5
2AA
330
1F
100
AcDbEntity
  8
Graypants_Arc80
370
    -3
100
AcDbLine
 10
-12.99999999999989
 20
-1844.184870924471
 30
0.0
 11
-12.99999999999989
 21
-1553.497995924471
 31
0.0
  0
LINE
  5
2AB
330
1F
100
AcDbEntity
  8
Graypants_Arc80
370
    -3
100
AcDbLine
 10
13.00000000000023
 20
-1553.497995924471
 30
0.0
 11
13.00000000000011
 21
-1844.184870924471
 31
0.0
  0
POLYLINE
  5
2AC
330
1F
100
AcDbEntity
  8
Graypants_Arc80
370
    -3
100
AcDb2dPolyline
 66
     1
 10
0.0
 20
0.0
 30
0.0
  0
VERTEX
  5
2AD
330
2AC
100
AcDbEntity
  8
Graypants_Arc80
370
    -3
100
AcDbVertex
100
AcDb2dVertex
 10
747.2826181401157
 20
-1553.497995924471
 30
0.0
  0
VERTEX
  5
2AE
330
2AC
100
AcDbEntity
  8
Graypants_Arc80
370
    -3
100
AcDbVertex
100
AcDb2dVertex
 10
747.147607479098
 20
-1557.038209271416
 30
0.0
  0
VERTEX
  5
2AF
330
2AC
100
AcDbEntity
  8
Graypants_Arc80
370
    -3
100
AcDbVertex
100
AcDb2dVertex
 10
746.9925343477562
 20
-1560.560171630394
 30
0.0
  0
VERTEX
  5
2B0
330
2AC
100
AcDbEntity
  8
Graypants_Arc80
370
    -3
100
AcDbVertex
100
AcDb2dVertex
 10
746.8176164000316
 20
-1564.063750674515
 30
0.0
  0
VERTEX
  5
2B1
330
2AC
100
AcDbEntity
  8
Graypants_Arc80
370
    -3
100
AcDbVertex
100
AcDb2dVertex
 10
746.623071289866
 20
-1567.548814076886
 30
0.0
  0
VERTEX
  5
2B2
330
2AC
100
AcDbEntity
  8
Graypants_Arc80
370
    -3
100
AcDbVertex
100
AcDb2dVertex
 10
746.4091166712006
 20
-1571.015229510617
 30
0.0
  0
VERTEX
  5
2B3
330
2AC
100
AcDbEntity
  8
Graypants_Arc80
370
    -3
100
AcDbVertex
100
AcDb2dVertex
 10
746.1759701979773
 20
-1574.462864648816
 30
0.0
  0
VERTEX
  5
2B4
330
2AC
100
AcDbEntity
  8
Graypants_Arc80
370
    -3
100
AcDbVertex
100
AcDb2dVertex
 10
745.9238495241375
 20
-1577.891587164592
 30
0.0
  0
VERTEX
  5
2B5
330
2AC
100
AcDbEntity
  8
Graypants_Arc80
370
    -3
100
AcDbVertex
100
AcDb2dVertex
 10
745.6529723036224
 20
-1581.301264731054
 30
0.0
  0
VERTEX
  5
2B6
330
2AC
100
AcDbEntity
  8
Graypants_Arc80
370
    -3
100
AcDbVertex
100
AcDb2dVertex
 10
745.3635561903739
 20
-1584.691765021311
 30
0.0
  0
VERTEX
  5
2B7
330
2AC
100
AcDbEntity
  8
Graypants_Arc80
370
    -3
100
AcDbVertex
100
AcDb2dVertex
 10
745.0558188383332
 20
-1588.06295570847
 30
0.0
  0
VERTEX
  5
2B8
330
2AC
100
AcDbEntity
  8
Graypants_Arc80
370
    -3
100
AcDbVertex
100
AcDb2dVertex
 10
744.7299779014421
 20
-1591.414704465642
 30
0.0
  0
VERTEX
  5
2B9
330
2AC
100
AcDbEntity
  8
Graypants_Arc80
370
    -3
100
AcDbVertex
100
AcDb2dVertex
 10
744.386251033642
 20
-1594.746878965933
 30
0.0
  0
VERTEX
  5
2BA
330
2AC
100
AcDbEntity
  8
Graypants_Arc80
370
    -3
100
AcDbVertex
100
AcDb2dVertex
 10
744.0248558888744
 20
-1598.059346882454
 30
0.0
  0
VERTEX
  5
2BB
330
2AC
100
AcDbEntity
  8
Graypants_Arc80
370
    -3
100
AcDbVertex
100
AcDb2dVertex
 10
743.646010121081
 20
-1601.351975888313
 30
0.0
  0
VERTEX
  5
2BC
330
2AC
100
AcDbEntity
  8
Graypants_Arc80
370
    -3
100
AcDbVertex
100
AcDb2dVertex
 10
743.2499313842029
 20
-1604.624633656618
 30
0.0
  0
VERTEX
  5
2BD
330
2AC
100
AcDbEntity
  8
Graypants_Arc80
370
    -3
100
AcDbVertex
100
AcDb2dVertex
 10
742.8368373321822
 20
-1607.877187860478
 30
0.0
  0
VERTEX
  5
2BE
330
2AC
100
AcDbEntity
  8
Graypants_Arc80
370
    -3
100
AcDbVertex
100
AcDb2dVertex
 10
742.2423009523804
 20
-1612.310064573362
 30
0.0
  0
VERTEX
  5
2BF
330
2AC
100
AcDbEntity
  8
Graypants_Arc80
370
    -3
100
AcDbVertex
100
AcDb2dVertex
 10
741.6165103330723
 20
-1616.704815432919
 30
0.0
  0
VERTEX
  5
2C0
330
2AC
100
AcDbEntity
  8
Graypants_Arc80
370
    -3
100
AcDbVertex
100
AcDb2dVertex
 10
740.9599183145353
 20
-1621.061279133511
 30
0.0
  0
VERTEX
  5
2C1
330
2AC
100
AcDbEntity
  8
Graypants_Arc80
370
    -3
100
AcDbVertex
100
AcDb2dVertex
 10
740.2729777370475
 20
-1625.379294369501
 30
0.0
  0
VERTEX
  5
2C2
330
2AC
100
AcDbEntity
  8
Graypants_Arc80
370
    -3
100
AcDbVertex
100
AcDb2dVertex
 10
739.5561414408862
 20
-1629.658699835249
 30
0.0
  0
VERTEX
  5
2C3
330
2AC
100
AcDbEntity
  8
Graypants_Arc80
370
    -3
100
AcDbVertex
100
AcDb2dVertex
 10
738.8098622663291
 20
-1633.899334225117
 30
0.0
  0
VERTEX
  5
2C4
330
2AC
100
AcDbEntity
  8
Graypants_Arc80
370
    -3
100
AcDbVertex
100
AcDb2dVertex
 10
738.0345930536539
 20
-1638.101036233467
 30
0.0
  0
VERTEX
  5
2C5
330
2AC
100
AcDbEntity
  8
Graypants_Arc80
370
    -3
100
AcDbVertex
100
AcDb2dVertex
 10
737.2307866431383
 20
-1642.26364455466
 30
0.0
  0
VERTEX
  5
2C6
330
2AC
100
AcDbEntity
  8
Graypants_Arc80
370
    -3
100
AcDbVertex
100
AcDb2dVertex
 10
736.39889587506
 20
-1646.386997883058
 30
0.0
  0
VERTEX
  5
2C7
330
2AC
100
AcDbEntity
  8
Graypants_Arc80
370
    -3
100
AcDbVertex
100
AcDb2dVertex
 10
735.5393735896964
 20
-1650.470934913022
 30
0.0
  0
VERTEX
  5
2C8
330
2AC
100
AcDbEntity
  8
Graypants_Arc80
370
    -3
100
AcDbVertex
100
AcDb2dVertex
 10
734.6526726273253
 20
-1654.515294338914
 30
0.0
  0
VERTEX
  5
2C9
330
2AC
100
AcDbEntity
  8
Graypants_Arc80
370
    -3
100
AcDbVertex
100
AcDb2dVertex
 10
733.7392458282245
 20
-1658.519914855096
 30
0.0
  0
VERTEX
  5
2CA
330
2AC
100
AcDbEntity
  8
Graypants_Arc80
370
    -3
100
AcDbVertex
100
AcDb2dVertex
 10
732.7995460326715
 20
-1662.484635155929
 30
0.0
  0
VERTEX
  5
2CB
330
2AC
100
AcDbEntity
  8
Graypants_Arc80
370
    -3
100
AcDbVertex
100
AcDb2dVertex
 10
731.834026080944
 20
-1666.409293935774
 30
0.0
  0
VERTEX
  5
2CC
330
2AC
100
AcDbEntity
  8
Graypants_Arc80
370
    -3
100
AcDbVertex
100
AcDb2dVertex
 10
730.8431388133196
 20
-1670.293729888993
 30
0.0
  0
VERTEX
  5
2CD
330
2AC
100
AcDbEntity
  8
Graypants_Arc80
370
    -3
100
AcDbVertex
100
AcDb2dVertex
 10
729.8273370700757
 20
-1674.137781709949
 30
0.0
  0
VERTEX
  5
2CE
330
2AC
100
AcDbEntity
  8
Graypants_Arc80
370
    -3
100
AcDbVertex
100
AcDb2dVertex
 10
728.7870304992939
 20
-1677.941425026961
 30
0.0
  0
VERTEX
  5
2CF
330
2AC
100
AcDbEntity
  8
Graypants_Arc80
370
    -3
100
AcDbVertex
100
AcDb2dVertex
 10
727.7225633152212
 20
-1681.704724340242
 30
0.0
  0
VERTEX
  5
2D0
330
2AC
100
AcDbEntity
  8
Graypants_Arc80
370
    -3
100
AcDbVertex
100
AcDb2dVertex
 10
726.6342902073837
 20
-1685.427651651989
 30
0.0
  0
VERTEX
  5
2D1
330
2AC
100
AcDbEntity
  8
Graypants_Arc80
370
    -3
100
AcDbVertex
100
AcDb2dVertex
 10
725.5225658653076
 20
-1689.110178964402
 30
0.0
  0
VERTEX
  5
2D2
330
2AC
100
AcDbEntity
  8
Graypants_Arc80
370
    -3
100
AcDbVertex
100
AcDb2dVertex
 10
724.3877449785191
 20
-1692.752278279679
 30
0.0
  0
VERTEX
  5
2D3
330
2AC
100
AcDbEntity
  8
Graypants_Arc80
370
    -3
100
AcDbVertex
100
AcDb2dVertex
 10
723.2301822365444
 20
-1696.353921600018
 30
0.0
  0
VERTEX
  5
2D4
330
2AC
100
AcDbEntity
  8
Graypants_Arc80
370
    -3
100
AcDbVertex
100
AcDb2dVertex
 10
722.0502323289095
 20
-1699.915080927618
 30
0.0
  0
VERTEX
  5
2D5
330
2AC
100
AcDbEntity
  8
Graypants_Arc80
370
    -3
100
AcDbVertex
100
AcDb2dVertex
 10
720.8482499451409
 20
-1703.435728264677
 30
0.0
  0
VERTEX
  5
2D6
330
2AC
100
AcDbEntity
  8
Graypants_Arc80
370
    -3
100
AcDbVertex
100
AcDb2dVertex
 10
719.6245897747649
 20
-1706.915835613393
 30
0.0
  0
VERTEX
  5
2D7
330
2AC
100
AcDbEntity
  8
Graypants_Arc80
370
    -3
100
AcDbVertex
100
AcDb2dVertex
 10
718.3796065073072
 20
-1710.355374975966
 30
0.0
  0
VERTEX
  5
2D8
330
2AC
100
AcDbEntity
  8
Graypants_Arc80
370
    -3
100
AcDbVertex
100
AcDb2dVertex
 10
717.1136548322945
 20
-1713.754318354592
 30
0.0
  0
VERTEX
  5
2D9
330
2AC
100
AcDbEntity
  8
Graypants_Arc80
370
    -3
100
AcDbVertex
100
AcDb2dVertex
 10
715.8270894392529
 20
-1717.112637751471
 30
0.0
  0
VERTEX
  5
2DA
330
2AC
100
AcDbEntity
  8
Graypants_Arc80
370
    -3
100
AcDbVertex
100
AcDb2dVertex
 10
714.5202650177084
 20
-1720.430305168801
 30
0.0
  0
VERTEX
  5
2DB
330
2AC
100
AcDbEntity
  8
Graypants_Arc80
370
    -3
100
AcDbVertex
100
AcDb2dVertex
 10
713.1935362571874
 20
-1723.707292608781
 30
0.0
  0
VERTEX
  5
2DC
330
2AC
100
AcDbEntity
  8
Graypants_Arc80
370
    -3
100
AcDbVertex
100
AcDb2dVertex
 10
711.847257847216
 20
-1726.943572073608
 30
0.0
  0
VERTEX
  5
2DD
330
2AC
100
AcDbEntity
  8
Graypants_Arc80
370
    -3
100
AcDbVertex
100
AcDb2dVertex
 10
710.4817844773205
 20
-1730.139115565482
 30
0.0
  0
VERTEX
  5
2DE
330
2AC
100
AcDbEntity
  8
Graypants_Arc80
370
    -3
100
AcDbVertex
100
AcDb2dVertex
 10
709.0974115682222
 20
-1733.294017692931
 30
0.0
  0
VERTEX
  5
2DF
330
2AC
100
AcDbEntity
  8
Graypants_Arc80
370
    -3
100
AcDbVertex
100
AcDb2dVertex
 10
707.6943808654938
 20
-1736.408413202663
 30
0.0
  0
VERTEX
  5
2E0
330
2AC
100
AcDbEntity
  8
Graypants_Arc80
370
    -3
100
AcDbVertex
100
AcDb2dVertex
 10
706.2729665459391
 20
-1739.482334304139
 30
0.0
  0
VERTEX
  5
2E1
330
2AC
100
AcDbEntity
  8
Graypants_Arc80
370
    -3
100
AcDbVertex
100
AcDb2dVertex
 10
704.8334427863613
 20
-1742.515813206824
 30
0.0
  0
VERTEX
  5
2E2
330
2AC
100
AcDbEntity
  8
Graypants_Arc80
370
    -3
100
AcDbVertex
100
AcDb2dVertex
 10
703.3760837635639
 20
-1745.508882120179
 30
0.0
  0
VERTEX
  5
2E3
330
2AC
100
AcDbEntity
  8
Graypants_Arc80
370
    -3
100
AcDbVertex
100
AcDb2dVertex
 10
701.9011636543503
 20
-1748.461573253669
 30
0.0
  0
VERTEX
  5
2E4
330
2AC
100
AcDbEntity
  8
Graypants_Arc80
370
    -3
100
AcDbVertex
100
AcDb2dVertex
 10
700.4089566355241
 20
-1751.373918816757
 30
0.0
  0
VERTEX
  5
2E5
330
2AC
100
AcDbEntity
  8
Graypants_Arc80
370
    -3
100
AcDbVertex
100
AcDb2dVertex
 10
698.8997368838886
 20
-1754.245951018905
 30
0.0
  0
VERTEX
  5
2E6
330
2AC
100
AcDbEntity
  8
Graypants_Arc80
370
    -3
100
AcDbVertex
100
AcDb2dVertex
 10
697.3737785762473
 20
-1757.077702069577
 30
0.0
  0
VERTEX
  5
2E7
330
2AC
100
AcDbEntity
  8
Graypants_Arc80
370
    -3
100
AcDbVertex
100
AcDb2dVertex
 10
695.8313558894038
 20
-1759.869204178235
 30
0.0
  0
VERTEX
  5
2E8
330
2AC
100
AcDbEntity
  8
Graypants_Arc80
370
    -3
100
AcDbVertex
100
AcDb2dVertex
 10
694.2727430001614
 20
-1762.620489554344
 30
0.0
  0
VERTEX
  5
2E9
330
2AC
100
AcDbEntity
  8
Graypants_Arc80
370
    -3
100
AcDbVertex
100
AcDb2dVertex
 10
692.6982140853236
 20
-1765.331590407365
 30
0.0
  0
VERTEX
  5
2EA
330
2AC
100
AcDbEntity
  8
Graypants_Arc80
370
    -3
100
AcDbVertex
100
AcDb2dVertex
 10
691.1080433216939
 20
-1768.002538946763
 30
0.0
  0
VERTEX
  5
2EB
330
2AC
100
AcDbEntity
  8
Graypants_Arc80
370
    -3
100
AcDbVertex
100
AcDb2dVertex
 10
689.5025048860757
 20
-1770.633367382
 30
0.0
  0
VERTEX
  5
2EC
330
2AC
100
AcDbEntity
  8
Graypants_Arc80
370
    -3
100
AcDbVertex
100
AcDb2dVertex
 10
687.8818729552725
 20
-1773.224107922539
 30
0.0
  0
VERTEX
  5
2ED
330
2AC
100
AcDbEntity
  8
Graypants_Arc80
370
    -3
100
AcDbVertex
100
AcDb2dVertex
 10
686.2464217060877
 20
-1775.774792777844
 30
0.0
  0
VERTEX
  5
2EE
330
2AC
100
AcDbEntity
  8
Graypants_Arc80
370
    -3
100
AcDbVertex
100
AcDb2dVertex
 10
684.596430779442
 20
-1778.285580912762
 30
0.0
  0
VERTEX
  5
2EF
330
2AC
100
AcDbEntity
  8
Graypants_Arc80
370
    -3
100
AcDbVertex
100
AcDb2dVertex
 10
682.9321152625971
 20
-1780.756642395907
 30
0.0
  0
VERTEX
  5
2F0
330
2AC
100
AcDbEntity
  8
Graypants_Arc80
370
    -3
100
AcDbVertex
100
AcDb2dVertex
 10
681.2536525018688
 20
-1783.188026092398
 30
0.0
  0
VERTEX
  5
2F1
330
2AC
100
AcDbEntity
  8
Graypants_Arc80
370
    -3
100
AcDbVertex
100
AcDb2dVertex
 10
679.5612198435722
 20
-1785.57978086735
 30
0.0
  0
VERTEX
  5
2F2
330
2AC
100
AcDbEntity
  8
Graypants_Arc80
370
    -3
100
AcDbVertex
100
AcDb2dVertex
 10
677.8549946340229
 20
-1787.931955585881
 30
0.0
  0
VERTEX
  5
2F3
330
2AC
100
AcDbEntity
  8
Graypants_Arc80
370
    -3
100
AcDbVertex
100
AcDb2dVertex
 10
676.1351542195364
 20
-1790.244599113108
 30
0.0
  0
VERTEX
  5
2F4
330
2AC
100
AcDbEntity
  8
Graypants_Arc80
370
    -3
100
AcDbVertex
100
AcDb2dVertex
 10
674.4018759464282
 20
-1792.517760314147
 30
0.0
  0
VERTEX
  5
2F5
330
2AC
100
AcDbEntity
  8
Graypants_Arc80
370
    -3
100
AcDbVertex
100
AcDb2dVertex
 10
672.6553371610137
 20
-1794.751488054115
 30
0.0
  0
VERTEX
  5
2F6
330
2AC
100
AcDbEntity
  8
Graypants_Arc80
370
    -3
100
AcDbVertex
100
AcDb2dVertex
 10
670.8957152096082
 20
-1796.94583119813
 30
0.0
  0
VERTEX
  5
2F7
330
2AC
100
AcDbEntity
  8
Graypants_Arc80
370
    -3
100
AcDbVertex
100
AcDb2dVertex
 10
669.1231874385275
 20
-1799.100838611307
 30
0.0
  0
VERTEX
  5
2F8
330
2AC
100
AcDbEntity
  8
Graypants_Arc80
370
    -3
100
AcDbVertex
100
AcDb2dVertex
 10
667.3379311940868
 20
-1801.216559158764
 30
0.0
  0
VERTEX
  5
2F9
330
2AC
100
AcDbEntity
  8
Graypants_Arc80
370
    -3
100
AcDbVertex
100
AcDb2dVertex
 10
665.5401238226015
 20
-1803.293041705617
 30
0.0
  0
VERTEX
  5
2FA
330
2AC
100
AcDbEntity
  8
Graypants_Arc80
370
    -3
100
AcDbVertex
100
AcDb2dVertex
 10
663.7299426703871
 20
-1805.330335116983
 30
0.0
  0
VERTEX
  5
2FB
330
2AC
100
AcDbEntity
  8
Graypants_Arc80
370
    -3
100
AcDbVertex
100
AcDb2dVertex
 10
661.9075650837594
 20
-1807.328488257979
 30
0.0
  0
VERTEX
  5
2FC
330
2AC
100
AcDbEntity
  8
Graypants_Arc80
370
    -3
100
AcDbVertex
100
AcDb2dVertex
 10
660.0731684090335
 20
-1809.287549993723
 30
0.0
  0
VERTEX
  5
2FD
330
2AC
100
AcDbEntity
  8
Graypants_Arc80
370
    -3
100
AcDbVertex
100
AcDb2dVertex
 10
658.226929992525
 20
-1811.20756918933
 30
0.0
  0
VERTEX
  5
2FE
330
2AC
100
AcDbEntity
  8
Graypants_Arc80
370
    -3
100
AcDbVertex
100
AcDb2dVertex
 10
656.3690094848213
 20
-1813.088575641859
 30
0.0
  0
VERTEX
  5
2FF
330
2AC
100
AcDbEntity
  8
Graypants_Arc80
370
    -3
100
AcDbVertex
100
AcDb2dVertex
 10
654.4995925269709
 20
-1814.930563871225
 30
0.0
  0
VERTEX
  5
300
330
2AC
100
AcDbEntity
  8
Graypants_Arc80
370
    -3
100
AcDbVertex
100
AcDb2dVertex
 10
652.6188954509813
 20
-1816.733529826831
 30
0.0
  0
VERTEX
  5
301
330
2AC
100
AcDbEntity
  8
Graypants_Arc80
370
    -3
100
AcDbVertex
100
AcDb2dVertex
 10
650.7271345888596
 20
-1818.497469458078
 30
0.0
  0
VERTEX
  5
302
330
2AC
100
AcDbEntity
  8
Graypants_Arc80
370
    -3
100
AcDbVertex
100
AcDb2dVertex
 10
648.824526272613
 20
-1820.22237871437
 30
0.0
  0
VERTEX
  5
303
330
2AC
100
AcDbEntity
  8
Graypants_Arc80
370
    -3
100
AcDbVertex
100
AcDb2dVertex
 10
646.9112868342486
 20
-1821.908253545108
 30
0.0
  0
VERTEX
  5
304
330
2AC
100
AcDbEntity
  8
Graypants_Arc80
370
    -3
100
AcDbVertex
100
AcDb2dVertex
 10
644.9876326057738
 20
-1823.555089899695
 30
0.0
  0
VERTEX
  5
305
330
2AC
100
AcDbEntity
  8
Graypants_Arc80
370
    -3
100
AcDbVertex
100
AcDb2dVertex
 10
643.0537799191958
 20
-1825.162883727533
 30
0.0
  0
VERTEX
  5
306
330
2AC
100
AcDbEntity
  8
Graypants_Arc80
370
    -3
100
AcDbVertex
100
AcDb2dVertex
 10
641.1099451065218
 20
-1826.731630978025
 30
0.0
  0
VERTEX
  5
307
330
2AC
100
AcDbEntity
  8
Graypants_Arc80
370
    -3
100
AcDbVertex
100
AcDb2dVertex
 10
639.1563444997589
 20
-1828.261327600573
 30
0.0
  0
VERTEX
  5
308
330
2AC
100
AcDbEntity
  8
Graypants_Arc80
370
    -3
100
AcDbVertex
100
AcDb2dVertex
 10
637.1931944309143
 20
-1829.751969544579
 30
0.0
  0
VERTEX
  5
309
330
2AC
100
AcDbEntity
  8
Graypants_Arc80
370
    -3
100
AcDbVertex
100
AcDb2dVertex
 10
635.2207112319954
 20
-1831.203552759447
 30
0.0
  0
VERTEX
  5
30A
330
2AC
100
AcDbEntity
  8
Graypants_Arc80
370
    -3
100
AcDbVertex
100
AcDb2dVertex
 10
633.2391112350094
 20
-1832.616073194577
 30
0.0
  0
VERTEX
  5
30B
330
2AC
100
AcDbEntity
  8
Graypants_Arc80
370
    -3
100
AcDbVertex
100
AcDb2dVertex
 10
631.2486107719634
 20
-1833.989526799372
 30
0.0
  0
VERTEX
  5
30C
330
2AC
100
AcDbEntity
  8
Graypants_Arc80
370
    -3
100
AcDbVertex
100
AcDb2dVertex
 10
629.2494261748647
 20
-1835.323909523236
 30
0.0
  0
VERTEX
  5
30D
330
2AC
100
AcDbEntity
  8
Graypants_Arc80
370
    -3
100
AcDbVertex
100
AcDb2dVertex
 10
627.2417737757204
 20
-1836.61921731557
 30
0.0
  0
VERTEX
  5
30E
330
2AC
100
AcDbEntity
  8
Graypants_Arc80
370
    -3
100
AcDbVertex
100
AcDb2dVertex
 10
625.2256088307655
 20
-1837.875608417843
 30
0.0
  0
VERTEX
  5
30F
330
2AC
100
AcDbEntity
  8
Graypants_Arc80
370
    -3
100
AcDbVertex
100
AcDb2dVertex
 10
623.2008927603121
 20
-1839.093187820846
 30
0.0
  0
VERTEX
  5
310
330
2AC
100
AcDbEntity
  8
Graypants_Arc80
370
    -3
100
AcDbVertex
100
AcDb2dVertex
 10
621.167851142483
 20
-1840.271871597965
 30
0.0
  0
VERTEX
  5
311
330
2AC
100
AcDbEntity
  8
Graypants_Arc80
370
    -3
100
AcDbVertex
100
AcDb2dVertex
 10
619.1267095554015
 20
-1841.411575822585
 30
0.0
  0
VERTEX
  5
312
330
2AC
100
AcDbEntity
  8
Graypants_Arc80
370
    -3
100
AcDbVertex
100
AcDb2dVertex
 10
617.0776935771904
 20
-1842.512216568093
 30
0.0
  0
VERTEX
  5
313
330
2AC
100
AcDbEntity
  8
Graypants_Arc80
370
    -3
100
AcDbVertex
100
AcDb2dVertex
 10
615.0210287859728
 20
-1843.573709907874
 30
0.0
  0
VERTEX
  5
314
330
2AC
100
AcDbEntity
  8
Graypants_Arc80
370
    -3
100
AcDbVertex
100
AcDb2dVertex
 10
612.9569407598717
 20
-1844.595971915313
 30
0.0
  0
VERTEX
  5
315
330
2AC
100
AcDbEntity
  8
Graypants_Arc80
370
    -3
100
AcDbVertex
100
AcDb2dVertex
 10
610.8856550770101
 20
-1845.578918663797
 30
0.0
  0
VERTEX
  5
316
330
2AC
100
AcDbEntity
  8
Graypants_Arc80
370
    -3
100
AcDbVertex
100
AcDb2dVertex
 10
608.807397315511
 20
-1846.522466226711
 30
0.0
  0
VERTEX
  5
317
330
2AC
100
AcDbEntity
  8
Graypants_Arc80
370
    -3
100
AcDbVertex
100
AcDb2dVertex
 10
606.7223930534976
 20
-1847.426530677442
 30
0.0
  0
VERTEX
  5
318
330
2AC
100
AcDbEntity
  8
Graypants_Arc80
370
    -3
100
AcDbVertex
100
AcDb2dVertex
 10
604.6308678690926
 20
-1848.291028089374
 30
0.0
  0
VERTEX
  5
319
330
2AC
100
AcDbEntity
  8
Graypants_Arc80
370
    -3
100
AcDbVertex
100
AcDb2dVertex
 10
602.5330473404192
 20
-1849.115874535893
 30
0.0
  0
VERTEX
  5
31A
330
2AC
100
AcDbEntity
  8
Graypants_Arc80
370
    -3
100
AcDbVertex
100
AcDb2dVertex
 10
600.4291570456005
 20
-1849.900986090386
 30
0.0
  0
VERTEX
  5
31B
330
2AC
100
AcDbEntity
  8
Graypants_Arc80
370
    -3
100
AcDbVertex
100
AcDb2dVertex
 10
598.3194225627594
 20
-1850.646278826237
 30
0.0
  0
VERTEX
  5
31C
330
2AC
100
AcDbEntity
  8
Graypants_Arc80
370
    -3
100
AcDbVertex
100
AcDb2dVertex
 10
596.2040694700189
 20
-1851.351668816834
 30
0.0
  0
VERTEX
  5
31D
330
2AC
100
AcDbEntity
  8
Graypants_Arc80
370
    -3
100
AcDbVertex
100
AcDb2dVertex
 10
594.083323345502
 20
-1852.01707213556
 30
0.0
  0
VERTEX
  5
31E
330
2AC
100
AcDbEntity
  8
Graypants_Arc80
370
    -3
100
AcDbVertex
100
AcDb2dVertex
 10
591.9574755319483
 20
-1852.642339218178
 30
0.0
  0
VERTEX
  5
31F
330
2AC
100
AcDbEntity
  8
Graypants_Arc80
370
    -3
100
AcDbVertex
100
AcDb2dVertex
 10
590.8927551998095
 20
-1852.93988396075
 30
0.0
  0
VERTEX
  5
320
330
2AC
100
AcDbEntity
  8
Graypants_Arc80
370
    -3
100
AcDbVertex
100
AcDb2dVertex
 10
589.8268940054561
 20
-1853.227367188378
 30
0.0
  0
VERTEX
  5
321
330
2AC
100
AcDbEntity
  8
Graypants_Arc80
370
    -3
100
AcDbVertex
100
AcDb2dVertex
 10
588.7599345149083
 20
-1853.504787164222
 30
0.0
  0
VERTEX
  5
322
330
2AC
100
AcDbEntity
  8
Graypants_Arc80
370
    -3
100
AcDbVertex
100
AcDb2dVertex
 10
587.6919192941862
 20
-1853.772142151441
 30
0.0
  0
VERTEX
  5
323
330
2AC
100
AcDbEntity
  8
Graypants_Arc80
370
    -3
100
AcDbVertex
100
AcDb2dVertex
 10
586.62289090931
 20
-1854.029430413196
 30
0.0
  0
VERTEX
  5
324
330
2AC
100
AcDbEntity
  8
Graypants_Arc80
370
    -3
100
AcDbVertex
100
AcDb2dVertex
 10
585.5528919262996
 20
-1854.276650212648
 30
0.0
  0
VERTEX
  5
325
330
2AC
100
AcDbEntity
  8
Graypants_Arc80
370
    -3
100
AcDbVertex
100
AcDb2dVertex
 10
584.4819649111754
 20
-1854.513799812955
 30
0.0
  0
VERTEX
  5
326
330
2AC
100
AcDbEntity
  8
Graypants_Arc80
370
    -3
100
AcDbVertex
100
AcDb2dVertex
 10
583.4101524299574
 20
-1854.740877477279
 30
0.0
  0
VERTEX
  5
327
330
2AC
100
AcDbEntity
  8
Graypants_Arc80
370
    -3
100
AcDbVertex
100
AcDb2dVertex
 10
582.3374970486657
 20
-1854.957881468778
 30
0.0
  0
VERTEX
  5
328
330
2AC
100
AcDbEntity
  8
Graypants_Arc80
370
    -3
100
AcDbVertex
100
AcDb2dVertex
 10
581.2640413333204
 20
-1855.164810050615
 30
0.0
  0
VERTEX
  5
329
330
2AC
100
AcDbEntity
  8
Graypants_Arc80
370
    -3
100
AcDbVertex
100
AcDb2dVertex
 10
580.1898278499418
 20
-1855.361661485947
 30
0.0
  0
VERTEX
  5
32A
330
2AC
100
AcDbEntity
  8
Graypants_Arc80
370
    -3
100
AcDbVertex
100
AcDb2dVertex
 10
579.1148991645498
 20
-1855.548434037936
 30
0.0
  0
VERTEX
  5
32B
330
2AC
100
AcDbEntity
  8
Graypants_Arc80
370
    -3
100
AcDbVertex
100
AcDb2dVertex
 10
578.0392978431647
 20
-1855.725125969741
 30
0.0
  0
VERTEX
  5
32C
330
2AC
100
AcDbEntity
  8
Graypants_Arc80
370
    -3
100
AcDbVertex
100
AcDb2dVertex
 10
576.9630664518065
 20
-1855.891735544523
 30
0.0
  0
VERTEX
  5
32D
330
2AC
100
AcDbEntity
  8
Graypants_Arc80
370
    -3
100
AcDbVertex
100
AcDb2dVertex
 10
575.8862475564954
 20
-1856.048261025441
 30
0.0
  0
VERTEX
  5
32E
330
2AC
100
AcDbEntity
  8
Graypants_Arc80
370
    -3
100
AcDbVertex
100
AcDb2dVertex
 10
574.8088837232515
 20
-1856.194700675656
 30
0.0
  0
VERTEX
  5
32F
330
2AC
100
AcDbEntity
  8
Graypants_Arc80
370
    -3
100
AcDbVertex
100
AcDb2dVertex
 10
573.7310175180947
 20
-1856.331052758328
 30
0.0
  0
VERTEX
  5
330
330
2AC
100
AcDbEntity
  8
Graypants_Arc80
370
    -3
100
AcDbVertex
100
AcDb2dVertex
 10
572.6526915070456
 20
-1856.457315536617
 30
0.0
  0
VERTEX
  5
331
330
2AC
100
AcDbEntity
  8
Graypants_Arc80
370
    -3
100
AcDbVertex
100
AcDb2dVertex
 10
571.5739482561239
 20
-1856.573487273683
 30
0.0
  0
VERTEX
  5
332
330
2AC
100
AcDbEntity
  8
Graypants_Arc80
370
    -3
100
AcDbVertex
100
AcDb2dVertex
 10
570.4948303313498
 20
-1856.679566232686
 30
0.0
  0
VERTEX
  5
333
330
2AC
100
AcDbEntity
  8
Graypants_Arc80
370
    -3
100
AcDbVertex
100
AcDb2dVertex
 10
569.4153802987436
 20
-1856.775550676787
 30
0.0
  0
VERTEX
  5
334
330
2AC
100
AcDbEntity
  8
Graypants_Arc80
370
    -3
100
AcDbVertex
100
AcDb2dVertex
 10
568.3356407243252
 20
-1856.861438869144
 30
0.0
  0
VERTEX
  5
335
330
2AC
100
AcDbEntity
  8
Graypants_Arc80
370
    -3
100
AcDbVertex
100
AcDb2dVertex
 10
567.255654174115
 20
-1856.937229072918
 30
0.0
  0
VERTEX
  5
336
330
2AC
100
AcDbEntity
  8
Graypants_Arc80
370
    -3
100
AcDbVertex
100
AcDb2dVertex
 10
566.1754632141328
 20
-1857.00291955127
 30
0.0
  0
VERTEX
  5
337
330
2AC
100
AcDbEntity
  8
Graypants_Arc80
370
    -3
100
AcDbVertex
100
AcDb2dVertex
 10
565.0951104103989
 20
-1857.05850856736
 30
0.0
  0
VERTEX
  5
338
330
2AC
100
AcDbEntity
  8
Graypants_Arc80
370
    -3
100
AcDbVertex
100
AcDb2dVertex
 10
564.0146383289334
 20
-1857.103994384347
 30
0.0
  0
VERTEX
  5
339
330
2AC
100
AcDbEntity
  8
Graypants_Arc80
370
    -3
100
AcDbVertex
100
AcDb2dVertex
 10
562.9340895357566
 20
-1857.139375265391
 30
0.0
  0
VERTEX
  5
33A
330
2AC
100
AcDbEntity
  8
Graypants_Arc80
370
    -3
100
AcDbVertex
100
AcDb2dVertex
 10
561.8535065968882
 20
-1857.164649473653
 30
0.0
  0
VERTEX
  5
33B
330
2AC
100
AcDbEntity
  8
Graypants_Arc80
370
    -3
100
AcDbVertex
100
AcDb2dVertex
 10
560.7729320783487
 20
-1857.179815272293
 30
0.0
  0
VERTEX
  5
33C
330
2AC
100
AcDbEntity
  8
Graypants_Arc80
370
    -3
100
AcDbVertex
100
AcDb2dVertex
 10
559.6924085461582
 20
-1857.184870924471
 30
0.0
  0
VERTEX
  5
33D
330
2AC
100
AcDbEntity
  8
Graypants_Arc80
370
    -3
100
AcDbVertex
100
AcDb2dVertex
 10
558.6119073831651
 20
-1857.179814701244
 30
0.0
  0
VERTEX
  5
33E
330
2AC
100
AcDbEntity
  8
Graypants_Arc80
370
    -3
100
AcDbVertex
100
AcDb2dVertex
 10
557.5313999966585
 20
-1857.164647011665
 30
0.0
  0
VERTEX
  5
33F
330
2AC
100
AcDbEntity
  8
Graypants_Arc80
370
    -3
100
AcDbVertex
100
AcDb2dVertex
 10
556.4509289893196
 20
-1857.139369325888
 30
0.0
  0
VERTEX
  5
340
330
2AC
100
AcDbEntity
  8
Graypants_Arc80
370
    -3
100
AcDbVertex
100
AcDb2dVertex
 10
555.3705369638294
 20
-1857.103983114067
 30
0.0
  0
VERTEX
  5
341
330
2AC
100
AcDbEntity
  8
Graypants_Arc80
370
    -3
100
AcDbVertex
100
AcDb2dVertex
 10
554.2902665228689
 20
-1857.058489846357
 30
0.0
  0
VERTEX
  5
342
330
2AC
100
AcDbEntity
  8
Graypants_Arc80
370
    -3
100
AcDbVertex
100
AcDb2dVertex
 10
553.2101602691191
 20
-1857.002890992912
 30
0.0
  0
VERTEX
  5
343
330
2AC
100
AcDbEntity
  8
Graypants_Arc80
370
    -3
100
AcDbVertex
100
AcDb2dVertex
 10
552.1302608052611
 20
-1856.937188023885
 30
0.0
  0
VERTEX
  5
344
330
2AC
100
AcDbEntity
  8
Graypants_Arc80
370
    -3
100
AcDbVertex
100
AcDb2dVertex
 10
551.0506107339759
 20
-1856.86138240943
 30
0.0
  0
VERTEX
  5
345
330
2AC
100
AcDbEntity
  8
Graypants_Arc80
370
    -3
100
AcDbVertex
100
AcDb2dVertex
 10
549.9712526579444
 20
-1856.775475619702
 30
0.0
  0
VERTEX
  5
346
330
2AC
100
AcDbEntity
  8
Graypants_Arc80
370
    -3
100
AcDbVertex
100
AcDb2dVertex
 10
548.8922291798478
 20
-1856.679469124855
 30
0.0
  0
VERTEX
  5
347
330
2AC
100
AcDbEntity
  8
Graypants_Arc80
370
    -3
100
AcDbVertex
100
AcDb2dVertex
 10
547.8135829023672
 20
-1856.573364395043
 30
0.0
  0
VERTEX
  5
348
330
2AC
100
AcDbEntity
  8
Graypants_Arc80
370
    -3
100
AcDbVertex
100
AcDb2dVertex
 10
546.7353564281834
 20
-1856.457162900419
 30
0.0
  0
VERTEX
  5
349
330
2AC
100
AcDbEntity
  8
Graypants_Arc80
370
    -3
100
AcDbVertex
100
AcDb2dVertex
 10
545.6575923599775
 20
-1856.330866111139
 30
0.0
  0
VERTEX
  5
34A
330
2AC
100
AcDbEntity
  8
Graypants_Arc80
370
    -3
100
AcDbVertex
100
AcDb2dVertex
 10
544.5803333004305
 20
-1856.194475497355
 30
0.0
  0
VERTEX
  5
34B
330
2AC
100
AcDbEntity
  8
Graypants_Arc80
370
    -3
100
AcDbVertex
100
AcDb2dVertex
 10
543.5036218522238
 20
-1856.047992529223
 30
0.0
  0
VERTEX
  5
34C
330
2AC
100
AcDbEntity
  8
Graypants_Arc80
370
    -3
100
AcDbVertex
100
AcDb2dVertex
 10
542.4275006180378
 20
-1855.891418676896
 30
0.0
  0
VERTEX
  5
34D
330
2AC
100
AcDbEntity
  8
Graypants_Arc80
370
    -3
100
AcDbVertex
100
AcDb2dVertex
 10
541.3520122005539
 20
-1855.724755410527
 30
0.0
  0
VERTEX
  5
34E
330
2AC
100
AcDbEntity
  8
Graypants_Arc80
370
    -3
100
AcDbVertex
100
AcDb2dVertex
 10
540.2771992024532
 20
-1855.548004200273
 30
0.0
  0
VERTEX
  5
34F
330
2AC
100
AcDbEntity
  8
Graypants_Arc80
370
    -3
100
AcDbVertex
100
AcDb2dVertex
 10
539.2031042264166
 20
-1855.361166516286
 30
0.0
  0
VERTEX
  5
350
330
2AC
100
AcDbEntity
  8
Graypants_Arc80
370
    -3
100
AcDbVertex
100
AcDb2dVertex
 10
538.129769875125
 20
-1855.16424382872
 30
0.0
  0
VERTEX
  5
351
330
2AC
100
AcDbEntity
  8
Graypants_Arc80
370
    -3
100
AcDbVertex
100
AcDb2dVertex
 10
537.0572387512597
 20
-1854.95723760773
 30
0.0
  0
VERTEX
  5
352
330
2AC
100
AcDbEntity
  8
Graypants_Arc80
370
    -3
100
AcDbVertex
100
AcDb2dVertex
 10
535.9855534575015
 20
-1854.740149323469
 30
0.0
  0
VERTEX
  5
353
330
2AC
100
AcDbEntity
  8
Graypants_Arc80
370
    -3
100
AcDbVertex
100
AcDb2dVertex
 10
534.9147565965313
 20
-1854.512980446092
 30
0.0
  0
VERTEX
  5
354
330
2AC
100
AcDbEntity
  8
Graypants_Arc80
370
    -3
100
AcDbVertex
100
AcDb2dVertex
 10
533.8448907710307
 20
-1854.275732445753
 30
0.0
  0
VERTEX
  5
355
330
2AC
100
AcDbEntity
  8
Graypants_Arc80
370
    -3
100
AcDbVertex
100
AcDb2dVertex
 10
532.7759985836803
 20
-1854.028406792605
 30
0.0
  0
VERTEX
  5
356
330
2AC
100
AcDbEntity
  8
Graypants_Arc80
370
    -3
100
AcDbVertex
100
AcDb2dVertex
 10
531.7081226371611
 20
-1853.771004956803
 30
0.0
  0
VERTEX
  5
357
330
2AC
100
AcDbEntity
  8
Graypants_Arc80
370
    -3
100
AcDbVertex
100
AcDb2dVertex
 10
530.6413055341542
 20
-1853.503528408502
 30
0.0
  0
VERTEX
  5
358
330
2AC
100
AcDbEntity
  8
Graypants_Arc80
370
    -3
100
AcDbVertex
100
AcDb2dVertex
 10
529.5755898773407
 20
-1853.225978617854
 30
0.0
  0
VERTEX
  5
359
330
2AC
100
AcDbEntity
  8
Graypants_Arc80
370
    -3
100
AcDbVertex
100
AcDb2dVertex
 10
528.5110182694016
 20
-1852.938357055014
 30
0.0
  0
VERTEX
  5
35A
330
2AC
100
AcDbEntity
  8
Graypants_Arc80
370
    -3
100
AcDbVertex
100
AcDb2dVertex
 10
527.4476333130181
 20
-1852.640665190137
 30
0.0
  0
VERTEX
  5
35B
330
2AC
100
AcDbEntity
  8
Graypants_Arc80
370
    -3
100
AcDbVertex
100
AcDb2dVertex
 10
526.3854776108708
 20
-1852.332904493375
 30
0.0
  0
VERTEX
  5
35C
330
2AC
100
AcDbEntity
  8
Graypants_Arc80
370
    -3
100
AcDbVertex
100
AcDb2dVertex
 10
525.324593765641
 20
-1852.015076434884
 30
0.0
  0
VERTEX
  5
35D
330
2AC
100
AcDbEntity
  8
Graypants_Arc80
370
    -3
100
AcDbVertex
100
AcDb2dVertex
 10
523.2068419365687
 20
-1851.349314120858
 30
0.0
  0
VERTEX
  5
35E
330
2AC
100
AcDbEntity
  8
Graypants_Arc80
370
    -3
100
AcDbVertex
100
AcDb2dVertex
 10
521.0946719474731
 20
-1850.643529136154
 30
0.0
  0
VERTEX
  5
35F
330
2AC
100
AcDbEntity
  8
Graypants_Arc80
370
    -3
100
AcDbVertex
100
AcDb2dVertex
 10
518.9883097502706
 20
-1849.897806921006
 30
0.0
  0
VERTEX
  5
360
330
2AC
100
AcDbEntity
  8
Graypants_Arc80
370
    -3
100
AcDbVertex
100
AcDb2dVertex
 10
516.8879812968783
 20
-1849.11223291565
 30
0.0
  0
VERTEX
  5
361
330
2AC
100
AcDbEntity
  8
Graypants_Arc80
370
    -3
100
AcDbVertex
100
AcDb2dVertex
 10
514.7939125392129
 20
-1848.28689256032
 30
0.0
  0
VERTEX
  5
362
330
2AC
100
AcDbEntity
  8
Graypants_Arc80
370
    -3
100
AcDbVertex
100
AcDb2dVertex
 10
512.7063294291916
 20
-1847.421871295251
 30
0.0
  0
VERTEX
  5
363
330
2AC
100
AcDbEntity
  8
Graypants_Arc80
370
    -3
100
AcDbVertex
100
AcDb2dVertex
 10
510.6254579187307
 20
-1846.517254560679
 30
0.0
  0
VERTEX
  5
364
330
2AC
100
AcDbEntity
  8
Graypants_Arc80
370
    -3
100
AcDbVertex
100
AcDb2dVertex
 10
508.5515239597476
 20
-1845.573127796837
 30
0.0
  0
VERTEX
  5
365
330
2AC
100
AcDbEntity
  8
Graypants_Arc80
370
    -3
100
AcDbVertex
100
AcDb2dVertex
 10
506.4847535041588
 20
-1844.589576443961
 30
0.0
  0
VERTEX
  5
366
330
2AC
100
AcDbEntity
  8
Graypants_Arc80
370
    -3
100
AcDbVertex
100
AcDb2dVertex
 10
504.4253725038814
 20
-1843.566685942285
 30
0.0
  0
VERTEX
  5
367
330
2AC
100
AcDbEntity
  8
Graypants_Arc80
370
    -3
100
AcDbVertex
100
AcDb2dVertex
 10
502.3736069108321
 20
-1842.504541732045
 30
0.0
  0
VERTEX
  5
368
330
2AC
100
AcDbEntity
  8
Graypants_Arc80
370
    -3
100
AcDbVertex
100
AcDb2dVertex
 10
500.3296826769279
 20
-1841.403229253474
 30
0.0
  0
VERTEX
  5
369
330
2AC
100
AcDbEntity
  8
Graypants_Arc80
370
    -3
100
AcDbVertex
100
AcDb2dVertex
 10
498.2938257540855
 20
-1840.262833946809
 30
0.0
  0
VERTEX
  5
36A
330
2AC
100
AcDbEntity
  8
Graypants_Arc80
370
    -3
100
AcDbVertex
100
AcDb2dVertex
 10
496.2662620942219
 20
-1839.083441252283
 30
0.0
  0
VERTEX
  5
36B
330
2AC
100
AcDbEntity
  8
Graypants_Arc80
370
    -3
100
AcDbVertex
100
AcDb2dVertex
 10
494.2472176492539
 20
-1837.865136610132
 30
0.0
  0
VERTEX
  5
36C
330
2AC
100
AcDbEntity
  8
Graypants_Arc80
370
    -3
100
AcDbVertex
100
AcDb2dVertex
 10
492.2369183710983
 20
-1836.60800546059
 30
0.0
  0
VERTEX
  5
36D
330
2AC
100
AcDbEntity
  8
Graypants_Arc80
370
    -3
100
AcDbVertex
100
AcDb2dVertex
 10
490.2353260431713
 20
-1835.311949438232
 30
0.0
  0
VERTEX
  5
36E
330
2AC
100
AcDbEntity
  8
Graypants_Arc80
370
    -3
100
AcDbVertex
100
AcDb2dVertex
 10
488.2423917057829
 20
-1833.97681727445
 30
0.0
  0
VERTEX
  5
36F
330
2AC
100
AcDbEntity
  8
Graypants_Arc80
370
    -3
100
AcDbVertex
100
AcDb2dVertex
 10
486.2583251961919
 20
-1832.602615054704
 30
0.0
  0
VERTEX
  5
370
330
2AC
100
AcDbEntity
  8
Graypants_Arc80
370
    -3
100
AcDbVertex
100
AcDb2dVertex
 10
484.2833363516564
 20
-1831.189348864452
 30
0.0
  0
VERTEX
  5
371
330
2AC
100
AcDbEntity
  8
Graypants_Arc80
370
    -3
100
AcDbVertex
100
AcDb2dVertex
 10
482.317635009435
 20
-1829.737024789155
 30
0.0
  0
VERTEX
  5
372
330
2AC
100
AcDbEntity
  8
Graypants_Arc80
370
    -3
100
AcDbVertex
100
AcDb2dVertex
 10
480.3614310067861
 20
-1828.245648914273
 30
0.0
  0
VERTEX
  5
373
330
2AC
100
AcDbEntity
  8
Graypants_Arc80
370
    -3
100
AcDbVertex
100
AcDb2dVertex
 10
478.414934180968
 20
-1826.715227325264
 30
0.0
  0
VERTEX
  5
374
330
2AC
100
AcDbEntity
  8
Graypants_Arc80
370
    -3
100
AcDbVertex
100
AcDb2dVertex
 10
476.4783543692391
 20
-1825.145766107588
 30
0.0
  0
VERTEX
  5
375
330
2AC
100
AcDbEntity
  8
Graypants_Arc80
370
    -3
100
AcDbVertex
100
AcDb2dVertex
 10
474.5519014088579
 20
-1823.537271346705
 30
0.0
  0
VERTEX
  5
376
330
2AC
100
AcDbEntity
  8
Graypants_Arc80
370
    -3
100
AcDbVertex
100
AcDb2dVertex
 10
472.6357851370828
 20
-1821.889749128074
 30
0.0
  0
VERTEX
  5
377
330
2AC
100
AcDbEntity
  8
Graypants_Arc80
370
    -3
100
AcDbVertex
100
AcDb2dVertex
 10
470.7302153911723
 20
-1820.203205537155
 30
0.0
  0
VERTEX
  5
378
330
2AC
100
AcDbEntity
  8
Graypants_Arc80
370
    -3
100
AcDbVertex
100
AcDb2dVertex
 10
468.8354020083846
 20
-1818.477646659407
 30
0.0
  0
VERTEX
  5
379
330
2AC
100
AcDbEntity
  8
Graypants_Arc80
370
    -3
100
AcDbVertex
100
AcDb2dVertex
 10
466.9515548259782
 20
-1816.713078580289
 30
0.0
  0
VERTEX
  5
37A
330
2AC
100
AcDbEntity
  8
Graypants_Arc80
370
    -3
100
AcDbVertex
100
AcDb2dVertex
 10
465.0788836812115
 20
-1814.909507385262
 30
0.0
  0
VERTEX
  5
37B
330
2AC
100
AcDbEntity
  8
Graypants_Arc80
370
    -3
100
AcDbVertex
100
AcDb2dVertex
 10
463.2175984113429
 20
-1813.066939159785
 30
0.0
  0
VERTEX
  5
37C
330
2AC
100
AcDbEntity
  8
Graypants_Arc80
370
    -3
100
AcDbVertex
100
AcDb2dVertex
 10
461.3679088536309
 20
-1811.185379989318
 30
0.0
  0
VERTEX
  5
37D
330
2AC
100
AcDbEntity
  8
Graypants_Arc80
370
    -3
100
AcDbVertex
100
AcDb2dVertex
 10
459.5299929330632
 20
-1809.264837145031
 30
0.0
  0
VERTEX
  5
37E
330
2AC
100
AcDbEntity
  8
Graypants_Arc80
370
    -3
100
AcDbVertex
100
AcDb2dVertex
 10
457.7040019688172
 20
-1807.30528163351
 30
0.0
  0
VERTEX
  5
37F
330
2AC
100
AcDbEntity
  8
Graypants_Arc80
370
    -3
100
AcDbVertex
100
AcDb2dVertex
 10
455.8901058894356
 20
-1805.306665143331
 30
0.0
  0
VERTEX
  5
380
330
2AC
100
AcDbEntity
  8
Graypants_Arc80
370
    -3
100
AcDbVertex
100
AcDb2dVertex
 10
454.0884746234613
 20
-1803.26893936307
 30
0.0
  0
VERTEX
  5
381
330
2AC
100
AcDbEntity
  8
Graypants_Arc80
370
    -3
100
AcDbVertex
100
AcDb2dVertex
 10
452.2992780994367
 20
-1801.192055981305
 30
0.0
  0
VERTEX
  5
382
330
2AC
100
AcDbEntity
  8
Graypants_Arc80
370
    -3
100
AcDbVertex
100
AcDb2dVertex
 10
450.5226862459048
 20
-1799.075966686614
 30
0.0
  0
VERTEX
  5
383
330
2AC
100
AcDbEntity
  8
Graypants_Arc80
370
    -3
100
AcDbVertex
100
AcDb2dVertex
 10
448.7588689914081
 20
-1796.920623167573
 30
0.0
  0
VERTEX
  5
384
330
2AC
100
AcDbEntity
  8
Graypants_Arc80
370
    -3
100
AcDbVertex
100
AcDb2dVertex
 10
447.0079962644895
 20
-1794.725977112758
 30
0.0
  0
VERTEX
  5
385
330
2AC
100
AcDbEntity
  8
Graypants_Arc80
370
    -3
100
AcDbVertex
100
AcDb2dVertex
 10
445.2702379936915
 20
-1792.491980210748
 30
0.0
  0
VERTEX
  5
386
330
2AC
100
AcDbEntity
  8
Graypants_Arc80
370
    -3
100
AcDbVertex
100
AcDb2dVertex
 10
443.5457641075569
 20
-1790.21858415012
 30
0.0
  0
VERTEX
  5
387
330
2AC
100
AcDbEntity
  8
Graypants_Arc80
370
    -3
100
AcDbVertex
100
AcDb2dVertex
 10
441.8347445346284
 20
-1787.905740619449
 30
0.0
  0
VERTEX
  5
388
330
2AC
100
AcDbEntity
  8
Graypants_Arc80
370
    -3
100
AcDbVertex
100
AcDb2dVertex
 10
440.1373492034487
 20
-1785.553401307315
 30
0.0
  0
VERTEX
  5
389
330
2AC
100
AcDbEntity
  8
Graypants_Arc80
370
    -3
100
AcDbVertex
100
AcDb2dVertex
 10
438.4537480425605
 20
-1783.161517902292
 30
0.0
  0
VERTEX
  5
38A
330
2AC
100
AcDbEntity
  8
Graypants_Arc80
370
    -3
100
AcDbVertex
100
AcDb2dVertex
 10
436.7841109805066
 20
-1780.730042092959
 30
0.0
  0
VERTEX
  5
38B
330
2AC
100
AcDbEntity
  8
Graypants_Arc80
370
    -3
100
AcDbVertex
100
AcDb2dVertex
 10
435.1286079458296
 20
-1778.258925567893
 30
0.0
  0
VERTEX
  5
38C
330
2AC
100
AcDbEntity
  8
Graypants_Arc80
370
    -3
100
AcDbVertex
100
AcDb2dVertex
 10
433.4874088670723
 20
-1775.74812001567
 30
0.0
  0
VERTEX
  5
38D
330
2AC
100
AcDbEntity
  8
Graypants_Arc80
370
    -3
100
AcDbVertex
100
AcDb2dVertex
 10
431.8607181704452
 20
-1773.197453742249
 30
0.0
  0
VERTEX
  5
38E
330
2AC
100
AcDbEntity
  8
Graypants_Arc80
370
    -3
100
AcDbVertex
100
AcDb2dVertex
 10
430.2488052754311
 20
-1770.606765409666
 30
0.0
  0
VERTEX
  5
38F
330
2AC
100
AcDbEntity
  8
Graypants_Arc80
370
    -3
100
AcDbVertex
100
AcDb2dVertex
 10
428.6519376004807
 20
-1767.976022240616
 30
0.0
  0
VERTEX
  5
390
330
2AC
100
AcDbEntity
  8
Graypants_Arc80
370
    -3
100
AcDbVertex
100
AcDb2dVertex
 10
427.0703825640452
 20
-1765.30519145779
 30
0.0
  0
VERTEX
  5
391
330
2AC
100
AcDbEntity
  8
Graypants_Arc80
370
    -3
100
AcDbVertex
100
AcDb2dVertex
 10
425.5044075845753
 20
-1762.594240283885
 30
0.0
  0
VERTEX
  5
392
330
2AC
100
AcDbEntity
  8
Graypants_Arc80
370
    -3
100
AcDbVertex
100
AcDb2dVertex
 10
423.9542800805221
 20
-1759.843135941593
 30
0.0
  0
VERTEX
  5
393
330
2AC
100
AcDbEntity
  8
Graypants_Arc80
370
    -3
100
AcDbVertex
100
AcDb2dVertex
 10
422.4202674703364
 20
-1757.051845653609
 30
0.0
  0
VERTEX
  5
394
330
2AC
100
AcDbEntity
  8
Graypants_Arc80
370
    -3
100
AcDbVertex
100
AcDb2dVertex
 10
420.9026371724693
 20
-1754.220336642625
 30
0.0
  0
VERTEX
  5
395
330
2AC
100
AcDbEntity
  8
Graypants_Arc80
370
    -3
100
AcDbVertex
100
AcDb2dVertex
 10
419.4016566053715
 20
-1751.348576131337
 30
0.0
  0
VERTEX
  5
396
330
2AC
100
AcDbEntity
  8
Graypants_Arc80
370
    -3
100
AcDbVertex
100
AcDb2dVertex
 10
417.917593187494
 20
-1748.436531342438
 30
0.0
  0
VERTEX
  5
397
330
2AC
100
AcDbEntity
  8
Graypants_Arc80
370
    -3
100
AcDbVertex
100
AcDb2dVertex
 10
416.4507143372879
 20
-1745.484169498621
 30
0.0
  0
VERTEX
  5
398
330
2AC
100
AcDbEntity
  8
Graypants_Arc80
370
    -3
100
AcDbVertex
100
AcDb2dVertex
 10
415.0012874732039
 20
-1742.491457822582
 30
0.0
  0
VERTEX
  5
399
330
2AC
100
AcDbEntity
  8
Graypants_Arc80
370
    -3
100
AcDbVertex
100
AcDb2dVertex
 10
413.569580013693
 20
-1739.458363537013
 30
0.0
  0
VERTEX
  5
39A
330
2AC
100
AcDbEntity
  8
Graypants_Arc80
370
    -3
100
AcDbVertex
100
AcDb2dVertex
 10
412.1558593772062
 20
-1736.384853864608
 30
0.0
  0
VERTEX
  5
39B
330
2AC
100
AcDbEntity
  8
Graypants_Arc80
370
    -3
100
AcDbVertex
100
AcDb2dVertex
 10
410.7603929821944
 20
-1733.270896028062
 30
0.0
  0
VERTEX
  5
39C
330
2AC
100
AcDbEntity
  8
Graypants_Arc80
370
    -3
100
AcDbVertex
100
AcDb2dVertex
 10
409.3834482471085
 20
-1730.116457250068
 30
0.0
  0
VERTEX
  5
39D
330
2AC
100
AcDbEntity
  8
Graypants_Arc80
370
    -3
100
AcDbVertex
100
AcDb2dVertex
 10
408.0252580178649
 20
-1726.921397238502
 30
0.0
  0
VERTEX
  5
39E
330
2AC
100
AcDbEntity
  8
Graypants_Arc80
370
    -3
100
AcDbVertex
100
AcDb2dVertex
 10
406.6861111259567
 20
-1723.685615891993
 30
0.0
  0
VERTEX
  5
39F
330
2AC
100
AcDbEntity
  8
Graypants_Arc80
370
    -3
100
AcDbVertex
100
AcDb2dVertex
 10
405.3663589682001
 20
-1720.40914071937
 30
0.0
  0
VERTEX
  5
3A0
330
2AC
100
AcDbEntity
  8
Graypants_Arc80
370
    -3
100
AcDbVertex
100
AcDb2dVertex
 10
404.0663529414111
 20
-1717.091999229458
 30
0.0
  0
VERTEX
  5
3A1
330
2AC
100
AcDbEntity
  8
Graypants_Arc80
370
    -3
100
AcDbVertex
100
AcDb2dVertex
 10
402.7864444424058
 20
-1713.734218931084
 30
0.0
  0
VERTEX
  5
3A2
330
2AC
100
AcDbEntity
  8
Graypants_Arc80
370
    -3
100
AcDbVertex
100
AcDb2dVertex
 10
401.5269848680002
 20
-1710.335827333075
 30
0.0
  0
VERTEX
  5
3A3
330
2AC
100
AcDbEntity
  8
Graypants_Arc80
370
    -3
100
AcDbVertex
100
AcDb2dVertex
 10
400.2883256150104
 20
-1706.89685194426
 30
0.0
  0
VERTEX
  5
3A4
330
2AC
100
AcDbEntity
  8
Graypants_Arc80
370
    -3
100
AcDbVertex
100
AcDb2dVertex
 10
399.0708180802526
 20
-1703.417320273463
 30
0.0
  0
VERTEX
  5
3A5
330
2AC
100
AcDbEntity
  8
Graypants_Arc80
370
    -3
100
AcDbVertex
100
AcDb2dVertex
 10
397.8748136605428
 20
-1699.897259829513
 30
0.0
  0
VERTEX
  5
3A6
330
2AC
100
AcDbEntity
  8
Graypants_Arc80
370
    -3
100
AcDbVertex
100
AcDb2dVertex
 10
396.700663752697
 20
-1696.336698121235
 30
0.0
  0
VERTEX
  5
3A7
330
2AC
100
AcDbEntity
  8
Graypants_Arc80
370
    -3
100
AcDbVertex
100
AcDb2dVertex
 10
395.5487197535314
 20
-1692.735662657458
 30
0.0
  0
VERTEX
  5
3A8
330
2AC
100
AcDbEntity
  8
Graypants_Arc80
370
    -3
100
AcDbVertex
100
AcDb2dVertex
 10
394.419333059862
 20
-1689.094180947007
 30
0.0
  0
VERTEX
  5
3A9
330
2AC
100
AcDbEntity
  8
Graypants_Arc80
370
    -3
100
AcDbVertex
100
AcDb2dVertex
 10
393.3128550685049
 20
-1685.41228049871
 30
0.0
  0
VERTEX
  5
3AA
330
2AC
100
AcDbEntity
  8
Graypants_Arc80
370
    -3
100
AcDbVertex
100
AcDb2dVertex
 10
392.2296371762761
 20
-1681.689988821394
 30
0.0
  0
VERTEX
  5
3AB
330
2AC
100
AcDbEntity
  8
Graypants_Arc80
370
    -3
100
AcDbVertex
100
AcDb2dVertex
 10
391.1700307799918
 20
-1677.927333423886
 30
0.0
  0
VERTEX
  5
3AC
330
2AC
100
AcDbEntity
  8
Graypants_Arc80
370
    -3
100
AcDbVertex
100
AcDb2dVertex
 10
390.134387276468
 20
-1674.124341815012
 30
0.0
  0
VERTEX
  5
3AD
330
2AC
100
AcDbEntity
  8
Graypants_Arc80
370
    -3
100
AcDbVertex
100
AcDb2dVertex
 10
389.1230452704753
 20
-1670.280940840015
 30
0.0
  0
VERTEX
  5
3AE
330
2AC
100
AcDbEntity
  8
Graypants_Arc80
370
    -3
100
AcDbVertex
100
AcDb2dVertex
 10
388.1364124719461
 20
-1666.397146507175
 30
0.0
  0
VERTEX
  5
3AF
330
2AC
100
AcDbEntity
  8
Graypants_Arc80
370
    -3
100
AcDbVertex
100
AcDb2dVertex
 10
387.1749439354396
 20
-1662.473120069874
 30
0.0
  0
VERTEX
  5
3B0
330
2AC
100
AcDbEntity
  8
Graypants_Arc80
370
    -3
100
AcDbVertex
100
AcDb2dVertex
 10
386.2390947155149
 20
-1658.509022781495
 30
0.0
  0
VERTEX
  5
3B1
330
2AC
100
AcDbEntity
  8
Graypants_Arc80
370
    -3
100
AcDbVertex
100
AcDb2dVertex
 10
385.329319866731
 20
-1654.505015895419
 30
0.0
  0
VERTEX
  5
3B2
330
2AC
100
AcDbEntity
  8
Graypants_Arc80
370
    -3
100
AcDbVertex
100
AcDb2dVertex
 10
384.4460744436471
 20
-1650.461260665029
 30
0.0
  0
VERTEX
  5
3B3
330
2AC
100
AcDbEntity
  8
Graypants_Arc80
370
    -3
100
AcDbVertex
100
AcDb2dVertex
 10
383.5898135008224
 20
-1646.377918343708
 30
0.0
  0
VERTEX
  5
3B4
330
2AC
100
AcDbEntity
  8
Graypants_Arc80
370
    -3
100
AcDbVertex
100
AcDb2dVertex
 10
382.7609920928158
 20
-1642.255150184836
 30
0.0
  0
VERTEX
  5
3B5
330
2AC
100
AcDbEntity
  8
Graypants_Arc80
370
    -3
100
AcDbVertex
100
AcDb2dVertex
 10
381.9600652741865
 20
-1638.093117441798
 30
0.0
  0
VERTEX
  5
3B6
330
2AC
100
AcDbEntity
  8
Graypants_Arc80
370
    -3
100
AcDbVertex
100
AcDb2dVertex
 10
381.1874880994937
 20
-1633.891981367974
 30
0.0
  0
VERTEX
  5
3B7
330
2AC
100
AcDbEntity
  8
Graypants_Arc80
370
    -3
100
AcDbVertex
100
AcDb2dVertex
 10
380.4437156232964
 20
-1629.651903216747
 30
0.0
  0
VERTEX
  5
3B8
330
2AC
100
AcDbEntity
  8
Graypants_Arc80
370
    -3
100
AcDbVertex
100
AcDb2dVertex
 10
379.7292029001538
 20
-1625.373044241499
 30
0.0
  0
VERTEX
  5
3B9
330
2AC
100
AcDbEntity
  8
Graypants_Arc80
370
    -3
100
AcDbVertex
100
AcDb2dVertex
 10
379.0444049846249
 20
-1621.055565695613
 30
0.0
  0
VERTEX
  5
3BA
330
2AC
100
AcDbEntity
  8
Graypants_Arc80
370
    -3
100
AcDbVertex
100
AcDb2dVertex
 10
378.3897769312689
 20
-1616.699628832471
 30
0.0
  0
VERTEX
  5
3BB
330
2AC
100
AcDbEntity
  8
Graypants_Arc80
370
    -3
100
AcDbVertex
100
AcDb2dVertex
 10
377.7657737946448
 20
-1612.305394905455
 30
0.0
  0
VERTEX
  5
3BC
330
2AC
100
AcDbEntity
  8
Graypants_Arc80
370
    -3
100
AcDbVertex
100
AcDb2dVertex
 10
377.1728506293118
 20
-1607.873025167947
 30
0.0
  0
VERTEX
  5
3BD
330
2AC
100
AcDbEntity
  8
Graypants_Arc80
370
    -3
100
AcDbVertex
100
AcDb2dVertex
 10
376.7608249480635
 20
-1604.620851092329
 30
0.0
  0
VERTEX
  5
3BE
330
2AC
100
AcDbEntity
  8
Graypants_Arc80
370
    -3
100
AcDbVertex
100
AcDb2dVertex
 10
376.3657239737984
 20
-1601.348556821285
 30
0.0
  0
VERTEX
  5
3BF
330
2AC
100
AcDbEntity
  8
Graypants_Arc80
370
    -3
100
AcDbVertex
100
AcDb2dVertex
 10
375.9877693368453
 20
-1598.056274818061
 30
0.0
  0
VERTEX
  5
3C0
330
2AC
100
AcDbEntity
  8
Graypants_Arc80
370
    -3
100
AcDbVertex
100
AcDb2dVertex
 10
375.6271826675332
 20
-1594.744137545902
 30
0.0
  0
VERTEX
  5
3C1
330
2AC
100
AcDbEntity
  8
Graypants_Arc80
370
    -3
100
AcDbVertex
100
AcDb2dVertex
 10
375.284185596191
 20
-1591.412277468054
 30
0.0
  0
VERTEX
  5
3C2
330
2AC
100
AcDbEntity
  8
Graypants_Arc80
370
    -3
100
AcDbVertex
100
AcDb2dVertex
 10
374.9589997531477
 20
-1588.060827047762
 30
0.0
  0
VERTEX
  5
3C3
330
2AC
100
AcDbEntity
  8
Graypants_Arc80
370
    -3
100
AcDbVertex
100
AcDb2dVertex
 10
374.6518467687321
 20
-1584.689918748272
 30
0.0
  0
VERTEX
  5
3C4
330
2AC
100
AcDbEntity
  8
Graypants_Arc80
370
    -3
100
AcDbVertex
100
AcDb2dVertex
 10
374.3629482732731
 20
-1581.29968503283
 30
0.0
  0
VERTEX
  5
3C5
330
2AC
100
AcDbEntity
  8
Graypants_Arc80
370
    -3
100
AcDbVertex
100
AcDb2dVertex
 10
374.0925258970996
 20
-1577.89025836468
 30
0.0
  0
VERTEX
  5
3C6
330
2AC
100
AcDbEntity
  8
Graypants_Arc80
370
    -3
100
AcDbVertex
100
AcDb2dVertex
 10
373.8408012705407
 20
-1574.46177120707
 30
0.0
  0
VERTEX
  5
3C7
330
2AC
100
AcDbEntity
  8
Graypants_Arc80
370
    -3
100
AcDbVertex
100
AcDb2dVertex
 10
373.6079960239251
 20
-1571.014356023243
 30
0.0
  0
VERTEX
  5
3C8
330
2AC
100
AcDbEntity
  8
Graypants_Arc80
370
    -3
100
AcDbVertex
100
AcDb2dVertex
 10
373.3943317875817
 20
-1567.548145276447
 30
0.0
  0
VERTEX
  5
3C9
330
2AC
100
AcDbEntity
  8
Graypants_Arc80
370
    -3
100
AcDbVertex
100
AcDb2dVertex
 10
373.2000301918395
 20
-1564.063271429925
 30
0.0
  0
VERTEX
  5
3CA
330
2AC
100
AcDbEntity
  8
Graypants_Arc80
370
    -3
100
AcDbVertex
100
AcDb2dVertex
 10
373.0253128670274
 20
-1560.559866946925
 30
0.0
  0
VERTEX
  5
3CB
330
2AC
100
AcDbEntity
  8
Graypants_Arc80
370
    -3
100
AcDbVertex
100
AcDb2dVertex
 10
372.8704014434744
 20
-1557.038064290692
 30
0.0
  0
VERTEX
  5
3CC
330
2AC
100
AcDbEntity
  8
Graypants_Arc80
370
    -3
100
AcDbVertex
100
AcDb2dVertex
 10
372.7355175515092
 20
-1553.497995924471
 30
0.0
  0
SEQEND
  5
3CD
330
2AC
100
AcDbEntity
  8
Graypants_Arc80
370
    -3
  0
CIRCLE
  5
3CF
330
1F
100
AcDbEntity
  8
Graypants_Arc80
  6
Hidden
100
AcDbCircle
 10
0.0
 20
0.0
 30
0.0
 40
73.49999999999852
  0
CIRCLE
  5
3D0
330
1F
100
AcDbEntity
  8
Graypants_Arc80
370
    -3
100
AcDbCircle
 10
0.0
 20
0.0000000000002273
 30
0.0
 40
7.75
  0
CIRCLE
  5
3D1
330
1F
100
AcDbEntity
  8
Graypants_Arc80
370
    -3
100
AcDbCircle
 10
0.0
 20
0.0000000000002273
 30
0.0
 40
2.349999999978536
210
0.0
220
0.0
230
-1.0
  0
ARC
  5
3D2
330
1F
100
AcDbEntity
  8
Graypants_Arc80
370
    -3
100
AcDbCircle
 10
0.0000000000000792
 20
0.0000000000001483
 30
0.0
 40
2.100000000041212
210
0.0
220
0.0
230
-1.0
100
AcDbArc
 50
269.9999999999979
 51
0.0000000000021493
  0
ARC
  5
3D3
330
1F
100
AcDbEntity
  8
Graypants_Arc80
370
    -3
100
AcDbCircle
 10
-0.0000000000000789
 20
0.0000000000003063
 30
0.0
 40
2.10000000004137
210
0.0
220
0.0
230
-1.0
100
AcDbArc
 50
359.9999999999979
 51
270.0000000000021
  0
CIRCLE
  5
3D4
330
1F
100
AcDbEntity
  8
Graypants_Arc80
370
    -3
100
AcDbCircle
 10
0.0
 20
-0.0000000000052297
 30
0.0
 40
1.5
210
0.0
220
0.0
230
-1.0
  0
ARC
  5
3D5
330
1F
100
AcDbEntity
  8
Graypants_Arc80
370
    -3
100
AcDbCircle
 10
0.0
 20
0.0000000000002273
 30
0.0
 40
8.0
210
0.0
220
0.0
230
-1.0
100
AcDbArc
 50
270.0
 51
89.99999999999999
  0
ARC
  5
3D6
330
1F
100
AcDbEntity
  8
Graypants_Arc80
370
    -3
100
AcDbCircle
 10
0.0
 20
0.0000000000002273
 30
0.0
 40
8.0
210
0.0
220
0.0
230
-1.0
100
AcDbArc
 50
90.0
 51
270.0
  0
LINE
  5
3D7
330
1F
100
AcDbEntity
  8
Graypants_Arc80
370
    -3
100
AcDbLine
 10
-8.0
 20
0.0000000000002269
 30
0.0
 11
-7.999999995878966
 21
161.9614224569582
 31
0.0
  0
LINE
  5
3D8
330
1F
100
AcDbEntity
  8
Graypants_Arc80
370
    -3
100
AcDbLine
 10
-7.999999995878999
 20
-161.9614224569482
 30
0.0
 11
-8.000000000000021
 21
0.0000000000002269
 31
0.0
  0
LINE
  5
3D9
330
1F
100
AcDbEntity
  8
Graypants_Arc80
370
    -3
100
AcDbLine
 10
8.0
 20
0.0000000000002278
 30
0.0
 11
7.999999995879421
 21
-161.9614224569482
 31
0.0
  0
LINE
  5
3DA
330
1F
100
AcDbEntity
  8
Graypants_Arc80
370
    -3
100
AcDbLine
 10
7.999999995879421
 20
161.9614224569582
 30
0.0
 11
8.0
 21
0.0000000000002278
 31
0.0
  0
LINE
  5
3DB
330
1F
100
AcDbEntity
  8
Graypants_Arc80
370
    -3
100
AcDbLine
 10
-12.99999999999989
 20
167.1666852264585
 30
0.0
 11
-12.99999999999989
 21
0.0001861060233921
 31
0.0
  0
LINE
  5
3DC
330
1F
100
AcDbEntity
  8
Graypants_Arc80
370
    -3
100
AcDbLine
 10
13.00000000000023
 20
167.1666852264578
 30
0.0
 11
13.00000000000011
 21
-0.0000000000000284
 31
0.0
  0
LINE
  5
3DD
330
1F
100
AcDbEntity
  8
Graypants_Arc80
370
    -3
100
AcDbLine
 10
-12.99999999999989
 20
-0.0000000000002558
 30
0.0
 11
-12.99999999999989
 21
-167.1666852264484
 31
0.0
  0
LINE
  5
3DE
330
1F
100
AcDbEntity
  8
Graypants_Arc80
370
    -3
100
AcDbLine
 10
13.00000000000011
 20
-0.0000000000000284
 30
0.0
 11
13.00000000000023
 21
-167.1666852264481
 31
0.0
  0
ENDSEC
  0
SECTION
  2
OBJECTS
  0
DICTIONARY
  5
C
330
0
100
AcDbDictionary
281
     1
  3
ACAD_DETAILVIEWSTYLE
350
41A
  3
ACAD_GROUP
350
D
  3
ACAD_LAYOUT
350
1A
  3
ACAD_MATERIAL
350
43
  3
ACAD_MLEADERSTYLE
350
6B
  3
ACAD_MLINESTYLE
350
17
  3
ACAD_PLOTSETTINGS
350
19
  3
ACAD_PLOTSTYLENAME
350
E
  3
ACAD_SCALELIST
350
47
  3
ACAD_SECTIONVIEWSTYLE
350
41B
  3
ACAD_TABLESTYLE
350
69
  3
ACAD_VISUALSTYLE
350
2A
  3
AcDbVariableDictionary
350
3DF
  3
ACDB_RECOMPOSE_DATA
350
417
  0
SUN
  5
6D
330
29
100
AcDbSun
 90
        1
290
     0
 63
     7
421
 16777215
 40
1.0
291
     1
 91
  2455826
 92
 54000000
292
     0
 70
     2
 71
   256
280
     1
  0
DICTIONARY
  5
41A
102
{ACAD_REACTORS
330
C
102
}
330
C
100
AcDbDictionary
281
     1
  0
DICTIONARY
  5
D
102
{ACAD_REACTORS
330
C
102
}
330
C
100
AcDbDictionary
281
     1
  0
DICTIONARY
  5
1A
102
{ACAD_REACTORS
330
C
102
}
330
C
100
AcDbDictionary
281
     1
  3
Layout1
350
1E
  3
Layout2
350
26
  3
Model
350
22
  0
DICTIONARY
  5
43
102
{ACAD_REACTORS
330
C
102
}
330
C
100
AcDbDictionary
281
     1
  3
ByBlock
350
45
  3
ByLayer
350
44
  3
Global
350
46
  0
DICTIONARY
  5
6B
102
{ACAD_REACTORS
330
C
102
}
330
C
100
AcDbDictionary
281
     1
  3
Standard
350
6C
  0
DICTIONARY
  5
17
102
{ACAD_REACTORS
330
C
102
}
330
C
100
AcDbDictionary
281
     1
  3
Standard
350
18
  0
DICTIONARY
  5
19
102
{ACAD_REACTORS
330
C
102
}
330
C
100
AcDbDictionary
281
     1
  0
ACDBDICTIONARYWDFLT
  5
E
102
{ACAD_REACTORS
330
C
102
}
330
C
100
AcDbDictionary
281
     1
  3
Normal
350
F
100
AcDbDictionaryWithDefault
340
F
  0
DICTIONARY
  5
47
102
{ACAD_REACTORS
330
C
102
}
330
C
100
AcDbDictionary
281
     1
  3
A0
350
48
  3
A1
350
49
  3
A2
350
4A
  3
A3
350
4B
  3
A4
350
4C
  3
A5
350
4D
  3
A6
350
4E
  3
A7
350
4F
  3
A8
350
50
  3
A9
350
51
  3
B0
350
52
  3
B1
350
53
  3
B2
350
54
  3
B3
350
55
  3
B4
350
56
  3
B5
350
57
  3
B6
350
58
  3
B7
350
59
  3
B8
350
5A
  3
B9
350
5B
  3
C0
350
5C
  3
C1
350
5D
  3
C2
350
5E
  3
C3
350
5F
  3
C4
350
60
  3
C5
350
61
  3
C6
350
62
  3
C7
350
63
  3
C8
350
64
  3
C9
350
65
  3
D0
350
66
  3
D1
350
67
  3
D2
350
68
  0
DICTIONARY
  5
41B
102
{ACAD_REACTORS
330
C
102
}
330
C
100
AcDbDictionary
281
     1
  0
DICTIONARY
  5
69
102
{ACAD_REACTORS
330
C
102
}
330
C
100
AcDbDictionary
281
     1
  3
Standard
350
6A
  0
DICTIONARY
  5
2A
102
{ACAD_REACTORS
330
C
102
}
330
C
100
AcDbDictionary
281
     1
  3
2dWireframe
350
2F
  3
Basic
350
32
  3
Brighten
350
36
  3
ColorChange
350
3A
  3
Conceptual
350
34
  3
Dim
350
35
  3
EdgeColorOff
350
3D
  3
Facepattern
350
39
  3
Flat
350
2B
  3
FlatWithEdges
350
2C
  3
Gouraud
350
2D
  3
GouraudWithEdges
350
2E
  3
Hidden
350
31
  3
JitterOff
350
3B
  3
Linepattern
350
38
  3
OverhangOff
350
3C
  3
Realistic
350
33
  3
Shaded
350
42
  3
Shaded with edges
350
41
  3
Shades of Gray
350
3E
  3
Sketchy
350
3F
  3
Thicken
350
37
  3
Wireframe
350
30
  3
X-Ray
350
40
  0
DICTIONARY
  5
3DF
102
{ACAD_REACTORS
330
C
102
}
330
C
100
AcDbDictionary
281
     1
  3
CANNOSCALE
350
3E0
  3
CMLEADERSTYLE
350
419
  3
CTABLESTYLE
350
418
  3
XCLIPFRAME
350
3E1
  0
XRECORD
  5
417
102
{ACAD_REACTORS
330
C
102
}
330
C
100
AcDbXrecord
280
     1
 90
        1
330
6A
  0
LAYOUT
  5
1E
102
{ACAD_REACTORS
330
1A
102
}
330
1A
100
AcDbPlotSettings
  1

  2
none_device
  4

  6

 40
0.0
 41
0.0
 42
0.0
 43
0.0
 44
0.0
 45
0.0
 46
0.0
 47
0.0
 48
0.0
 49
0.0
140
0.0
141
0.0
142
1.0
143
1.0
 70
   688
 72
     0
 73
     0
 74
     5
  7

 75
    16
 76
     0
 77
     2
 78
   300
147
1.0
148
0.0
149
0.0
100
AcDbLayout
  1
Layout1
 70
     1
 71
     1
 10
0.0
 20
0.0
 11
12.0
 21
9.0
 12
0.0
 22
0.0
 32
0.0
 14
1.000000000000000E+20
 24
1.000000000000000E+20
 34
1.000000000000000E+20
 15
-1.000000000000000E+20
 25
-1.000000000000000E+20
 35
-1.000000000000000E+20
146
0.0
 13
0.0
 23
0.0
 33
0.0
 16
1.0
 26
0.0
 36
0.0
 17
0.0
 27
1.0
 37
0.0
 76
     0
330
1B
  0
LAYOUT
  5
26
102
{ACAD_REACTORS
330
1A
102
}
330
1A
100
AcDbPlotSettings
  1

  2
none_device
  4

  6

 40
0.0
 41
0.0
 42
0.0
 43
0.0
 44
0.0
 45
0.0
 46
0.0
 47
0.0
 48
0.0
 49
0.0
140
0.0
141
0.0
142
1.0
143
1.0
 70
   688
 72
     0
 73
     0
 74
     5
  7

 75
    16
 76
     0
 77
     2
 78
   300
147
1.0
148
0.0
149
0.0
100
AcDbLayout
  1
Layout2
 70
     1
 71
     2
 10
0.0
 20
0.0
 11
0.0
 21
0.0
 12
0.0
 22
0.0
 32
0.0
 14
0.0
 24
0.0
 34
0.0
 15
0.0
 25
0.0
 35
0.0
146
0.0
 13
0.0
 23
0.0
 33
0.0
 16
1.0
 26
0.0
 36
0.0
 17
0.0
 27
1.0
 37
0.0
 76
     0
330
23
  0
LAYOUT
  5
22
102
{ACAD_REACTORS
330
1A
102
}
330
1A
100
AcDbPlotSettings
  1

  2
none_device
  4
Letter_(8.50_x_11.00_Inches)
  6

 40
6.35
 41
6.35
 42
6.35000508
 43
6.35000508
 44
215.9
 45
279.4
 46
0.0
 47
0.0
 48
0.0
 49
0.0
140
0.0
141
0.0
142
1.0
143
1.0
 70
  1712
 72
     0
 73
     0
 74
     0
  7

 75
     0
 76
     0
 77
     2
 78
   300
147
1.0
148
0.0
149
0.0
100
AcDbLayout
  1
Model
 70
     1
 71
     0
 10
0.0
 20
0.0
 11
12.0
 21
9.0
 12
0.0
 22
0.0
 32
0.0
 14
1.000000000000000E+20
 24
1.000000000000000E+20
 34
1.000000000000000E+20
 15
-1.000000000000000E+20
 25
-1.000000000000000E+20
 35
-1.000000000000000E+20
146
0.0
 13
0.0
 23
0.0
 33
0.0
 16
1.0
 26
0.0
 36
0.0
 17
0.0
 27
1.0
 37
0.0
 76
     0
330
1F
331
29
  0
MATERIAL
  5
45
102
{ACAD_REACTORS
330
43
102
}
330
43
100
AcDbMaterial
  1
ByBlock
 72
     1
 94
      127
  0
MATERIAL
  5
44
102
{ACAD_REACTORS
330
43
102
}
330
43
100
AcDbMaterial
  1
ByLayer
 72
     1
 94
      127
  0
MATERIAL
  5
46
102
{ACAD_REACTORS
330
43
102
}
330
43
100
AcDbMaterial
  1
Global
 72
     1
 94
      127
  0
MLEADERSTYLE
  5
6C
102
{ACAD_REACTORS
330
6B
102
}
102
{ACAD_XDICTIONARY
360
415
102
}
330
6B
100
AcDbMLeaderStyle
170
     2
171
     1
172
     0
 90
        2
 40
0.0
 41
0.0
173
     1
 91
-1056964608
340
14
 92
       -2
290
     1
 42
0.09
291
     1
 43
0.36
  3
Standard
341
0
 44
0.18
300

342
11
174
     1
178
     6
175
     1
176
     0
 93
-1056964608
 45
0.18
292
     0
297
     0
 46
0.18
343
0
 94
-1056964608
 47
1.0
 49
1.0
140
1.0
293
     1
141
0.0
294
     1
177
     0
142
1.0
295
     0
296
     0
143
0.125
1001
ACAD_MLEADERVER
1070
     2
  0
MLINESTYLE
  5
18
102
{ACAD_REACTORS
330
17
102
}
330
17
100
AcDbMlineStyle
  2
Standard
 70
     0
  3

 62
   256
 51
90.0
 52
90.0
 71
     2
 49
0.5
 62
   256
  6
BYLAYER
 49
-0.5
 62
   256
  6
BYLAYER
  0
ACDBPLACEHOLDER
  5
F
102
{ACAD_REACTORS
330
E
102
}
330
E
  0
SCALE
  5
48
102
{ACAD_REACTORS
330
47
102
}
330
47
100
AcDbScale
 70
     0
300
1:1
140
1.0
141
1.0
290
     1
  0
SCALE
  5
49
102
{ACAD_REACTORS
330
47
102
}
330
47
100
AcDbScale
 70
     0
300
1:2
140
1.0
141
2.0
290
     0
  0
SCALE
  5
4A
102
{ACAD_REACTORS
330
47
102
}
330
47
100
AcDbScale
 70
     0
300
1:4
140
1.0
141
4.0
290
     0
  0
SCALE
  5
4B
102
{ACAD_REACTORS
330
47
102
}
330
47
100
AcDbScale
 70
     0
300
1:5
140
1.0
141
5.0
290
     0
  0
SCALE
  5
4C
102
{ACAD_REACTORS
330
47
102
}
330
47
100
AcDbScale
 70
     0
300
1:8
140
1.0
141
8.0
290
     0
  0
SCALE
  5
4D
102
{ACAD_REACTORS
330
47
102
}
330
47
100
AcDbScale
 70
     0
300
1:10
140
1.0
141
10.0
290
     0
  0
SCALE
  5
4E
102
{ACAD_REACTORS
330
47
102
}
330
47
100
AcDbScale
 70
     0
300
1:16
140
1.0
141
16.0
290
     0
  0
SCALE
  5
4F
102
{ACAD_REACTORS
330
47
102
}
330
47
100
AcDbScale
 70
     0
300
1:20
140
1.0
141
20.0
290
     0
  0
SCALE
  5
50
102
{ACAD_REACTORS
330
47
102
}
330
47
100
AcDbScale
 70
     0
300
1:30
140
1.0
141
30.0
290
     0
  0
SCALE
  5
51
102
{ACAD_REACTORS
330
47
102
}
330
47
100
AcDbScale
 70
     0
300
1:40
140
1.0
141
40.0
290
     0
  0
SCALE
  5
52
102
{ACAD_REACTORS
330
47
102
}
330
47
100
AcDbScale
 70
     0
300
1:50
140
1.0
141
50.0
290
     0
  0
SCALE
  5
53
102
{ACAD_REACTORS
330
47
102
}
330
47
100
AcDbScale
 70
     0
300
1:100
140
1.0
141
100.0
290
     0
  0
SCALE
  5
54
102
{ACAD_REACTORS
330
47
102
}
330
47
100
AcDbScale
 70
     0
300
2:1
140
2.0
141
1.0
290
     0
  0
SCALE
  5
55
102
{ACAD_REACTORS
330
47
102
}
330
47
100
AcDbScale
 70
     0
300
4:1
140
4.0
141
1.0
290
     0
  0
SCALE
  5
56
102
{ACAD_REACTORS
330
47
102
}
330
47
100
AcDbScale
 70
     0
300
8:1
140
8.0
141
1.0
290
     0
  0
SCALE
  5
57
102
{ACAD_REACTORS
330
47
102
}
330
47
100
AcDbScale
 70
     0
300
10:1
140
10.0
141
1.0
290
     0
  0
SCALE
  5
58
102
{ACAD_REACTORS
330
47
102
}
330
47
100
AcDbScale
 70
     0
300
100:1
140
100.0
141
1.0
290
     0
  0
SCALE
  5
59
102
{ACAD_REACTORS
330
47
102
}
330
47
100
AcDbScale
 70
     0
300
1/128" = 1'-0"
140
0.0078125
141
12.0
290
     0
  0
SCALE
  5
5A
102
{ACAD_REACTORS
330
47
102
}
330
47
100
AcDbScale
 70
     0
300
1/64" = 1'-0"
140
0.015625
141
12.0
290
     0
  0
SCALE
  5
5B
102
{ACAD_REACTORS
330
47
102
}
330
47
100
AcDbScale
 70
     0
300
1/32" = 1'-0"
140
0.03125
141
12.0
290
     0
  0
SCALE
  5
5C
102
{ACAD_REACTORS
330
47
102
}
330
47
100
AcDbScale
 70
     0
300
1/16" = 1'-0"
140
0.0625
141
12.0
290
     0
  0
SCALE
  5
5D
102
{ACAD_REACTORS
330
47
102
}
330
47
100
AcDbScale
 70
     0
300
3/32" = 1'-0"
140
0.09375
141
12.0
290
     0
  0
SCALE
  5
5E
102
{ACAD_REACTORS
330
47
102
}
330
47
100
AcDbScale
 70
     0
300
1/8" = 1'-0"
140
0.125
141
12.0
290
     0
  0
SCALE
  5
5F
102
{ACAD_REACTORS
330
47
102
}
330
47
100
AcDbScale
 70
     0
300
3/16" = 1'-0"
140
0.1875
141
12.0
290
     0
  0
SCALE
  5
60
102
{ACAD_REACTORS
330
47
102
}
330
47
100
AcDbScale
 70
     0
300
1/4" = 1'-0"
140
0.25
141
12.0
290
     0
  0
SCALE
  5
61
102
{ACAD_REACTORS
330
47
102
}
330
47
100
AcDbScale
 70
     0
300
3/8" = 1'-0"
140
0.375
141
12.0
290
     0
  0
SCALE
  5
62
102
{ACAD_REACTORS
330
47
102
}
330
47
100
AcDbScale
 70
     0
300
1/2" = 1'-0"
140
0.5
141
12.0
290
     0
  0
SCALE
  5
63
102
{ACAD_REACTORS
330
47
102
}
330
47
100
AcDbScale
 70
     0
300
3/4" = 1'-0"
140
0.75
141
12.0
290
     0
  0
SCALE
  5
64
102
{ACAD_REACTORS
330
47
102
}
330
47
100
AcDbScale
 70
     0
300
1" = 1'-0"
140
1.0
141
12.0
290
     0
  0
SCALE
  5
65
102
{ACAD_REACTORS
330
47
102
}
330
47
100
AcDbScale
 70
     0
300
1-1/2" = 1'-0"
140
1.5
141
12.0
290
     0
  0
SCALE
  5
66
102
{ACAD_REACTORS
330
47
102
}
330
47
100
AcDbScale
 70
     0
300
3" = 1'-0"
140
3.0
141
12.0
290
     0
  0
SCALE
  5
67
102
{ACAD_REACTORS
330
47
102
}
330
47
100
AcDbScale
 70
     0
300
6" = 1'-0"
140
6.0
141
12.0
290
     0
  0
SCALE
  5
68
102
{ACAD_REACTORS
330
47
102
}
330
47
100
AcDbScale
 70
     0
300
1'-0" = 1'-0"
140
12.0
141
12.0
290
     0
  0
TABLESTYLE
  5
6A
102
{ACAD_REACTORS
330
69
102
}
102
{ACAD_XDICTIONARY
360
412
102
}
330
69
100
AcDbTableStyle
  3
Standard
 70
     0
 71
     0
 40
0.06
 41
0.06
280
     0
281
     0
  7
Standard
140
0.18
170
     2
 62
     0
 63
   257
283
     0
 90
        4
 91
        0
  1

274
    -2
284
     1
 64
     0
275
    -2
285
     1
 65
     0
276
    -2
286
     1
 66
     0
277
    -2
287
     1
 67
     0
278
    -2
288
     1
 68
     0
279
    -2
289
     1
 69
     0
  7
Standard
140
0.25
170
     5
 62
     0
 63
   257
283
     0
 90
        4
 91
        0
  1

274
    -2
284
     1
 64
     0
275
    -2
285
     1
 65
     0
276
    -2
286
     1
 66
     0
277
    -2
287
     1
 67
     0
278
    -2
288
     1
 68
     0
279
    -2
289
     1
 69
     0
  7
Standard
140
0.18
170
     5
 62
     0
 63
   257
283
     0
 90
        4
 91
        0
  1

274
    -2
284
     1
 64
     0
275
    -2
285
     1
 65
     0
276
    -2
286
     1
 66
     0
277
    -2
287
     1
 67
     0
278
    -2
288
     1
 68
     0
279
    -2
289
     1
 69
     0
  0
VISUALSTYLE
  5
2F
102
{ACAD_REACTORS
330
2A
102
}
102
{ACAD_XDICTIONARY
360
3EA
102
}
330
2A
100
AcDbVisualStyle
  2
2dWireframe
 70
     4
 71
     0
 72
     2
 73
     0
 90
        0
 40
0.6
 41
30.0
 62
     5
 63
     7
421
 16777215
 74
     1
 91
        4
 64
     7
 65
   257
 75
     1
175
     1
 42
1.0
 92
        0
 66
   257
 43
1.0
 76
     1
 77
     6
 78
     2
 67
     7
 79
     5
170
     0
171
     0
290
     0
174
     0
 93
        1
 44
0.0
173
     0
291
     0
 45
0.0
  0
VISUALSTYLE
  5
32
102
{ACAD_REACTORS
330
2A
102
}
102
{ACAD_XDICTIONARY
360
3F0
102
}
330
2A
100
AcDbVisualStyle
  2
Basic
 70
     7
 71
     1
 72
     0
 73
     1
 90
        0
 40
0.6
 41
30.0
 62
     5
 63
     7
421
 16777215
 74
     0
 91
        4
 64
     7
 65
   257
 75
     1
175
     1
 42
1.0
 92
        8
 66
     7
 43
1.0
 76
     1
 77
     6
 78
     2
 67
     7
 79
     5
170
     0
171
     0
290
     0
174
     0
 93
        1
 44
0.0
173
     0
291
     1
 45
0.0
  0
VISUALSTYLE
  5
36
102
{ACAD_REACTORS
330
2A
102
}
102
{ACAD_XDICTIONARY
360
3F8
102
}
330
2A
100
AcDbVisualStyle
  2
Brighten
 70
    12
 71
     2
 72
     2
 73
     0
 90
        0
 40
0.6
 41
30.0
 62
     5
 63
     7
421
 16777215
 74
     1
 91
        4
 64
     7
 65
   257
 75
     1
175
     1
 42
1.0
 92
        8
 66
     7
 43
1.0
 76
     1
 77
     6
 78
     2
 67
     7
 79
     5
170
     0
171
     0
290
     0
174
     0
 93
        1
 44
50.0
173
     0
291
     1
 45
0.0
  0
VISUALSTYLE
  5
3A
102
{ACAD_REACTORS
330
2A
102
}
102
{ACAD_XDICTIONARY
360
400
102
}
330
2A
100
AcDbVisualStyle
  2
ColorChange
 70
    16
 71
     2
 72
     2
 73
     3
 90
        0
 40
0.6
 41
30.0
 62
     5
 63
     8
421
  8421504
 74
     1
 91
        4
 64
     7
 65
   257
 75
     1
175
     1
 42
1.0
 92
        8
 66
     8
424
  8421504
 43
1.0
 76
     1
 77
     6
 78
     2
 67
     7
 79
     5
170
     0
171
     0
290
     0
174
     0
 93
        1
 44
0.0
173
     0
291
     1
 45
0.0
  0
VISUALSTYLE
  5
34
102
{ACAD_REACTORS
330
2A
102
}
102
{ACAD_XDICTIONARY
360
3F4
102
}
330
2A
100
AcDbVisualStyle
  2
Conceptual
 70
     9
 71
     3
 72
     2
 73
     0
 90
        0
 40
0.6
 41
30.0
 62
     5
 63
     7
421
 16777215
 74
     2
 91
        2
 64
     7
 65
   257
 75
     1
175
     1
 42
179.0
 92
        8
 66
     7
 43
1.0
 76
     1
 77
     6
 78
     2
 67
     7
 79
     3
170
     0
171
     0
290
     0
174
     0
 93
        1
 44
0.0
173
     0
291
     0
 45
0.0
  0
VISUALSTYLE
  5
35
102
{ACAD_REACTORS
330
2A
102
}
102
{ACAD_XDICTIONARY
360
3F6
102
}
330
2A
100
AcDbVisualStyle
  2
Dim
 70
    11
 71
     2
 72
     2
 73
     0
 90
        0
 40
0.6
 41
30.0
 62
     5
 63
     7
421
 16777215
 74
     1
 91
        4
 64
     7
 65
   257
 75
     1
175
     1
 42
1.0
 92
        8
 66
     7
 43
1.0
 76
     1
 77
     6
 78
     2
 67
     7
 79
     5
170
     0
171
     0
290
     0
174
     0
 93
        1
 44
-50.0
173
     0
291
     1
 45
0.0
  0
VISUALSTYLE
  5
3D
102
{ACAD_REACTORS
330
2A
102
}
102
{ACAD_XDICTIONARY
360
406
102
}
330
2A
100
AcDbVisualStyle
  2
EdgeColorOff
 70
    22
 71
     2
 72
     2
 73
     0
 90
        0
 40
0.6
 41
30.0
 62
     5
 63
     7
421
 16777215
 74
     1
 91
        4
 64
     7
 65
   257
 75
     1
175
     1
 42
1.0
 92
        8
 66
     7
 43
1.0
 76
     1
 77
     6
 78
     2
 67
     7
 79
     5
170
     0
171
     0
290
     0
174
     0
 93
        1
 44
0.0
173
     0
291
     1
 45
0.0
  0
VISUALSTYLE
  5
39
102
{ACAD_REACTORS
330
2A
102
}
102
{ACAD_XDICTIONARY
360
3FE
102
}
330
2A
100
AcDbVisualStyle
  2
Facepattern
 70
    15
 71
     2
 72
     2
 73
     0
 90
        0
 40
0.6
 41
30.0
 62
     5
 63
     7
421
 16777215
 74
     1
 91
        4
 64
     7
 65
   257
 75
     1
175
     1
 42
1.0
 92
        8
 66
     7
 43
1.0
 76
     1
 77
     6
 78
     2
 67
     7
 79
     5
170
     0
171
     0
290
     0
174
     0
 93
        1
 44
0.0
173
     0
291
     1
 45
0.0
  0
VISUALSTYLE
  5
2B
102
{ACAD_REACTORS
330
2A
102
}
102
{ACAD_XDICTIONARY
360
3E2
102
}
330
2A
100
AcDbVisualStyle
  2
Flat
 70
     0
 71
     2
 72
     1
 73
     1
 90
        2
 40
0.6
 41
30.0
 62
     5
 63
     7
421
 16777215
 74
     0
 91
        0
 64
     7
 65
   257
 75
     1
175
     1
 42
1.0
 92
        8
 66
     7
 43
1.0
 76
     1
 77
     6
 78
     2
 67
     7
 79
     5
170
     0
171
     0
290
     0
174
     0
 93
       13
 44
0.0
173
     0
291
     1
 45
0.0
  0
VISUALSTYLE
  5
2C
102
{ACAD_REACTORS
330
2A
102
}
102
{ACAD_XDICTIONARY
360
3E4
102
}
330
2A
100
AcDbVisualStyle
  2
FlatWithEdges
 70
     1
 71
     2
 72
     1
 73
     1
 90
        2
 40
0.6
 41
30.0
 62
     5
 63
     7
421
 16777215
 74
     1
 91
        0
 64
     7
 65
   257
 75
     1
175
     1
 42
1.0
 92
        0
 66
   257
 43
1.0
 76
     1
 77
     6
 78
     2
 67
     7
 79
     5
170
     0
171
     0
290
     0
174
     0
 93
       13
 44
0.0
173
     0
291
     1
 45
0.0
  0
VISUALSTYLE
  5
2D
102
{ACAD_REACTORS
330
2A
102
}
102
{ACAD_XDICTIONARY
360
3E6
102
}
330
2A
100
AcDbVisualStyle
  2
Gouraud
 70
     2
 71
     2
 72
     2
 73
     1
 90
        2
 40
0.6
 41
30.0
 62
     5
 63
     7
421
 16777215
 74
     0
 91
        0
 64
     7
 65
   257
 75
     1
175
     1
 42
1.0
 92
        0
 66
     7
 43
1.0
 76
     1
 77
     6
 78
     2
 67
     7
 79
     5
170
     0
171
     0
290
     0
174
     0
 93
       13
 44
0.0
173
     0
291
     1
 45
0.0
  0
VISUALSTYLE
  5
2E
102
{ACAD_REACTORS
330
2A
102
}
102
{ACAD_XDICTIONARY
360
3E8
102
}
330
2A
100
AcDbVisualStyle
  2
GouraudWithEdges
 70
     3
 71
     2
 72
     2
 73
     1
 90
        2
 40
0.6
 41
30.0
 62
     5
 63
     7
421
 16777215
 74
     1
 91
        0
 64
     7
 65
   257
 75
     1
175
     1
 42
1.0
 92
        0
 66
   257
 43
1.0
 76
     1
 77
     6
 78
     2
 67
     7
 79
     5
170
     0
171
     0
290
     0
174
     0
 93
       13
 44
0.0
173
     0
291
     1
 45
0.0
  0
VISUALSTYLE
  5
31
102
{ACAD_REACTORS
330
2A
102
}
102
{ACAD_XDICTIONARY
360
3EE
102
}
330
2A
100
AcDbVisualStyle
  2
Hidden
 70
     6
 71
     1
 72
     2
 73
     2
 90
        0
 40
0.6
 41
30.0
 62
     5
 63
     7
421
 16777215
 74
     2
 91
        2
 64
     7
 65
   257
 75
     2
175
     1
 42
40.0
 92
        0
 66
   257
 43
1.0
 76
     1
 77
     6
 78
     2
 67
     7
 79
     3
170
     0
171
     0
290
     0
174
     0
 93
        1
 44
0.0
173
     0
291
     0
 45
0.0
  0
VISUALSTYLE
  5
3B
102
{ACAD_REACTORS
330
2A
102
}
102
{ACAD_XDICTIONARY
360
402
102
}
330
2A
100
AcDbVisualStyle
  2
JitterOff
 70
    20
 71
     2
 72
     2
 73
     0
 90
        0
 40
0.6
 41
30.0
 62
     5
 63
     7
421
 16777215
 74
     1
 91
        4
 64
     7
 65
   257
 75
     1
175
     1
 42
1.0
 92
       10
 66
     7
 43
1.0
 76
     1
 77
     6
 78
     2
 67
     7
 79
     5
170
     0
171
     0
290
     0
174
     0
 93
        1
 44
0.0
173
     0
291
     1
 45
0.0
  0
VISUALSTYLE
  5
38
102
{ACAD_REACTORS
330
2A
102
}
102
{ACAD_XDICTIONARY
360
3FC
102
}
330
2A
100
AcDbVisualStyle
  2
Linepattern
 70
    14
 71
     2
 72
     2
 73
     0
 90
        0
 40
0.6
 41
30.0
 62
     5
 63
     7
421
 16777215
 74
     1
 91
        4
 64
     7
 65
   257
 75
     7
175
     7
 42
1.0
 92
        8
 66
     7
 43
1.0
 76
     1
 77
     6
 78
     2
 67
     7
 79
     5
170
     0
171
     0
290
     0
174
     0
 93
        1
 44
0.0
173
     0
291
     1
 45
0.0
  0
VISUALSTYLE
  5
3C
102
{ACAD_REACTORS
330
2A
102
}
102
{ACAD_XDICTIONARY
360
404
102
}
330
2A
100
AcDbVisualStyle
  2
OverhangOff
 70
    21
 71
     2
 72
     2
 73
     0
 90
        0
 40
0.6
 41
30.0
 62
     5
 63
     7
421
 16777215
 74
     1
 91
        4
 64
     7
 65
   257
 75
     1
175
     1
 42
1.0
 92
        9
 66
     7
 43
1.0
 76
     1
 77
     6
 78
     2
 67
     7
 79
     5
170
     0
171
     0
290
     0
174
     0
 93
        1
 44
0.0
173
     0
291
     1
 45
0.0
  0
VISUALSTYLE
  5
33
102
{ACAD_REACTORS
330
2A
102
}
102
{ACAD_XDICTIONARY
360
3F2
102
}
330
2A
100
AcDbVisualStyle
  2
Realistic
 70
     8
 71
     2
 72
     3
 73
     0
 90
        2
 40
0.6
 41
30.0
 62
     5
 63
     7
421
 16777215
 74
     0
 91
        0
 64
     7
 65
   257
 75
     1
175
     1
 42
1.0
 92
        8
 66
   257
 43
1.0
 76
     1
 77
     6
 78
     2
 67
     7
 79
     3
170
     0
171
     0
290
     0
174
     0
 93
       13
 44
0.0
173
     0
291
     0
 45
0.0
  0
VISUALSTYLE
  5
42
102
{ACAD_REACTORS
330
2A
102
}
102
{ACAD_XDICTIONARY
360
410
102
}
330
2A
100
AcDbVisualStyle
  2
Shaded
 70
    27
 71
     2
 72
     2
 73
     1
 90
        2
 40
0.6
 41
30.0
 62
     5
 63
     7
421
 16777215
 74
     0
 91
        4
 64
     7
 65
   257
 75
     1
175
     1
 42
1.0
 92
        8
 66
   257
 43
1.0
 76
     1
 77
     6
 78
     2
 67
     8
425
  7895160
 79
     3
170
     0
171
     0
290
     0
174
     0
 93
        5
 44
0.0
173
     0
291
     0
 45
0.0
  0
VISUALSTYLE
  5
41
102
{ACAD_REACTORS
330
2A
102
}
102
{ACAD_XDICTIONARY
360
40E
102
}
330
2A
100
AcDbVisualStyle
  2
Shaded with edges
 70
    26
 71
     2
 72
     2
 73
     1
 90
        2
 40
0.6
 41
30.0
 62
     5
 63
     7
421
 16777215
 74
     1
 91
       10
 64
     7
 65
   257
 75
     2
175
     1
 42
1.0
 92
        8
 66
   257
 43
1.0
 76
     1
 77
     6
 78
     2
 67
     7
 79
     3
170
     0
171
     0
290
     0
174
     0
 93
        5
 44
0.0
173
     0
291
     0
 45
0.0
  0
VISUALSTYLE
  5
3E
102
{ACAD_REACTORS
330
2A
102
}
102
{ACAD_XDICTIONARY
360
408
102
}
330
2A
100
AcDbVisualStyle
  2
Shades of Gray
 70
    23
 71
     2
 72
     2
 73
     3
 90
        0
 40
0.6
 41
30.0
 62
     5
 63
     7
421
 16777215
 74
     2
 91
        2
 64
     7
 65
     7
 75
     1
175
     1
 42
40.0
 92
        8
 66
     7
 43
1.0
 76
     1
 77
     6
 78
     2
 67
     7
 79
     3
170
     0
171
     0
290
     0
174
     0
 93
        1
 44
0.0
173
     0
291
     0
 45
0.0
  0
VISUALSTYLE
  5
3F
102
{ACAD_REACTORS
330
2A
102
}
102
{ACAD_XDICTIONARY
360
40A
102
}
330
2A
100
AcDbVisualStyle
  2
Sketchy
 70
    24
 71
     1
 72
     2
 73
     2
 90
        0
 40
0.6
 41
30.0
 62
     5
 63
     7
421
 16777215
 74
     2
 91
        2
 64
     7
 65
     7
 75
     1
175
     1
 42
40.0
 92
       11
 66
     7
 43
1.0
 76
     1
 77
     6
 78
     2
 67
     7
 79
     6
170
     0
171
     0
290
     0
174
     0
 93
        1
 44
0.0
173
     0
291
     0
 45
0.0
  0
VISUALSTYLE
  5
37
102
{ACAD_REACTORS
330
2A
102
}
102
{ACAD_XDICTIONARY
360
3FA
102
}
330
2A
100
AcDbVisualStyle
  2
Thicken
 70
    13
 71
     2
 72
     2
 73
     0
 90
        0
 40
0.6
 41
30.0
 62
     5
 63
     7
421
 16777215
 74
     1
 91
        4
 64
     7
 65
   257
 75
     1
175
     1
 42
1.0
 92
       12
 66
     7
 43
1.0
 76
     1
 77
     6
 78
     2
 67
     7
 79
     5
170
     0
171
     0
290
     0
174
     0
 93
        1
 44
0.0
173
     0
291
     1
 45
0.0
  0
VISUALSTYLE
  5
30
102
{ACAD_REACTORS
330
2A
102
}
102
{ACAD_XDICTIONARY
360
3EC
102
}
330
2A
100
AcDbVisualStyle
  2
Wireframe
 70
     5
 71
     0
 72
     2
 73
     0
 90
        0
 40
0.6
 41
30.0
 62
     5
 63
     7
421
 16777215
 74
     1
 91
        4
 64
     7
 65
   257
 75
     1
175
     1
 42
1.0
 92
        0
 66
   257
 43
1.0
 76
     1
 77
     6
 78
     2
 67
     7
 79
     3
170
     0
171
     0
290
     0
174
     0
 93
        1
 44
0.0
173
     0
291
     0
 45
0.0
  0
VISUALSTYLE
  5
40
102
{ACAD_REACTORS
330
2A
102
}
102
{ACAD_XDICTIONARY
360
40C
102
}
330
2A
100
AcDbVisualStyle
  2
X-Ray
 70
    25
 71
     2
 72
     2
 73
     1
 90
        1
 40
0.5
 41
30.0
 62
     5
 63
     7
421
 16777215
 74
     1
 91
        0
 64
     7
 65
   257
 75
     1
175
     1
 42
1.0
 92
        8
 66
     7
 43
1.0
 76
     1
 77
     6
 78
     2
 67
     7
 79
     3
170
     0
171
     0
290
     0
174
     0
 93
       13
 44
0.0
173
     0
291
     0
 45
0.0
  0
DICTIONARYVAR
  5
3E0
102
{ACAD_REACTORS
330
3DF
102
}
330
3DF
100
DictionaryVariables
280
     0
  1
1:1
  0
DICTIONARYVAR
  5
419
102
{ACAD_REACTORS
330
3DF
102
}
330
3DF
100
DictionaryVariables
280
     0
  1
Standard
  0
DICTIONARYVAR
  5
418
102
{ACAD_REACTORS
330
3DF
102
}
330
3DF
100
DictionaryVariables
280
     0
  1
Standard
  0
DICTIONARYVAR
  5
3E1
102
{ACAD_REACTORS
330
3DF
102
}
330
3DF
100
DictionaryVariables
280
     0
  1
2
  0
DICTIONARY
  5
415
330
6C
100
AcDbDictionary
280
     1
281
     1
  3
ACAD_XREC_ROUNDTRIP
360
416
  0
DICTIONARY
  5
412
330
6A
100
AcDbDictionary
280
     1
281
     1
  3
ACAD_ROUNDTRIP_2008_TABLESTYLE_CELLSTYLEMAP
360
413
  0
DICTIONARY
  5
3EA
330
2F
100
AcDbDictionary
280
     1
281
     1
  3
ACAD_XREC_ROUNDTRIP
360
3EB
  0
DICTIONARY
  5
3F0
330
32
100
AcDbDictionary
280
     1
281
     1
  3
ACAD_XREC_ROUNDTRIP
360
3F1
  0
DICTIONARY
  5
3F8
330
36
100
AcDbDictionary
280
     1
281
     1
  3
ACAD_XREC_ROUNDTRIP
360
3F9
  0
DICTIONARY
  5
400
330
3A
100
AcDbDictionary
280
     1
281
     1
  3
ACAD_XREC_ROUNDTRIP
360
401
  0
DICTIONARY
  5
3F4
330
34
100
AcDbDictionary
280
     1
281
     1
  3
ACAD_XREC_ROUNDTRIP
360
3F5
  0
DICTIONARY
  5
3F6
330
35
100
AcDbDictionary
280
     1
281
     1
  3
ACAD_XREC_ROUNDTRIP
360
3F7
  0
DICTIONARY
  5
406
330
3D
100
AcDbDictionary
280
     1
281
     1
  3
ACAD_XREC_ROUNDTRIP
360
407
  0
DICTIONARY
  5
3FE
330
39
100
AcDbDictionary
280
     1
281
     1
  3
ACAD_XREC_ROUNDTRIP
360
3FF
  0
DICTIONARY
  5
3E2
330
2B
100
AcDbDictionary
280
     1
281
     1
  3
ACAD_XREC_ROUNDTRIP
360
3E3
  0
DICTIONARY
  5
3E4
330
2C
100
AcDbDictionary
280
     1
281
     1
  3
ACAD_XREC_ROUNDTRIP
360
3E5
  0
DICTIONARY
  5
3E6
330
2D
100
AcDbDictionary
280
     1
281
     1
  3
ACAD_XREC_ROUNDTRIP
360
3E7
  0
DICTIONARY
  5
3E8
330
2E
100
AcDbDictionary
280
     1
281
     1
  3
ACAD_XREC_ROUNDTRIP
360
3E9
  0
DICTIONARY
  5
3EE
330
31
100
AcDbDictionary
280
     1
281
     1
  3
ACAD_XREC_ROUNDTRIP
360
3EF
  0
DICTIONARY
  5
402
330
3B
100
AcDbDictionary
280
     1
281
     1
  3
ACAD_XREC_ROUNDTRIP
360
403
  0
DICTIONARY
  5
3FC
330
38
100
AcDbDictionary
280
     1
281
     1
  3
ACAD_XREC_ROUNDTRIP
360
3FD
  0
DICTIONARY
  5
404
330
3C
100
AcDbDictionary
280
     1
281
     1
  3
ACAD_XREC_ROUNDTRIP
360
405
  0
DICTIONARY
  5
3F2
330
33
100
AcDbDictionary
280
     1
281
     1
  3
ACAD_XREC_ROUNDTRIP
360
3F3
  0
DICTIONARY
  5
410
330
42
100
AcDbDictionary
280
     1
281
     1
  3
ACAD_XREC_ROUNDTRIP
360
411
  0
DICTIONARY
  5
40E
330
41
100
AcDbDictionary
280
     1
281
     1
  3
ACAD_XREC_ROUNDTRIP
360
40F
  0
DICTIONARY
  5
408
330
3E
100
AcDbDictionary
280
     1
281
     1
  3
ACAD_XREC_ROUNDTRIP
360
409
  0
DICTIONARY
  5
40A
330
3F
100
AcDbDictionary
280
     1
281
     1
  3
ACAD_XREC_ROUNDTRIP
360
40B
  0
DICTIONARY
  5
3FA
330
37
100
AcDbDictionary
280
     1
281
     1
  3
ACAD_XREC_ROUNDTRIP
360
3FB
  0
DICTIONARY
  5
3EC
330
30
100
AcDbDictionary
280
     1
281
     1
  3
ACAD_XREC_ROUNDTRIP
360
3ED
  0
DICTIONARY
  5
40C
330
40
100
AcDbDictionary
280
     1
281
     1
  3
ACAD_XREC_ROUNDTRIP
360
40D
  0
XRECORD
  5
416
102
{ACAD_REACTORS
330
415
102
}
330
415
100
AcDbXrecord
280
     1
102
ACAD_ROUNDTRIP_2010_MLEADER_STYLE
  0
CELLSTYLEMAP
  5
413
102
{ACAD_REACTORS
330
412
102
}
330
412
100
AcDbCellStyleMap
 90
        3
300
CELLSTYLE
  1
TABLEFORMAT_BEGIN
 90
        5
170
     1
 91
        0
 92
    32768
 62
   257
 93
        1
300
CONTENTFORMAT
  1
CONTENTFORMAT_BEGIN
 90
        0
 91
        0
 92
        4
 93
        0
300

 40
0.0
140
1.0
 94
        5
 62
     0
340
11
144
0.25
309
CONTENTFORMAT_END
171
     1
301
MARGIN
  1
CELLMARGIN_BEGIN
 40
0.06
 40
0.06
 40
0.06
 40
0.06
 40
0.06
 40
0.06
309
CELLMARGIN_END
 94
        6
 95
        1
302
GRIDFORMAT
  1
GRIDFORMAT_BEGIN
 90
        0
 91
        1
 62
     0
 92
       -2
340
14
 93
        0
 40
0.045
309
GRIDFORMAT_END
 95
        2
302
GRIDFORMAT
  1
GRIDFORMAT_BEGIN
 90
        0
 91
        1
 62
     0
 92
       -2
340
14
 93
        0
 40
0.045
309
GRIDFORMAT_END
 95
        4
302
GRIDFORMAT
  1
GRIDFORMAT_BEGIN
 90
        0
 91
        1
 62
     0
 92
       -2
340
14
 93
        0
 40
0.045
309
GRIDFORMAT_END
 95
        8
302
GRIDFORMAT
  1
GRIDFORMAT_BEGIN
 90
        0
 91
        1
 62
     0
 92
       -2
340
14
 93
        0
 40
0.045
309
GRIDFORMAT_END
 95
       16
302
GRIDFORMAT
  1
GRIDFORMAT_BEGIN
 90
        0
 91
        1
 62
     0
 92
       -2
340
14
 93
        0
 40
0.045
309
GRIDFORMAT_END
 95
       32
302
GRIDFORMAT
  1
GRIDFORMAT_BEGIN
 90
        0
 91
        1
 62
     0
 92
       -2
340
14
 93
        0
 40
0.045
309
GRIDFORMAT_END
309
TABLEFORMAT_END
  1
CELLSTYLE_BEGIN
 90
        1
 91
        1
300
_TITLE
309
CELLSTYLE_END
300
CELLSTYLE
  1
TABLEFORMAT_BEGIN
 90
        5
170
     1
 91
        0
 92
        0
 62
   257
 93
        1
300
CONTENTFORMAT
  1
CONTENTFORMAT_BEGIN
 90
        0
 91
        0
 92
        4
 93
        0
300

 40
0.0
140
1.0
 94
        5
 62
     0
340
11
144
0.18
309
CONTENTFORMAT_END
171
     1
301
MARGIN
  1
CELLMARGIN_BEGIN
 40
0.06
 40
0.06
 40
0.06
 40
0.06
 40
0.06
 40
0.06
309
CELLMARGIN_END
 94
        6
 95
        1
302
GRIDFORMAT
  1
GRIDFORMAT_BEGIN
 90
        0
 91
        1
 62
     0
 92
       -2
340
14
 93
        0
 40
0.045
309
GRIDFORMAT_END
 95
        2
302
GRIDFORMAT
  1
GRIDFORMAT_BEGIN
 90
        0
 91
        1
 62
     0
 92
       -2
340
14
 93
        0
 40
0.045
309
GRIDFORMAT_END
 95
        4
302
GRIDFORMAT
  1
GRIDFORMAT_BEGIN
 90
        0
 91
        1
 62
     0
 92
       -2
340
14
 93
        0
 40
0.045
309
GRIDFORMAT_END
 95
        8
302
GRIDFORMAT
  1
GRIDFORMAT_BEGIN
 90
        0
 91
        1
 62
     0
 92
       -2
340
14
 93
        0
 40
0.045
309
GRIDFORMAT_END
 95
       16
302
GRIDFORMAT
  1
GRIDFORMAT_BEGIN
 90
        0
 91
        1
 62
     0
 92
       -2
340
14
 93
        0
 40
0.045
309
GRIDFORMAT_END
 95
       32
302
GRIDFORMAT
  1
GRIDFORMAT_BEGIN
 90
        0
 91
        1
 62
     0
 92
       -2
340
14
 93
        0
 40
0.045
309
GRIDFORMAT_END
309
TABLEFORMAT_END
  1
CELLSTYLE_BEGIN
 90
        2
 91
        1
300
_HEADER
309
CELLSTYLE_END
300
CELLSTYLE
  1
TABLEFORMAT_BEGIN
 90
        5
170
     1
 91
        0
 92
        0
 62
   257
 93
        1
300
CONTENTFORMAT
  1
CONTENTFORMAT_BEGIN
 90
        0
 91
        0
 92
        4
 93
        0
300

 40
0.0
140
1.0
 94
        2
 62
     0
340
11
144
0.18
309
CONTENTFORMAT_END
171
     1
301
MARGIN
  1
CELLMARGIN_BEGIN
 40
0.06
 40
0.06
 40
0.06
 40
0.06
 40
0.06
 40
0.06
309
CELLMARGIN_END
 94
        6
 95
        1
302
GRIDFORMAT
  1
GRIDFORMAT_BEGIN
 90
        0
 91
        1
 62
     0
 92
       -2
340
14
 93
        0
 40
0.045
309
GRIDFORMAT_END
 95
        2
302
GRIDFORMAT
  1
GRIDFORMAT_BEGIN
 90
        0
 91
        1
 62
     0
 92
       -2
340
14
 93
        0
 40
0.045
309
GRIDFORMAT_END
 95
        4
302
GRIDFORMAT
  1
GRIDFORMAT_BEGIN
 90
        0
 91
        1
 62
     0
 92
       -2
340
14
 93
        0
 40
0.045
309
GRIDFORMAT_END
 95
        8
302
GRIDFORMAT
  1
GRIDFORMAT_BEGIN
 90
        0
 91
        1
 62
     0
 92
       -2
340
14
 93
        0
 40
0.045
309
GRIDFORMAT_END
 95
       16
302
GRIDFORMAT
  1
GRIDFORMAT_BEGIN
 90
        0
 91
        1
 62
     0
 92
       -2
340
14
 93
        0
 40
0.045
309
GRIDFORMAT_END
 95
       32
302
GRIDFORMAT
  1
GRIDFORMAT_BEGIN
 90
        0
 91
        1
 62
     0
 92
       -2
340
14
 93
        0
 40
0.045
309
GRIDFORMAT_END
309
TABLEFORMAT_END
  1
CELLSTYLE_BEGIN
 90
        3
 91
        2
300
_DATA
309
CELLSTYLE_END
  0
XRECORD
  5
3EB
102
{ACAD_REACTORS
330
3EA
102
}
330
3EA
100
AcDbXrecord
280
     1
102
RTVSPropertyOp0
 70
     1
102
RTVSPropertyOp1
 70
     1
102
RTVSPropertyOp2
 70
     1
102
RTVSPropertyOp3
 70
     1
102
RTVSPropertyOp4
 70
     1
102
RTVSPropertyOp5
 70
     1
102
RTVSPropertyOp6
 70
     1
102
RTVSPropertyOp7
 70
     1
102
RTVSPropertyOp8
 70
     1
102
RTVSPropertyOp9
 70
     1
102
RTVSPropertyOp10
 70
     1
102
RTVSPropertyOp11
 70
     1
102
RTVSPropertyOp12
 70
     1
102
RTVSPropertyOp13
 70
     1
102
RTVSPropertyOp14
 70
     1
102
RTVSPropertyOp15
 70
     1
102
RTVSPropertyOp16
 70
     1
102
RTVSPropertyOp17
 70
     1
102
RTVSPropertyOp18
 70
     1
102
RTVSPropertyOp19
 70
     1
102
RTVSPropertyOp20
 70
     1
102
RTVSPropertyOp21
 70
     1
102
RTVSPropertyOp22
 70
     1
102
RTVSPropertyOp23
 70
     1
102
RTVSPropertyOp24
 70
     1
102
RTVSPropertyOp25
 70
     1
102
RTVSPropertyOp26
 70
     1
102
RTVSPropertyOp27
 70
     1
102
RTVSPropertyOp28
 70
     1
102
RTVSPropertyOp29
 70
     1
102
RTVSPropertyOp30
 70
     1
102
RTVSPropertyOp31
 70
     1
102
RTVSPropertyOp32
 70
     1
102
RTVSPropertyOp33
 70
     1
102
RTVSPropertyOp34
 70
     1
102
RTVSPropertyOp35
 70
     1
102
RTVSPropertyOp36
 70
     1
102
RTVSPropertyOp37
 70
     1
102
RTVSPropertyOp38
 70
     1
102
RTVSPropertyOp39
 70
     1
102
RTVSPropertyOp40
 70
     1
102
RTVSPropertyOp41
 70
     1
102
RTVSPropertyOp42
 70
     1
102
RTVSPropertyOp43
 70
     1
102
RTVSPropertyOp44
 70
     1
102
RTVSPropertyOp45
 70
     1
102
RTVSPropertyOp46
 70
     1
102
RTVSPropertyOp47
 70
     1
102
RTVSPropertyOp48
 70
     1
102
RTVSPropertyOp49
 70
     1
102
RTVSPropertyOp50
 70
     1
102
RTVSPropertyOp51
 70
     0
102
RTVSPropertyOp52
 70
     0
102
RTVSPropertyOp53
 70
     1
102
RTVSPropertyOp54
 70
     1
102
RTVSPropertyOp55
 70
     1
102
RTVSPropertyOp56
 70
     1
102
RTVSPropertyOp57
 70
     1
102
RTVSPost2010Prop28
280
     1
102
RTVSPost2010PropOp28
 70
     1
102
RTVSPost2010Prop29
280
     1
102
RTVSPost2010PropOp29
 70
     1
102
RTVSPost2010Prop30
280
     0
102
RTVSPost2010PropOp30
 70
     1
102
RTVSPost2010Prop31
280
     0
102
RTVSPost2010PropOp31
 70
     1
102
RTVSPost2010Prop32
280
     0
102
RTVSPost2010PropOp32
 70
     1
102
RTVSPost2010Prop33
280
     0
102
RTVSPost2010PropOp33
 70
     1
102
RTVSPost2010Prop34
280
     0
102
RTVSPost2010PropOp34
 70
     1
102
RTVSPost2010Prop35
280
     0
102
RTVSPost2010PropOp35
 70
     1
102
RTVSPost2010Prop36
280
     0
102
RTVSPost2010PropOp36
 70
     1
102
RTVSPost2010Prop37
 90
       50
102
RTVSPost2010PropOp37
 70
     1
102
RTVSPost2010Prop38
140
0.0
102
RTVSPost2010PropOp38
 70
     1
102
RTVSPost2010Prop39
140
1.0
102
RTVSPost2010PropOp39
 70
     1
102
RTVSPost2010Prop40
 90
        0
102
RTVSPost2010PropOp40
 70
     1
102
RTVSPost2010Prop41ColorIndex
 90
      178
102
RTVSPost2010Prop41ColorRGB
 90
        0
102
RTVSPost2010PropOp41
 70
     1
102
RTVSPost2010Prop42
 90
       50
102
RTVSPost2010PropOp42
 70
     1
102
RTVSPost2010Prop43
 90
        3
102
RTVSPost2010PropOp43
 70
     1
102
RTVSPost2010Prop44ColorIndex
 90
        5
102
RTVSPost2010Prop44ColorRGB
 90
      255
102
RTVSPost2010PropOp44
 70
     1
102
RTVSPost2010Prop45
280
     0
102
RTVSPost2010PropOp45
 70
     1
102
RTVSPost2010Prop46
 90
       50
102
RTVSPost2010PropOp46
 70
     1
102
RTVSPost2010Prop47
 90
       50
102
RTVSPost2010PropOp47
 70
     1
102
RTVSPost2010Prop48
 90
       50
102
RTVSPost2010PropOp48
 70
     1
102
RTVSPost2010Prop49
280
     0
102
RTVSPost2010PropOp49
 70
     1
102
RTVSPost2010Prop50
 90
       50
102
RTVSPost2010PropOp50
 70
     1
102
RTVSPost2010Prop51ColorIndex
 90
      256
102
RTVSPost2010Prop51ColorRGB
 90
-16777216
102
RTVSPost2010PropOp51
 70
     0
102
RTVSPost2010Prop52
140
1.0
102
RTVSPost2010PropOp52
 70
     0
102
RTVSPost2010Prop53
 90
        2
102
RTVSPost2010PropOp53
 70
     1
102
RTVSPost2010Prop54
  1
strokes_ogs.tif
102
RTVSPost2010PropOp54
 70
     1
102
RTVSPost2010Prop55
280
     0
102
RTVSPost2010PropOp55
 70
     1
102
RTVSPost2010Prop56
140
1.0
102
RTVSPost2010PropOp56
 70
     1
102
RTVSPost2010Prop57
140
1.0
102
RTVSPost2010PropOp57
 70
     1
  0
XRECORD
  5
3F1
102
{ACAD_REACTORS
330
3F0
102
}
330
3F0
100
AcDbXrecord
280
     1
102
RTVSPropertyOp0
 70
     1
102
RTVSPropertyOp1
 70
     1
102
RTVSPropertyOp2
 70
     1
102
RTVSPropertyOp3
 70
     1
102
RTVSPropertyOp4
 70
     1
102
RTVSPropertyOp5
 70
     1
102
RTVSPropertyOp6
 70
     1
102
RTVSPropertyOp7
 70
     1
102
RTVSPropertyOp8
 70
     1
102
RTVSPropertyOp9
 70
     1
102
RTVSPropertyOp10
 70
     1
102
RTVSPropertyOp11
 70
     1
102
RTVSPropertyOp12
 70
     1
102
RTVSPropertyOp13
 70
     1
102
RTVSPropertyOp14
 70
     1
102
RTVSPropertyOp15
 70
     1
102
RTVSPropertyOp16
 70
     1
102
RTVSPropertyOp17
 70
     1
102
RTVSPropertyOp18
 70
     1
102
RTVSPropertyOp19
 70
     1
102
RTVSPropertyOp20
 70
     1
102
RTVSPropertyOp21
 70
     1
102
RTVSPropertyOp22
 70
     1
102
RTVSPropertyOp23
 70
     1
102
RTVSPropertyOp24
 70
     1
102
RTVSPropertyOp25
 70
     1
102
RTVSPropertyOp26
 70
     1
102
RTVSPropertyOp27
 70
     1
102
RTVSPropertyOp28
 70
     1
102
RTVSPropertyOp29
 70
     1
102
RTVSPropertyOp30
 70
     1
102
RTVSPropertyOp31
 70
     1
102
RTVSPropertyOp32
 70
     1
102
RTVSPropertyOp33
 70
     1
102
RTVSPropertyOp34
 70
     1
102
RTVSPropertyOp35
 70
     1
102
RTVSPropertyOp36
 70
     1
102
RTVSPropertyOp37
 70
     1
102
RTVSPropertyOp38
 70
     1
102
RTVSPropertyOp39
 70
     1
102
RTVSPropertyOp40
 70
     1
102
RTVSPropertyOp41
 70
     1
102
RTVSPropertyOp42
 70
     1
102
RTVSPropertyOp43
 70
     1
102
RTVSPropertyOp44
 70
     1
102
RTVSPropertyOp45
 70
     1
102
RTVSPropertyOp46
 70
     1
102
RTVSPropertyOp47
 70
     1
102
RTVSPropertyOp48
 70
     1
102
RTVSPropertyOp49
 70
     1
102
RTVSPropertyOp50
 70
     1
102
RTVSPropertyOp51
 70
     0
102
RTVSPropertyOp52
 70
     0
102
RTVSPropertyOp53
 70
     1
102
RTVSPropertyOp54
 70
     1
102
RTVSPropertyOp55
 70
     1
102
RTVSPropertyOp56
 70
     1
102
RTVSPropertyOp57
 70
     1
102
RTVSPost2010Prop28
280
     0
102
RTVSPost2010PropOp28
 70
     1
102
RTVSPost2010Prop29
280
     1
102
RTVSPost2010PropOp29
 70
     1
102
RTVSPost2010Prop30
280
     1
102
RTVSPost2010PropOp30
 70
     1
102
RTVSPost2010Prop31
280
     0
102
RTVSPost2010PropOp31
 70
     1
102
RTVSPost2010Prop32
280
     0
102
RTVSPost2010PropOp32
 70
     1
102
RTVSPost2010Prop33
280
     0
102
RTVSPost2010PropOp33
 70
     1
102
RTVSPost2010Prop34
280
     0
102
RTVSPost2010PropOp34
 70
     1
102
RTVSPost2010Prop35
280
     0
102
RTVSPost2010PropOp35
 70
     1
102
RTVSPost2010Prop36
280
     0
102
RTVSPost2010PropOp36
 70
     1
102
RTVSPost2010Prop37
 90
       50
102
RTVSPost2010PropOp37
 70
     1
102
RTVSPost2010Prop38
140
0.0
102
RTVSPost2010PropOp38
 70
     1
102
RTVSPost2010Prop39
140
1.0
102
RTVSPost2010PropOp39
 70
     1
102
RTVSPost2010Prop40
 90
        0
102
RTVSPost2010PropOp40
 70
     1
102
RTVSPost2010Prop41ColorIndex
 90
      178
102
RTVSPost2010Prop41ColorRGB
 90
        0
102
RTVSPost2010PropOp41
 70
     1
102
RTVSPost2010Prop42
 90
       50
102
RTVSPost2010PropOp42
 70
     1
102
RTVSPost2010Prop43
 90
        3
102
RTVSPost2010PropOp43
 70
     1
102
RTVSPost2010Prop44ColorIndex
 90
        5
102
RTVSPost2010Prop44ColorRGB
 90
      255
102
RTVSPost2010PropOp44
 70
     1
102
RTVSPost2010Prop45
280
     0
102
RTVSPost2010PropOp45
 70
     1
102
RTVSPost2010Prop46
 90
       50
102
RTVSPost2010PropOp46
 70
     1
102
RTVSPost2010Prop47
 90
       50
102
RTVSPost2010PropOp47
 70
     1
102
RTVSPost2010Prop48
 90
       50
102
RTVSPost2010PropOp48
 70
     1
102
RTVSPost2010Prop49
280
     0
102
RTVSPost2010PropOp49
 70
     1
102
RTVSPost2010Prop50
 90
       50
102
RTVSPost2010PropOp50
 70
     1
102
RTVSPost2010Prop51ColorIndex
 90
      256
102
RTVSPost2010Prop51ColorRGB
 90
-16777216
102
RTVSPost2010PropOp51
 70
     0
102
RTVSPost2010Prop52
140
1.0
102
RTVSPost2010PropOp52
 70
     0
102
RTVSPost2010Prop53
 90
        2
102
RTVSPost2010PropOp53
 70
     1
102
RTVSPost2010Prop54
  1
strokes_ogs.tif
102
RTVSPost2010PropOp54
 70
     1
102
RTVSPost2010Prop55
280
     0
102
RTVSPost2010PropOp55
 70
     1
102
RTVSPost2010Prop56
140
1.0
102
RTVSPost2010PropOp56
 70
     1
102
RTVSPost2010Prop57
140
1.0
102
RTVSPost2010PropOp57
 70
     1
  0
XRECORD
  5
3F9
102
{ACAD_REACTORS
330
3F8
102
}
330
3F8
100
AcDbXrecord
280
     1
102
RTVSPropertyOp0
 70
     1
102
RTVSPropertyOp1
 70
     1
102
RTVSPropertyOp2
 70
     1
102
RTVSPropertyOp3
 70
     1
102
RTVSPropertyOp4
 70
     1
102
RTVSPropertyOp5
 70
     1
102
RTVSPropertyOp6
 70
     1
102
RTVSPropertyOp7
 70
     1
102
RTVSPropertyOp8
 70
     1
102
RTVSPropertyOp9
 70
     1
102
RTVSPropertyOp10
 70
     1
102
RTVSPropertyOp11
 70
     1
102
RTVSPropertyOp12
 70
     1
102
RTVSPropertyOp13
 70
     1
102
RTVSPropertyOp14
 70
     1
102
RTVSPropertyOp15
 70
     1
102
RTVSPropertyOp16
 70
     1
102
RTVSPropertyOp17
 70
     1
102
RTVSPropertyOp18
 70
     1
102
RTVSPropertyOp19
 70
     1
102
RTVSPropertyOp20
 70
     1
102
RTVSPropertyOp21
 70
     1
102
RTVSPropertyOp22
 70
     1
102
RTVSPropertyOp23
 70
     1
102
RTVSPropertyOp24
 70
     1
102
RTVSPropertyOp25
 70
     1
102
RTVSPropertyOp26
 70
     1
102
RTVSPropertyOp27
 70
     1
102
RTVSPropertyOp28
 70
     1
102
RTVSPropertyOp29
 70
     1
102
RTVSPropertyOp30
 70
     1
102
RTVSPropertyOp31
 70
     1
102
RTVSPropertyOp32
 70
     1
102
RTVSPropertyOp33
 70
     1
102
RTVSPropertyOp34
 70
     1
102
RTVSPropertyOp35
 70
     1
102
RTVSPropertyOp36
 70
     1
102
RTVSPropertyOp37
 70
     1
102
RTVSPropertyOp38
 70
     1
102
RTVSPropertyOp39
 70
     1
102
RTVSPropertyOp40
 70
     1
102
RTVSPropertyOp41
 70
     1
102
RTVSPropertyOp42
 70
     1
102
RTVSPropertyOp43
 70
     1
102
RTVSPropertyOp44
 70
     1
102
RTVSPropertyOp45
 70
     1
102
RTVSPropertyOp46
 70
     1
102
RTVSPropertyOp47
 70
     1
102
RTVSPropertyOp48
 70
     1
102
RTVSPropertyOp49
 70
     1
102
RTVSPropertyOp50
 70
     1
102
RTVSPropertyOp51
 70
     0
102
RTVSPropertyOp52
 70
     0
102
RTVSPropertyOp53
 70
     1
102
RTVSPropertyOp54
 70
     1
102
RTVSPropertyOp55
 70
     1
102
RTVSPropertyOp56
 70
     1
102
RTVSPropertyOp57
 70
     1
102
RTVSPost2010Prop28
280
     0
102
RTVSPost2010PropOp28
 70
     1
102
RTVSPost2010Prop29
280
     1
102
RTVSPost2010PropOp29
 70
     1
102
RTVSPost2010Prop30
280
     1
102
RTVSPost2010PropOp30
 70
     1
102
RTVSPost2010Prop31
280
     0
102
RTVSPost2010PropOp31
 70
     1
102
RTVSPost2010Prop32
280
     0
102
RTVSPost2010PropOp32
 70
     1
102
RTVSPost2010Prop33
280
     0
102
RTVSPost2010PropOp33
 70
     1
102
RTVSPost2010Prop34
280
     0
102
RTVSPost2010PropOp34
 70
     1
102
RTVSPost2010Prop35
280
     0
102
RTVSPost2010PropOp35
 70
     1
102
RTVSPost2010Prop36
280
     0
102
RTVSPost2010PropOp36
 70
     1
102
RTVSPost2010Prop37
 90
       50
102
RTVSPost2010PropOp37
 70
     1
102
RTVSPost2010Prop38
140
0.0
102
RTVSPost2010PropOp38
 70
     1
102
RTVSPost2010Prop39
140
1.0
102
RTVSPost2010PropOp39
 70
     1
102
RTVSPost2010Prop40
 90
        0
102
RTVSPost2010PropOp40
 70
     1
102
RTVSPost2010Prop41ColorIndex
 90
      178
102
RTVSPost2010Prop41ColorRGB
 90
        0
102
RTVSPost2010PropOp41
 70
     1
102
RTVSPost2010Prop42
 90
       50
102
RTVSPost2010PropOp42
 70
     1
102
RTVSPost2010Prop43
 90
        3
102
RTVSPost2010PropOp43
 70
     1
102
RTVSPost2010Prop44ColorIndex
 90
        5
102
RTVSPost2010Prop44ColorRGB
 90
      255
102
RTVSPost2010PropOp44
 70
     1
102
RTVSPost2010Prop45
280
     0
102
RTVSPost2010PropOp45
 70
     1
102
RTVSPost2010Prop46
 90
       50
102
RTVSPost2010PropOp46
 70
     1
102
RTVSPost2010Prop47
 90
       50
102
RTVSPost2010PropOp47
 70
     1
102
RTVSPost2010Prop48
 90
       50
102
RTVSPost2010PropOp48
 70
     1
102
RTVSPost2010Prop49
280
     0
102
RTVSPost2010PropOp49
 70
     1
102
RTVSPost2010Prop50
 90
       50
102
RTVSPost2010PropOp50
 70
     1
102
RTVSPost2010Prop51ColorIndex
 90
      256
102
RTVSPost2010Prop51ColorRGB
 90
-16777216
102
RTVSPost2010PropOp51
 70
     0
102
RTVSPost2010Prop52
140
1.0
102
RTVSPost2010PropOp52
 70
     0
102
RTVSPost2010Prop53
 90
        2
102
RTVSPost2010PropOp53
 70
     1
102
RTVSPost2010Prop54
  1
strokes_ogs.tif
102
RTVSPost2010PropOp54
 70
     1
102
RTVSPost2010Prop55
280
     0
102
RTVSPost2010PropOp55
 70
     1
102
RTVSPost2010Prop56
140
1.0
102
RTVSPost2010PropOp56
 70
     1
102
RTVSPost2010Prop57
140
1.0
102
RTVSPost2010PropOp57
 70
     1
  0
XRECORD
  5
401
102
{ACAD_REACTORS
330
400
102
}
330
400
100
AcDbXrecord
280
     1
102
RTVSPropertyOp0
 70
     1
102
RTVSPropertyOp1
 70
     1
102
RTVSPropertyOp2
 70
     1
102
RTVSPropertyOp3
 70
     1
102
RTVSPropertyOp4
 70
     1
102
RTVSPropertyOp5
 70
     1
102
RTVSPropertyOp6
 70
     1
102
RTVSPropertyOp7
 70
     1
102
RTVSPropertyOp8
 70
     1
102
RTVSPropertyOp9
 70
     1
102
RTVSPropertyOp10
 70
     1
102
RTVSPropertyOp11
 70
     1
102
RTVSPropertyOp12
 70
     1
102
RTVSPropertyOp13
 70
     1
102
RTVSPropertyOp14
 70
     1
102
RTVSPropertyOp15
 70
     1
102
RTVSPropertyOp16
 70
     1
102
RTVSPropertyOp17
 70
     1
102
RTVSPropertyOp18
 70
     1
102
RTVSPropertyOp19
 70
     1
102
RTVSPropertyOp20
 70
     1
102
RTVSPropertyOp21
 70
     1
102
RTVSPropertyOp22
 70
     1
102
RTVSPropertyOp23
 70
     1
102
RTVSPropertyOp24
 70
     1
102
RTVSPropertyOp25
 70
     1
102
RTVSPropertyOp26
 70
     1
102
RTVSPropertyOp27
 70
     1
102
RTVSPropertyOp28
 70
     1
102
RTVSPropertyOp29
 70
     1
102
RTVSPropertyOp30
 70
     1
102
RTVSPropertyOp31
 70
     1
102
RTVSPropertyOp32
 70
     1
102
RTVSPropertyOp33
 70
     1
102
RTVSPropertyOp34
 70
     1
102
RTVSPropertyOp35
 70
     1
102
RTVSPropertyOp36
 70
     1
102
RTVSPropertyOp37
 70
     1
102
RTVSPropertyOp38
 70
     1
102
RTVSPropertyOp39
 70
     1
102
RTVSPropertyOp40
 70
     1
102
RTVSPropertyOp41
 70
     1
102
RTVSPropertyOp42
 70
     1
102
RTVSPropertyOp43
 70
     1
102
RTVSPropertyOp44
 70
     1
102
RTVSPropertyOp45
 70
     1
102
RTVSPropertyOp46
 70
     1
102
RTVSPropertyOp47
 70
     1
102
RTVSPropertyOp48
 70
     1
102
RTVSPropertyOp49
 70
     1
102
RTVSPropertyOp50
 70
     1
102
RTVSPropertyOp51
 70
     0
102
RTVSPropertyOp52
 70
     0
102
RTVSPropertyOp53
 70
     1
102
RTVSPropertyOp54
 70
     1
102
RTVSPropertyOp55
 70
     1
102
RTVSPropertyOp56
 70
     1
102
RTVSPropertyOp57
 70
     1
102
RTVSPost2010Prop28
280
     0
102
RTVSPost2010PropOp28
 70
     1
102
RTVSPost2010Prop29
280
     1
102
RTVSPost2010PropOp29
 70
     1
102
RTVSPost2010Prop30
280
     1
102
RTVSPost2010PropOp30
 70
     1
102
RTVSPost2010Prop31
280
     0
102
RTVSPost2010PropOp31
 70
     1
102
RTVSPost2010Prop32
280
     0
102
RTVSPost2010PropOp32
 70
     1
102
RTVSPost2010Prop33
280
     0
102
RTVSPost2010PropOp33
 70
     1
102
RTVSPost2010Prop34
280
     0
102
RTVSPost2010PropOp34
 70
     1
102
RTVSPost2010Prop35
280
     0
102
RTVSPost2010PropOp35
 70
     1
102
RTVSPost2010Prop36
280
     0
102
RTVSPost2010PropOp36
 70
     1
102
RTVSPost2010Prop37
 90
       50
102
RTVSPost2010PropOp37
 70
     1
102
RTVSPost2010Prop38
140
0.0
102
RTVSPost2010PropOp38
 70
     1
102
RTVSPost2010Prop39
140
1.0
102
RTVSPost2010PropOp39
 70
     1
102
RTVSPost2010Prop40
 90
        0
102
RTVSPost2010PropOp40
 70
     1
102
RTVSPost2010Prop41ColorIndex
 90
      178
102
RTVSPost2010Prop41ColorRGB
 90
        0
102
RTVSPost2010PropOp41
 70
     1
102
RTVSPost2010Prop42
 90
       50
102
RTVSPost2010PropOp42
 70
     1
102
RTVSPost2010Prop43
 90
        3
102
RTVSPost2010PropOp43
 70
     1
102
RTVSPost2010Prop44ColorIndex
 90
        5
102
RTVSPost2010Prop44ColorRGB
 90
      255
102
RTVSPost2010PropOp44
 70
     1
102
RTVSPost2010Prop45
280
     0
102
RTVSPost2010PropOp45
 70
     1
102
RTVSPost2010Prop46
 90
       50
102
RTVSPost2010PropOp46
 70
     1
102
RTVSPost2010Prop47
 90
       50
102
RTVSPost2010PropOp47
 70
     1
102
RTVSPost2010Prop48
 90
       50
102
RTVSPost2010PropOp48
 70
     1
102
RTVSPost2010Prop49
280
     0
102
RTVSPost2010PropOp49
 70
     1
102
RTVSPost2010Prop50
 90
       50
102
RTVSPost2010PropOp50
 70
     1
102
RTVSPost2010Prop51ColorIndex
 90
      256
102
RTVSPost2010Prop51ColorRGB
 90
-16777216
102
RTVSPost2010PropOp51
 70
     0
102
RTVSPost2010Prop52
140
1.0
102
RTVSPost2010PropOp52
 70
     0
102
RTVSPost2010Prop53
 90
        2
102
RTVSPost2010PropOp53
 70
     1
102
RTVSPost2010Prop54
  1
strokes_ogs.tif
102
RTVSPost2010PropOp54
 70
     1
102
RTVSPost2010Prop55
280
     0
102
RTVSPost2010PropOp55
 70
     1
102
RTVSPost2010Prop56
140
1.0
102
RTVSPost2010PropOp56
 70
     1
102
RTVSPost2010Prop57
140
1.0
102
RTVSPost2010PropOp57
 70
     1
  0
XRECORD
  5
3F5
102
{ACAD_REACTORS
330
3F4
102
}
330
3F4
100
AcDbXrecord
280
     1
102
RTVSPropertyOp0
 70
     1
102
RTVSPropertyOp1
 70
     1
102
RTVSPropertyOp2
 70
     1
102
RTVSPropertyOp3
 70
     1
102
RTVSPropertyOp4
 70
     1
102
RTVSPropertyOp5
 70
     1
102
RTVSPropertyOp6
 70
     1
102
RTVSPropertyOp7
 70
     1
102
RTVSPropertyOp8
 70
     1
102
RTVSPropertyOp9
 70
     1
102
RTVSPropertyOp10
 70
     1
102
RTVSPropertyOp11
 70
     1
102
RTVSPropertyOp12
 70
     1
102
RTVSPropertyOp13
 70
     1
102
RTVSPropertyOp14
 70
     1
102
RTVSPropertyOp15
 70
     1
102
RTVSPropertyOp16
 70
     1
102
RTVSPropertyOp17
 70
     1
102
RTVSPropertyOp18
 70
     1
102
RTVSPropertyOp19
 70
     1
102
RTVSPropertyOp20
 70
     1
102
RTVSPropertyOp21
 70
     1
102
RTVSPropertyOp22
 70
     1
102
RTVSPropertyOp23
 70
     1
102
RTVSPropertyOp24
 70
     1
102
RTVSPropertyOp25
 70
     1
102
RTVSPropertyOp26
 70
     1
102
RTVSPropertyOp27
 70
     1
102
RTVSPropertyOp28
 70
     1
102
RTVSPropertyOp29
 70
     1
102
RTVSPropertyOp30
 70
     1
102
RTVSPropertyOp31
 70
     1
102
RTVSPropertyOp32
 70
     1
102
RTVSPropertyOp33
 70
     1
102
RTVSPropertyOp34
 70
     1
102
RTVSPropertyOp35
 70
     1
102
RTVSPropertyOp36
 70
     1
102
RTVSPropertyOp37
 70
     1
102
RTVSPropertyOp38
 70
     1
102
RTVSPropertyOp39
 70
     1
102
RTVSPropertyOp40
 70
     1
102
RTVSPropertyOp41
 70
     1
102
RTVSPropertyOp42
 70
     1
102
RTVSPropertyOp43
 70
     1
102
RTVSPropertyOp44
 70
     1
102
RTVSPropertyOp45
 70
     1
102
RTVSPropertyOp46
 70
     1
102
RTVSPropertyOp47
 70
     1
102
RTVSPropertyOp48
 70
     1
102
RTVSPropertyOp49
 70
     1
102
RTVSPropertyOp50
 70
     1
102
RTVSPropertyOp51
 70
     0
102
RTVSPropertyOp52
 70
     0
102
RTVSPropertyOp53
 70
     1
102
RTVSPropertyOp54
 70
     1
102
RTVSPropertyOp55
 70
     1
102
RTVSPropertyOp56
 70
     1
102
RTVSPropertyOp57
 70
     1
102
RTVSPost2010Prop28
280
     0
102
RTVSPost2010PropOp28
 70
     1
102
RTVSPost2010Prop29
280
     1
102
RTVSPost2010PropOp29
 70
     1
102
RTVSPost2010Prop30
280
     1
102
RTVSPost2010PropOp30
 70
     1
102
RTVSPost2010Prop31
280
     0
102
RTVSPost2010PropOp31
 70
     1
102
RTVSPost2010Prop32
280
     0
102
RTVSPost2010PropOp32
 70
     1
102
RTVSPost2010Prop33
280
     0
102
RTVSPost2010PropOp33
 70
     1
102
RTVSPost2010Prop34
280
     0
102
RTVSPost2010PropOp34
 70
     1
102
RTVSPost2010Prop35
280
     0
102
RTVSPost2010PropOp35
 70
     1
102
RTVSPost2010Prop36
280
     0
102
RTVSPost2010PropOp36
 70
     1
102
RTVSPost2010Prop37
 90
       50
102
RTVSPost2010PropOp37
 70
     1
102
RTVSPost2010Prop38
140
0.0
102
RTVSPost2010PropOp38
 70
     1
102
RTVSPost2010Prop39
140
1.0
102
RTVSPost2010PropOp39
 70
     1
102
RTVSPost2010Prop40
 90
        0
102
RTVSPost2010PropOp40
 70
     1
102
RTVSPost2010Prop41ColorIndex
 90
      178
102
RTVSPost2010Prop41ColorRGB
 90
        0
102
RTVSPost2010PropOp41
 70
     1
102
RTVSPost2010Prop42
 90
       50
102
RTVSPost2010PropOp42
 70
     1
102
RTVSPost2010Prop43
 90
        3
102
RTVSPost2010PropOp43
 70
     1
102
RTVSPost2010Prop44ColorIndex
 90
        5
102
RTVSPost2010Prop44ColorRGB
 90
      255
102
RTVSPost2010PropOp44
 70
     1
102
RTVSPost2010Prop45
280
     0
102
RTVSPost2010PropOp45
 70
     1
102
RTVSPost2010Prop46
 90
       50
102
RTVSPost2010PropOp46
 70
     1
102
RTVSPost2010Prop47
 90
       50
102
RTVSPost2010PropOp47
 70
     1
102
RTVSPost2010Prop48
 90
       50
102
RTVSPost2010PropOp48
 70
     1
102
RTVSPost2010Prop49
280
     0
102
RTVSPost2010PropOp49
 70
     1
102
RTVSPost2010Prop50
 90
       50
102
RTVSPost2010PropOp50
 70
     1
102
RTVSPost2010Prop51ColorIndex
 90
      256
102
RTVSPost2010Prop51ColorRGB
 90
-16777216
102
RTVSPost2010PropOp51
 70
     0
102
RTVSPost2010Prop52
140
1.0
102
RTVSPost2010PropOp52
 70
     0
102
RTVSPost2010Prop53
 90
        2
102
RTVSPost2010PropOp53
 70
     1
102
RTVSPost2010Prop54
  1
strokes_ogs.tif
102
RTVSPost2010PropOp54
 70
     1
102
RTVSPost2010Prop55
280
     0
102
RTVSPost2010PropOp55
 70
     1
102
RTVSPost2010Prop56
140
1.0
102
RTVSPost2010PropOp56
 70
     1
102
RTVSPost2010Prop57
140
1.0
102
RTVSPost2010PropOp57
 70
     1
  0
XRECORD
  5
3F7
102
{ACAD_REACTORS
330
3F6
102
}
330
3F6
100
AcDbXrecord
280
     1
102
RTVSPropertyOp0
 70
     1
102
RTVSPropertyOp1
 70
     1
102
RTVSPropertyOp2
 70
     1
102
RTVSPropertyOp3
 70
     1
102
RTVSPropertyOp4
 70
     1
102
RTVSPropertyOp5
 70
     1
102
RTVSPropertyOp6
 70
     1
102
RTVSPropertyOp7
 70
     1
102
RTVSPropertyOp8
 70
     1
102
RTVSPropertyOp9
 70
     1
102
RTVSPropertyOp10
 70
     1
102
RTVSPropertyOp11
 70
     1
102
RTVSPropertyOp12
 70
     1
102
RTVSPropertyOp13
 70
     1
102
RTVSPropertyOp14
 70
     1
102
RTVSPropertyOp15
 70
     1
102
RTVSPropertyOp16
 70
     1
102
RTVSPropertyOp17
 70
     1
102
RTVSPropertyOp18
 70
     1
102
RTVSPropertyOp19
 70
     1
102
RTVSPropertyOp20
 70
     1
102
RTVSPropertyOp21
 70
     1
102
RTVSPropertyOp22
 70
     1
102
RTVSPropertyOp23
 70
     1
102
RTVSPropertyOp24
 70
     1
102
RTVSPropertyOp25
 70
     1
102
RTVSPropertyOp26
 70
     1
102
RTVSPropertyOp27
 70
     1
102
RTVSPropertyOp28
 70
     1
102
RTVSPropertyOp29
 70
     1
102
RTVSPropertyOp30
 70
     1
102
RTVSPropertyOp31
 70
     1
102
RTVSPropertyOp32
 70
     1
102
RTVSPropertyOp33
 70
     1
102
RTVSPropertyOp34
 70
     1
102
RTVSPropertyOp35
 70
     1
102
RTVSPropertyOp36
 70
     1
102
RTVSPropertyOp37
 70
     1
102
RTVSPropertyOp38
 70
     1
102
RTVSPropertyOp39
 70
     1
102
RTVSPropertyOp40
 70
     1
102
RTVSPropertyOp41
 70
     1
102
RTVSPropertyOp42
 70
     1
102
RTVSPropertyOp43
 70
     1
102
RTVSPropertyOp44
 70
     1
102
RTVSPropertyOp45
 70
     1
102
RTVSPropertyOp46
 70
     1
102
RTVSPropertyOp47
 70
     1
102
RTVSPropertyOp48
 70
     1
102
RTVSPropertyOp49
 70
     1
102
RTVSPropertyOp50
 70
     1
102
RTVSPropertyOp51
 70
     0
102
RTVSPropertyOp52
 70
     0
102
RTVSPropertyOp53
 70
     1
102
RTVSPropertyOp54
 70
     1
102
RTVSPropertyOp55
 70
     1
102
RTVSPropertyOp56
 70
     1
102
RTVSPropertyOp57
 70
     1
102
RTVSPost2010Prop28
280
     0
102
RTVSPost2010PropOp28
 70
     1
102
RTVSPost2010Prop29
280
     1
102
RTVSPost2010PropOp29
 70
     1
102
RTVSPost2010Prop30
280
     1
102
RTVSPost2010PropOp30
 70
     1
102
RTVSPost2010Prop31
280
     0
102
RTVSPost2010PropOp31
 70
     1
102
RTVSPost2010Prop32
280
     0
102
RTVSPost2010PropOp32
 70
     1
102
RTVSPost2010Prop33
280
     0
102
RTVSPost2010PropOp33
 70
     1
102
RTVSPost2010Prop34
280
     0
102
RTVSPost2010PropOp34
 70
     1
102
RTVSPost2010Prop35
280
     0
102
RTVSPost2010PropOp35
 70
     1
102
RTVSPost2010Prop36
280
     0
102
RTVSPost2010PropOp36
 70
     1
102
RTVSPost2010Prop37
 90
       50
102
RTVSPost2010PropOp37
 70
     1
102
RTVSPost2010Prop38
140
0.0
102
RTVSPost2010PropOp38
 70
     1
102
RTVSPost2010Prop39
140
1.0
102
RTVSPost2010PropOp39
 70
     1
102
RTVSPost2010Prop40
 90
        0
102
RTVSPost2010PropOp40
 70
     1
102
RTVSPost2010Prop41ColorIndex
 90
      178
102
RTVSPost2010Prop41ColorRGB
 90
        0
102
RTVSPost2010PropOp41
 70
     1
102
RTVSPost2010Prop42
 90
       50
102
RTVSPost2010PropOp42
 70
     1
102
RTVSPost2010Prop43
 90
        3
102
RTVSPost2010PropOp43
 70
     1
102
RTVSPost2010Prop44ColorIndex
 90
        5
102
RTVSPost2010Prop44ColorRGB
 90
      255
102
RTVSPost2010PropOp44
 70
     1
102
RTVSPost2010Prop45
280
     0
102
RTVSPost2010PropOp45
 70
     1
102
RTVSPost2010Prop46
 90
       50
102
RTVSPost2010PropOp46
 70
     1
102
RTVSPost2010Prop47
 90
       50
102
RTVSPost2010PropOp47
 70
     1
102
RTVSPost2010Prop48
 90
       50
102
RTVSPost2010PropOp48
 70
     1
102
RTVSPost2010Prop49
280
     0
102
RTVSPost2010PropOp49
 70
     1
102
RTVSPost2010Prop50
 90
       50
102
RTVSPost2010PropOp50
 70
     1
102
RTVSPost2010Prop51ColorIndex
 90
      256
102
RTVSPost2010Prop51ColorRGB
 90
-16777216
102
RTVSPost2010PropOp51
 70
     0
102
RTVSPost2010Prop52
140
1.0
102
RTVSPost2010PropOp52
 70
     0
102
RTVSPost2010Prop53
 90
        2
102
RTVSPost2010PropOp53
 70
     1
102
RTVSPost2010Prop54
  1
strokes_ogs.tif
102
RTVSPost2010PropOp54
 70
     1
102
RTVSPost2010Prop55
280
     0
102
RTVSPost2010PropOp55
 70
     1
102
RTVSPost2010Prop56
140
1.0
102
RTVSPost2010PropOp56
 70
     1
102
RTVSPost2010Prop57
140
1.0
102
RTVSPost2010PropOp57
 70
     1
  0
XRECORD
  5
407
102
{ACAD_REACTORS
330
406
102
}
330
406
100
AcDbXrecord
280
     1
102
RTVSPropertyOp0
 70
     0
102
RTVSPropertyOp1
 70
     0
102
RTVSPropertyOp2
 70
     0
102
RTVSPropertyOp3
 70
     0
102
RTVSPropertyOp4
 70
     0
102
RTVSPropertyOp5
 70
     0
102
RTVSPropertyOp6
 70
     0
102
RTVSPropertyOp7
 70
     0
102
RTVSPropertyOp8
 70
     0
102
RTVSPropertyOp9
 70
     0
102
RTVSPropertyOp10
 70
     0
102
RTVSPropertyOp11
 70
     0
102
RTVSPropertyOp12
 70
     0
102
RTVSPropertyOp13
 70
     0
102
RTVSPropertyOp14
 70
     2
102
RTVSPropertyOp15
 70
     0
102
RTVSPropertyOp16
 70
     0
102
RTVSPropertyOp17
 70
     0
102
RTVSPropertyOp18
 70
     0
102
RTVSPropertyOp19
 70
     0
102
RTVSPropertyOp20
 70
     0
102
RTVSPropertyOp21
 70
     0
102
RTVSPropertyOp22
 70
     0
102
RTVSPropertyOp23
 70
     0
102
RTVSPropertyOp24
 70
     0
102
RTVSPropertyOp25
 70
     0
102
RTVSPropertyOp26
 70
     0
102
RTVSPropertyOp27
 70
     0
102
RTVSPropertyOp28
 70
     0
102
RTVSPropertyOp29
 70
     0
102
RTVSPropertyOp30
 70
     0
102
RTVSPropertyOp31
 70
     0
102
RTVSPropertyOp32
 70
     0
102
RTVSPropertyOp33
 70
     0
102
RTVSPropertyOp34
 70
     0
102
RTVSPropertyOp35
 70
     0
102
RTVSPropertyOp36
 70
     0
102
RTVSPropertyOp37
 70
     0
102
RTVSPropertyOp38
 70
     0
102
RTVSPropertyOp39
 70
     0
102
RTVSPropertyOp40
 70
     0
102
RTVSPropertyOp41
 70
     0
102
RTVSPropertyOp42
 70
     0
102
RTVSPropertyOp43
 70
     0
102
RTVSPropertyOp44
 70
     0
102
RTVSPropertyOp45
 70
     0
102
RTVSPropertyOp46
 70
     0
102
RTVSPropertyOp47
 70
     0
102
RTVSPropertyOp48
 70
     0
102
RTVSPropertyOp49
 70
     0
102
RTVSPropertyOp50
 70
     0
102
RTVSPropertyOp51
 70
     0
102
RTVSPropertyOp52
 70
     0
102
RTVSPropertyOp53
 70
     0
102
RTVSPropertyOp54
 70
     0
102
RTVSPropertyOp55
 70
     0
102
RTVSPropertyOp56
 70
     0
102
RTVSPropertyOp57
 70
     0
102
RTVSPost2010Prop28
280
     0
102
RTVSPost2010PropOp28
 70
     0
102
RTVSPost2010Prop29
280
     1
102
RTVSPost2010PropOp29
 70
     0
102
RTVSPost2010Prop30
280
     1
102
RTVSPost2010PropOp30
 70
     0
102
RTVSPost2010Prop31
280
     0
102
RTVSPost2010PropOp31
 70
     0
102
RTVSPost2010Prop32
280
     0
102
RTVSPost2010PropOp32
 70
     0
102
RTVSPost2010Prop33
280
     0
102
RTVSPost2010PropOp33
 70
     0
102
RTVSPost2010Prop34
280
     0
102
RTVSPost2010PropOp34
 70
     0
102
RTVSPost2010Prop35
280
     0
102
RTVSPost2010PropOp35
 70
     0
102
RTVSPost2010Prop36
280
     0
102
RTVSPost2010PropOp36
 70
     0
102
RTVSPost2010Prop37
 90
       50
102
RTVSPost2010PropOp37
 70
     0
102
RTVSPost2010Prop38
140
0.0
102
RTVSPost2010PropOp38
 70
     0
102
RTVSPost2010Prop39
140
1.0
102
RTVSPost2010PropOp39
 70
     0
102
RTVSPost2010Prop40
 90
        0
102
RTVSPost2010PropOp40
 70
     0
102
RTVSPost2010Prop41ColorIndex
 90
      178
102
RTVSPost2010Prop41ColorRGB
 90
        0
102
RTVSPost2010PropOp41
 70
     0
102
RTVSPost2010Prop42
 90
       50
102
RTVSPost2010PropOp42
 70
     0
102
RTVSPost2010Prop43
 90
        3
102
RTVSPost2010PropOp43
 70
     0
102
RTVSPost2010Prop44ColorIndex
 90
        5
102
RTVSPost2010Prop44ColorRGB
 90
      255
102
RTVSPost2010PropOp44
 70
     0
102
RTVSPost2010Prop45
280
     0
102
RTVSPost2010PropOp45
 70
     0
102
RTVSPost2010Prop46
 90
       50
102
RTVSPost2010PropOp46
 70
     0
102
RTVSPost2010Prop47
 90
       50
102
RTVSPost2010PropOp47
 70
     0
102
RTVSPost2010Prop48
 90
       50
102
RTVSPost2010PropOp48
 70
     0
102
RTVSPost2010Prop49
280
     0
102
RTVSPost2010PropOp49
 70
     0
102
RTVSPost2010Prop50
 90
       50
102
RTVSPost2010PropOp50
 70
     0
102
RTVSPost2010Prop51ColorIndex
 90
      256
102
RTVSPost2010Prop51ColorRGB
 90
-16777216
102
RTVSPost2010PropOp51
 70
     0
102
RTVSPost2010Prop52
140
1.0
102
RTVSPost2010PropOp52
 70
     0
102
RTVSPost2010Prop53
 90
        2
102
RTVSPost2010PropOp53
 70
     0
102
RTVSPost2010Prop54
  1
strokes_ogs.tif
102
RTVSPost2010PropOp54
 70
     0
102
RTVSPost2010Prop55
280
     0
102
RTVSPost2010PropOp55
 70
     0
102
RTVSPost2010Prop56
140
1.0
102
RTVSPost2010PropOp56
 70
     0
102
RTVSPost2010Prop57
140
1.0
102
RTVSPost2010PropOp57
 70
     0
  0
XRECORD
  5
3FF
102
{ACAD_REACTORS
330
3FE
102
}
330
3FE
100
AcDbXrecord
280
     1
102
RTVSPropertyOp0
 70
     1
102
RTVSPropertyOp1
 70
     1
102
RTVSPropertyOp2
 70
     1
102
RTVSPropertyOp3
 70
     1
102
RTVSPropertyOp4
 70
     1
102
RTVSPropertyOp5
 70
     1
102
RTVSPropertyOp6
 70
     1
102
RTVSPropertyOp7
 70
     1
102
RTVSPropertyOp8
 70
     1
102
RTVSPropertyOp9
 70
     1
102
RTVSPropertyOp10
 70
     1
102
RTVSPropertyOp11
 70
     1
102
RTVSPropertyOp12
 70
     1
102
RTVSPropertyOp13
 70
     1
102
RTVSPropertyOp14
 70
     1
102
RTVSPropertyOp15
 70
     1
102
RTVSPropertyOp16
 70
     1
102
RTVSPropertyOp17
 70
     1
102
RTVSPropertyOp18
 70
     1
102
RTVSPropertyOp19
 70
     1
102
RTVSPropertyOp20
 70
     1
102
RTVSPropertyOp21
 70
     1
102
RTVSPropertyOp22
 70
     1
102
RTVSPropertyOp23
 70
     1
102
RTVSPropertyOp24
 70
     1
102
RTVSPropertyOp25
 70
     1
102
RTVSPropertyOp26
 70
     1
102
RTVSPropertyOp27
 70
     1
102
RTVSPropertyOp28
 70
     1
102
RTVSPropertyOp29
 70
     1
102
RTVSPropertyOp30
 70
     1
102
RTVSPropertyOp31
 70
     1
102
RTVSPropertyOp32
 70
     1
102
RTVSPropertyOp33
 70
     1
102
RTVSPropertyOp34
 70
     1
102
RTVSPropertyOp35
 70
     1
102
RTVSPropertyOp36
 70
     1
102
RTVSPropertyOp37
 70
     1
102
RTVSPropertyOp38
 70
     1
102
RTVSPropertyOp39
 70
     1
102
RTVSPropertyOp40
 70
     1
102
RTVSPropertyOp41
 70
     1
102
RTVSPropertyOp42
 70
     1
102
RTVSPropertyOp43
 70
     1
102
RTVSPropertyOp44
 70
     1
102
RTVSPropertyOp45
 70
     1
102
RTVSPropertyOp46
 70
     1
102
RTVSPropertyOp47
 70
     1
102
RTVSPropertyOp48
 70
     1
102
RTVSPropertyOp49
 70
     1
102
RTVSPropertyOp50
 70
     1
102
RTVSPropertyOp51
 70
     0
102
RTVSPropertyOp52
 70
     0
102
RTVSPropertyOp53
 70
     1
102
RTVSPropertyOp54
 70
     1
102
RTVSPropertyOp55
 70
     1
102
RTVSPropertyOp56
 70
     1
102
RTVSPropertyOp57
 70
     1
102
RTVSPost2010Prop28
280
     0
102
RTVSPost2010PropOp28
 70
     1
102
RTVSPost2010Prop29
280
     1
102
RTVSPost2010PropOp29
 70
     1
102
RTVSPost2010Prop30
280
     1
102
RTVSPost2010PropOp30
 70
     1
102
RTVSPost2010Prop31
280
     0
102
RTVSPost2010PropOp31
 70
     1
102
RTVSPost2010Prop32
280
     0
102
RTVSPost2010PropOp32
 70
     1
102
RTVSPost2010Prop33
280
     0
102
RTVSPost2010PropOp33
 70
     1
102
RTVSPost2010Prop34
280
     0
102
RTVSPost2010PropOp34
 70
     1
102
RTVSPost2010Prop35
280
     0
102
RTVSPost2010PropOp35
 70
     1
102
RTVSPost2010Prop36
280
     0
102
RTVSPost2010PropOp36
 70
     1
102
RTVSPost2010Prop37
 90
       50
102
RTVSPost2010PropOp37
 70
     1
102
RTVSPost2010Prop38
140
0.0
102
RTVSPost2010PropOp38
 70
     1
102
RTVSPost2010Prop39
140
1.0
102
RTVSPost2010PropOp39
 70
     1
102
RTVSPost2010Prop40
 90
        0
102
RTVSPost2010PropOp40
 70
     1
102
RTVSPost2010Prop41ColorIndex
 90
      178
102
RTVSPost2010Prop41ColorRGB
 90
        0
102
RTVSPost2010PropOp41
 70
     1
102
RTVSPost2010Prop42
 90
       50
102
RTVSPost2010PropOp42
 70
     1
102
RTVSPost2010Prop43
 90
        3
102
RTVSPost2010PropOp43
 70
     1
102
RTVSPost2010Prop44ColorIndex
 90
        5
102
RTVSPost2010Prop44ColorRGB
 90
      255
102
RTVSPost2010PropOp44
 70
     1
102
RTVSPost2010Prop45
280
     0
102
RTVSPost2010PropOp45
 70
     1
102
RTVSPost2010Prop46
 90
       50
102
RTVSPost2010PropOp46
 70
     1
102
RTVSPost2010Prop47
 90
       50
102
RTVSPost2010PropOp47
 70
     1
102
RTVSPost2010Prop48
 90
       50
102
RTVSPost2010PropOp48
 70
     1
102
RTVSPost2010Prop49
280
     0
102
RTVSPost2010PropOp49
 70
     1
102
RTVSPost2010Prop50
 90
       50
102
RTVSPost2010PropOp50
 70
     1
102
RTVSPost2010Prop51ColorIndex
 90
      256
102
RTVSPost2010Prop51ColorRGB
 90
-16777216
102
RTVSPost2010PropOp51
 70
     0
102
RTVSPost2010Prop52
140
1.0
102
RTVSPost2010PropOp52
 70
     0
102
RTVSPost2010Prop53
 90
        2
102
RTVSPost2010PropOp53
 70
     1
102
RTVSPost2010Prop54
  1
strokes_ogs.tif
102
RTVSPost2010PropOp54
 70
     1
102
RTVSPost2010Prop55
280
     0
102
RTVSPost2010PropOp55
 70
     1
102
RTVSPost2010Prop56
140
1.0
102
RTVSPost2010PropOp56
 70
     1
102
RTVSPost2010Prop57
140
1.0
102
RTVSPost2010PropOp57
 70
     1
  0
XRECORD
  5
3E3
102
{ACAD_REACTORS
330
3E2
102
}
330
3E2
100
AcDbXrecord
280
     1
102
RTVSPropertyOp0
 70
     1
102
RTVSPropertyOp1
 70
     1
102
RTVSPropertyOp2
 70
     1
102
RTVSPropertyOp3
 70
     1
102
RTVSPropertyOp4
 70
     1
102
RTVSPropertyOp5
 70
     1
102
RTVSPropertyOp6
 70
     1
102
RTVSPropertyOp7
 70
     1
102
RTVSPropertyOp8
 70
     1
102
RTVSPropertyOp9
 70
     1
102
RTVSPropertyOp10
 70
     1
102
RTVSPropertyOp11
 70
     1
102
RTVSPropertyOp12
 70
     1
102
RTVSPropertyOp13
 70
     1
102
RTVSPropertyOp14
 70
     1
102
RTVSPropertyOp15
 70
     1
102
RTVSPropertyOp16
 70
     1
102
RTVSPropertyOp17
 70
     1
102
RTVSPropertyOp18
 70
     1
102
RTVSPropertyOp19
 70
     1
102
RTVSPropertyOp20
 70
     1
102
RTVSPropertyOp21
 70
     1
102
RTVSPropertyOp22
 70
     1
102
RTVSPropertyOp23
 70
     1
102
RTVSPropertyOp24
 70
     1
102
RTVSPropertyOp25
 70
     1
102
RTVSPropertyOp26
 70
     1
102
RTVSPropertyOp27
 70
     1
102
RTVSPropertyOp28
 70
     1
102
RTVSPropertyOp29
 70
     1
102
RTVSPropertyOp30
 70
     1
102
RTVSPropertyOp31
 70
     1
102
RTVSPropertyOp32
 70
     1
102
RTVSPropertyOp33
 70
     1
102
RTVSPropertyOp34
 70
     1
102
RTVSPropertyOp35
 70
     1
102
RTVSPropertyOp36
 70
     1
102
RTVSPropertyOp37
 70
     1
102
RTVSPropertyOp38
 70
     1
102
RTVSPropertyOp39
 70
     1
102
RTVSPropertyOp40
 70
     1
102
RTVSPropertyOp41
 70
     1
102
RTVSPropertyOp42
 70
     1
102
RTVSPropertyOp43
 70
     1
102
RTVSPropertyOp44
 70
     1
102
RTVSPropertyOp45
 70
     1
102
RTVSPropertyOp46
 70
     1
102
RTVSPropertyOp47
 70
     1
102
RTVSPropertyOp48
 70
     1
102
RTVSPropertyOp49
 70
     1
102
RTVSPropertyOp50
 70
     1
102
RTVSPropertyOp51
 70
     0
102
RTVSPropertyOp52
 70
     0
102
RTVSPropertyOp53
 70
     1
102
RTVSPropertyOp54
 70
     1
102
RTVSPropertyOp55
 70
     1
102
RTVSPropertyOp56
 70
     1
102
RTVSPropertyOp57
 70
     1
102
RTVSPost2010Prop28
280
     0
102
RTVSPost2010PropOp28
 70
     1
102
RTVSPost2010Prop29
280
     1
102
RTVSPost2010PropOp29
 70
     1
102
RTVSPost2010Prop30
280
     1
102
RTVSPost2010PropOp30
 70
     1
102
RTVSPost2010Prop31
280
     0
102
RTVSPost2010PropOp31
 70
     1
102
RTVSPost2010Prop32
280
     0
102
RTVSPost2010PropOp32
 70
     1
102
RTVSPost2010Prop33
280
     0
102
RTVSPost2010PropOp33
 70
     1
102
RTVSPost2010Prop34
280
     0
102
RTVSPost2010PropOp34
 70
     1
102
RTVSPost2010Prop35
280
     0
102
RTVSPost2010PropOp35
 70
     1
102
RTVSPost2010Prop36
280
     0
102
RTVSPost2010PropOp36
 70
     1
102
RTVSPost2010Prop37
 90
       50
102
RTVSPost2010PropOp37
 70
     1
102
RTVSPost2010Prop38
140
0.0
102
RTVSPost2010PropOp38
 70
     1
102
RTVSPost2010Prop39
140
1.0
102
RTVSPost2010PropOp39
 70
     1
102
RTVSPost2010Prop40
 90
        0
102
RTVSPost2010PropOp40
 70
     1
102
RTVSPost2010Prop41ColorIndex
 90
      178
102
RTVSPost2010Prop41ColorRGB
 90
        0
102
RTVSPost2010PropOp41
 70
     1
102
RTVSPost2010Prop42
 90
       50
102
RTVSPost2010PropOp42
 70
     1
102
RTVSPost2010Prop43
 90
        3
102
RTVSPost2010PropOp43
 70
     1
102
RTVSPost2010Prop44ColorIndex
 90
        5
102
RTVSPost2010Prop44ColorRGB
 90
      255
102
RTVSPost2010PropOp44
 70
     1
102
RTVSPost2010Prop45
280
     0
102
RTVSPost2010PropOp45
 70
     1
102
RTVSPost2010Prop46
 90
       50
102
RTVSPost2010PropOp46
 70
     1
102
RTVSPost2010Prop47
 90
       50
102
RTVSPost2010PropOp47
 70
     1
102
RTVSPost2010Prop48
 90
       50
102
RTVSPost2010PropOp48
 70
     1
102
RTVSPost2010Prop49
280
     0
102
RTVSPost2010PropOp49
 70
     1
102
RTVSPost2010Prop50
 90
       50
102
RTVSPost2010PropOp50
 70
     1
102
RTVSPost2010Prop51ColorIndex
 90
      256
102
RTVSPost2010Prop51ColorRGB
 90
-16777216
102
RTVSPost2010PropOp51
 70
     0
102
RTVSPost2010Prop52
140
1.0
102
RTVSPost2010PropOp52
 70
     0
102
RTVSPost2010Prop53
 90
        2
102
RTVSPost2010PropOp53
 70
     1
102
RTVSPost2010Prop54
  1
strokes_ogs.tif
102
RTVSPost2010PropOp54
 70
     1
102
RTVSPost2010Prop55
280
     0
102
RTVSPost2010PropOp55
 70
     1
102
RTVSPost2010Prop56
140
1.0
102
RTVSPost2010PropOp56
 70
     1
102
RTVSPost2010Prop57
140
1.0
102
RTVSPost2010PropOp57
 70
     1
  0
XRECORD
  5
3E5
102
{ACAD_REACTORS
330
3E4
102
}
330
3E4
100
AcDbXrecord
280
     1
102
RTVSPropertyOp0
 70
     1
102
RTVSPropertyOp1
 70
     1
102
RTVSPropertyOp2
 70
     1
102
RTVSPropertyOp3
 70
     1
102
RTVSPropertyOp4
 70
     1
102
RTVSPropertyOp5
 70
     1
102
RTVSPropertyOp6
 70
     1
102
RTVSPropertyOp7
 70
     1
102
RTVSPropertyOp8
 70
     1
102
RTVSPropertyOp9
 70
     1
102
RTVSPropertyOp10
 70
     1
102
RTVSPropertyOp11
 70
     1
102
RTVSPropertyOp12
 70
     1
102
RTVSPropertyOp13
 70
     1
102
RTVSPropertyOp14
 70
     1
102
RTVSPropertyOp15
 70
     1
102
RTVSPropertyOp16
 70
     1
102
RTVSPropertyOp17
 70
     1
102
RTVSPropertyOp18
 70
     1
102
RTVSPropertyOp19
 70
     1
102
RTVSPropertyOp20
 70
     1
102
RTVSPropertyOp21
 70
     1
102
RTVSPropertyOp22
 70
     1
102
RTVSPropertyOp23
 70
     1
102
RTVSPropertyOp24
 70
     1
102
RTVSPropertyOp25
 70
     1
102
RTVSPropertyOp26
 70
     1
102
RTVSPropertyOp27
 70
     1
102
RTVSPropertyOp28
 70
     1
102
RTVSPropertyOp29
 70
     1
102
RTVSPropertyOp30
 70
     1
102
RTVSPropertyOp31
 70
     1
102
RTVSPropertyOp32
 70
     1
102
RTVSPropertyOp33
 70
     1
102
RTVSPropertyOp34
 70
     1
102
RTVSPropertyOp35
 70
     1
102
RTVSPropertyOp36
 70
     1
102
RTVSPropertyOp37
 70
     1
102
RTVSPropertyOp38
 70
     1
102
RTVSPropertyOp39
 70
     1
102
RTVSPropertyOp40
 70
     1
102
RTVSPropertyOp41
 70
     1
102
RTVSPropertyOp42
 70
     1
102
RTVSPropertyOp43
 70
     1
102
RTVSPropertyOp44
 70
     1
102
RTVSPropertyOp45
 70
     1
102
RTVSPropertyOp46
 70
     1
102
RTVSPropertyOp47
 70
     1
102
RTVSPropertyOp48
 70
     1
102
RTVSPropertyOp49
 70
     1
102
RTVSPropertyOp50
 70
     1
102
RTVSPropertyOp51
 70
     0
102
RTVSPropertyOp52
 70
     0
102
RTVSPropertyOp53
 70
     1
102
RTVSPropertyOp54
 70
     1
102
RTVSPropertyOp55
 70
     1
102
RTVSPropertyOp56
 70
     1
102
RTVSPropertyOp57
 70
     1
102
RTVSPost2010Prop28
280
     0
102
RTVSPost2010PropOp28
 70
     1
102
RTVSPost2010Prop29
280
     1
102
RTVSPost2010PropOp29
 70
     1
102
RTVSPost2010Prop30
280
     1
102
RTVSPost2010PropOp30
 70
     1
102
RTVSPost2010Prop31
280
     0
102
RTVSPost2010PropOp31
 70
     1
102
RTVSPost2010Prop32
280
     0
102
RTVSPost2010PropOp32
 70
     1
102
RTVSPost2010Prop33
280
     0
102
RTVSPost2010PropOp33
 70
     1
102
RTVSPost2010Prop34
280
     0
102
RTVSPost2010PropOp34
 70
     1
102
RTVSPost2010Prop35
280
     0
102
RTVSPost2010PropOp35
 70
     1
102
RTVSPost2010Prop36
280
     0
102
RTVSPost2010PropOp36
 70
     1
102
RTVSPost2010Prop37
 90
       50
102
RTVSPost2010PropOp37
 70
     1
102
RTVSPost2010Prop38
140
0.0
102
RTVSPost2010PropOp38
 70
     1
102
RTVSPost2010Prop39
140
1.0
102
RTVSPost2010PropOp39
 70
     1
102
RTVSPost2010Prop40
 90
        0
102
RTVSPost2010PropOp40
 70
     1
102
RTVSPost2010Prop41ColorIndex
 90
      178
102
RTVSPost2010Prop41ColorRGB
 90
        0
102
RTVSPost2010PropOp41
 70
     1
102
RTVSPost2010Prop42
 90
       50
102
RTVSPost2010PropOp42
 70
     1
102
RTVSPost2010Prop43
 90
        3
102
RTVSPost2010PropOp43
 70
     1
102
RTVSPost2010Prop44ColorIndex
 90
        5
102
RTVSPost2010Prop44ColorRGB
 90
      255
102
RTVSPost2010PropOp44
 70
     1
102
RTVSPost2010Prop45
280
     0
102
RTVSPost2010PropOp45
 70
     1
102
RTVSPost2010Prop46
 90
       50
102
RTVSPost2010PropOp46
 70
     1
102
RTVSPost2010Prop47
 90
       50
102
RTVSPost2010PropOp47
 70
     1
102
RTVSPost2010Prop48
 90
       50
102
RTVSPost2010PropOp48
 70
     1
102
RTVSPost2010Prop49
280
     0
102
RTVSPost2010PropOp49
 70
     1
102
RTVSPost2010Prop50
 90
       50
102
RTVSPost2010PropOp50
 70
     1
102
RTVSPost2010Prop51ColorIndex
 90
      256
102
RTVSPost2010Prop51ColorRGB
 90
-16777216
102
RTVSPost2010PropOp51
 70
     0
102
RTVSPost2010Prop52
140
1.0
102
RTVSPost2010PropOp52
 70
     0
102
RTVSPost2010Prop53
 90
        2
102
RTVSPost2010PropOp53
 70
     1
102
RTVSPost2010Prop54
  1
strokes_ogs.tif
102
RTVSPost2010PropOp54
 70
     1
102
RTVSPost2010Prop55
280
     0
102
RTVSPost2010PropOp55
 70
     1
102
RTVSPost2010Prop56
140
1.0
102
RTVSPost2010PropOp56
 70
     1
102
RTVSPost2010Prop57
140
1.0
102
RTVSPost2010PropOp57
 70
     1
  0
XRECORD
  5
3E7
102
{ACAD_REACTORS
330
3E6
102
}
330
3E6
100
AcDbXrecord
280
     1
102
RTVSPropertyOp0
 70
     1
102
RTVSPropertyOp1
 70
     1
102
RTVSPropertyOp2
 70
     1
102
RTVSPropertyOp3
 70
     1
102
RTVSPropertyOp4
 70
     1
102
RTVSPropertyOp5
 70
     1
102
RTVSPropertyOp6
 70
     1
102
RTVSPropertyOp7
 70
     1
102
RTVSPropertyOp8
 70
     1
102
RTVSPropertyOp9
 70
     1
102
RTVSPropertyOp10
 70
     1
102
RTVSPropertyOp11
 70
     1
102
RTVSPropertyOp12
 70
     1
102
RTVSPropertyOp13
 70
     1
102
RTVSPropertyOp14
 70
     1
102
RTVSPropertyOp15
 70
     1
102
RTVSPropertyOp16
 70
     1
102
RTVSPropertyOp17
 70
     1
102
RTVSPropertyOp18
 70
     1
102
RTVSPropertyOp19
 70
     1
102
RTVSPropertyOp20
 70
     1
102
RTVSPropertyOp21
 70
     1
102
RTVSPropertyOp22
 70
     1
102
RTVSPropertyOp23
 70
     1
102
RTVSPropertyOp24
 70
     1
102
RTVSPropertyOp25
 70
     1
102
RTVSPropertyOp26
 70
     1
102
RTVSPropertyOp27
 70
     1
102
RTVSPropertyOp28
 70
     1
102
RTVSPropertyOp29
 70
     1
102
RTVSPropertyOp30
 70
     1
102
RTVSPropertyOp31
 70
     1
102
RTVSPropertyOp32
 70
     1
102
RTVSPropertyOp33
 70
     1
102
RTVSPropertyOp34
 70
     1
102
RTVSPropertyOp35
 70
     1
102
RTVSPropertyOp36
 70
     1
102
RTVSPropertyOp37
 70
     1
102
RTVSPropertyOp38
 70
     1
102
RTVSPropertyOp39
 70
     1
102
RTVSPropertyOp40
 70
     1
102
RTVSPropertyOp41
 70
     1
102
RTVSPropertyOp42
 70
     1
102
RTVSPropertyOp43
 70
     1
102
RTVSPropertyOp44
 70
     1
102
RTVSPropertyOp45
 70
     1
102
RTVSPropertyOp46
 70
     1
102
RTVSPropertyOp47
 70
     1
102
RTVSPropertyOp48
 70
     1
102
RTVSPropertyOp49
 70
     1
102
RTVSPropertyOp50
 70
     1
102
RTVSPropertyOp51
 70
     0
102
RTVSPropertyOp52
 70
     0
102
RTVSPropertyOp53
 70
     1
102
RTVSPropertyOp54
 70
     1
102
RTVSPropertyOp55
 70
     1
102
RTVSPropertyOp56
 70
     1
102
RTVSPropertyOp57
 70
     1
102
RTVSPost2010Prop28
280
     0
102
RTVSPost2010PropOp28
 70
     1
102
RTVSPost2010Prop29
280
     1
102
RTVSPost2010PropOp29
 70
     1
102
RTVSPost2010Prop30
280
     1
102
RTVSPost2010PropOp30
 70
     1
102
RTVSPost2010Prop31
280
     0
102
RTVSPost2010PropOp31
 70
     1
102
RTVSPost2010Prop32
280
     0
102
RTVSPost2010PropOp32
 70
     1
102
RTVSPost2010Prop33
280
     0
102
RTVSPost2010PropOp33
 70
     1
102
RTVSPost2010Prop34
280
     0
102
RTVSPost2010PropOp34
 70
     1
102
RTVSPost2010Prop35
280
     0
102
RTVSPost2010PropOp35
 70
     1
102
RTVSPost2010Prop36
280
     0
102
RTVSPost2010PropOp36
 70
     1
102
RTVSPost2010Prop37
 90
       50
102
RTVSPost2010PropOp37
 70
     1
102
RTVSPost2010Prop38
140
0.0
102
RTVSPost2010PropOp38
 70
     1
102
RTVSPost2010Prop39
140
1.0
102
RTVSPost2010PropOp39
 70
     1
102
RTVSPost2010Prop40
 90
        0
102
RTVSPost2010PropOp40
 70
     1
102
RTVSPost2010Prop41ColorIndex
 90
      178
102
RTVSPost2010Prop41ColorRGB
 90
        0
102
RTVSPost2010PropOp41
 70
     1
102
RTVSPost2010Prop42
 90
       50
102
RTVSPost2010PropOp42
 70
     1
102
RTVSPost2010Prop43
 90
        3
102
RTVSPost2010PropOp43
 70
     1
102
RTVSPost2010Prop44ColorIndex
 90
        5
102
RTVSPost2010Prop44ColorRGB
 90
      255
102
RTVSPost2010PropOp44
 70
     1
102
RTVSPost2010Prop45
280
     0
102
RTVSPost2010PropOp45
 70
     1
102
RTVSPost2010Prop46
 90
       50
102
RTVSPost2010PropOp46
 70
     1
102
RTVSPost2010Prop47
 90
       50
102
RTVSPost2010PropOp47
 70
     1
102
RTVSPost2010Prop48
 90
       50
102
RTVSPost2010PropOp48
 70
     1
102
RTVSPost2010Prop49
280
     0
102
RTVSPost2010PropOp49
 70
     1
102
RTVSPost2010Prop50
 90
       50
102
RTVSPost2010PropOp50
 70
     1
102
RTVSPost2010Prop51ColorIndex
 90
      256
102
RTVSPost2010Prop51ColorRGB
 90
-16777216
102
RTVSPost2010PropOp51
 70
     0
102
RTVSPost2010Prop52
140
1.0
102
RTVSPost2010PropOp52
 70
     0
102
RTVSPost2010Prop53
 90
        2
102
RTVSPost2010PropOp53
 70
     1
102
RTVSPost2010Prop54
  1
strokes_ogs.tif
102
RTVSPost2010PropOp54
 70
     1
102
RTVSPost2010Prop55
280
     0
102
RTVSPost2010PropOp55
 70
     1
102
RTVSPost2010Prop56
140
1.0
102
RTVSPost2010PropOp56
 70
     1
102
RTVSPost2010Prop57
140
1.0
102
RTVSPost2010PropOp57
 70
     1
  0
XRECORD
  5
3E9
102
{ACAD_REACTORS
330
3E8
102
}
330
3E8
100
AcDbXrecord
280
     1
102
RTVSPropertyOp0
 70
     1
102
RTVSPropertyOp1
 70
     1
102
RTVSPropertyOp2
 70
     1
102
RTVSPropertyOp3
 70
     1
102
RTVSPropertyOp4
 70
     1
102
RTVSPropertyOp5
 70
     1
102
RTVSPropertyOp6
 70
     1
102
RTVSPropertyOp7
 70
     1
102
RTVSPropertyOp8
 70
     1
102
RTVSPropertyOp9
 70
     1
102
RTVSPropertyOp10
 70
     1
102
RTVSPropertyOp11
 70
     1
102
RTVSPropertyOp12
 70
     1
102
RTVSPropertyOp13
 70
     1
102
RTVSPropertyOp14
 70
     1
102
RTVSPropertyOp15
 70
     1
102
RTVSPropertyOp16
 70
     1
102
RTVSPropertyOp17
 70
     1
102
RTVSPropertyOp18
 70
     1
102
RTVSPropertyOp19
 70
     1
102
RTVSPropertyOp20
 70
     1
102
RTVSPropertyOp21
 70
     1
102
RTVSPropertyOp22
 70
     1
102
RTVSPropertyOp23
 70
     1
102
RTVSPropertyOp24
 70
     1
102
RTVSPropertyOp25
 70
     1
102
RTVSPropertyOp26
 70
     1
102
RTVSPropertyOp27
 70
     1
102
RTVSPropertyOp28
 70
     1
102
RTVSPropertyOp29
 70
     1
102
RTVSPropertyOp30
 70
     1
102
RTVSPropertyOp31
 70
     1
102
RTVSPropertyOp32
 70
     1
102
RTVSPropertyOp33
 70
     1
102
RTVSPropertyOp34
 70
     1
102
RTVSPropertyOp35
 70
     1
102
RTVSPropertyOp36
 70
     1
102
RTVSPropertyOp37
 70
     1
102
RTVSPropertyOp38
 70
     1
102
RTVSPropertyOp39
 70
     1
102
RTVSPropertyOp40
 70
     1
102
RTVSPropertyOp41
 70
     1
102
RTVSPropertyOp42
 70
     1
102
RTVSPropertyOp43
 70
     1
102
RTVSPropertyOp44
 70
     1
102
RTVSPropertyOp45
 70
     1
102
RTVSPropertyOp46
 70
     1
102
RTVSPropertyOp47
 70
     1
102
RTVSPropertyOp48
 70
     1
102
RTVSPropertyOp49
 70
     1
102
RTVSPropertyOp50
 70
     1
102
RTVSPropertyOp51
 70
     0
102
RTVSPropertyOp52
 70
     0
102
RTVSPropertyOp53
 70
     1
102
RTVSPropertyOp54
 70
     1
102
RTVSPropertyOp55
 70
     1
102
RTVSPropertyOp56
 70
     1
102
RTVSPropertyOp57
 70
     1
102
RTVSPost2010Prop28
280
     0
102
RTVSPost2010PropOp28
 70
     1
102
RTVSPost2010Prop29
280
     1
102
RTVSPost2010PropOp29
 70
     1
102
RTVSPost2010Prop30
280
     1
102
RTVSPost2010PropOp30
 70
     1
102
RTVSPost2010Prop31
280
     0
102
RTVSPost2010PropOp31
 70
     1
102
RTVSPost2010Prop32
280
     0
102
RTVSPost2010PropOp32
 70
     1
102
RTVSPost2010Prop33
280
     0
102
RTVSPost2010PropOp33
 70
     1
102
RTVSPost2010Prop34
280
     0
102
RTVSPost2010PropOp34
 70
     1
102
RTVSPost2010Prop35
280
     0
102
RTVSPost2010PropOp35
 70
     1
102
RTVSPost2010Prop36
280
     0
102
RTVSPost2010PropOp36
 70
     1
102
RTVSPost2010Prop37
 90
       50
102
RTVSPost2010PropOp37
 70
     1
102
RTVSPost2010Prop38
140
0.0
102
RTVSPost2010PropOp38
 70
     1
102
RTVSPost2010Prop39
140
1.0
102
RTVSPost2010PropOp39
 70
     1
102
RTVSPost2010Prop40
 90
        0
102
RTVSPost2010PropOp40
 70
     1
102
RTVSPost2010Prop41ColorIndex
 90
      178
102
RTVSPost2010Prop41ColorRGB
 90
        0
102
RTVSPost2010PropOp41
 70
     1
102
RTVSPost2010Prop42
 90
       50
102
RTVSPost2010PropOp42
 70
     1
102
RTVSPost2010Prop43
 90
        3
102
RTVSPost2010PropOp43
 70
     1
102
RTVSPost2010Prop44ColorIndex
 90
        5
102
RTVSPost2010Prop44ColorRGB
 90
      255
102
RTVSPost2010PropOp44
 70
     1
102
RTVSPost2010Prop45
280
     0
102
RTVSPost2010PropOp45
 70
     1
102
RTVSPost2010Prop46
 90
       50
102
RTVSPost2010PropOp46
 70
     1
102
RTVSPost2010Prop47
 90
       50
102
RTVSPost2010PropOp47
 70
     1
102
RTVSPost2010Prop48
 90
       50
102
RTVSPost2010PropOp48
 70
     1
102
RTVSPost2010Prop49
280
     0
102
RTVSPost2010PropOp49
 70
     1
102
RTVSPost2010Prop50
 90
       50
102
RTVSPost2010PropOp50
 70
     1
102
RTVSPost2010Prop51ColorIndex
 90
      256
102
RTVSPost2010Prop51ColorRGB
 90
-16777216
102
RTVSPost2010PropOp51
 70
     0
102
RTVSPost2010Prop52
140
1.0
102
RTVSPost2010PropOp52
 70
     0
102
RTVSPost2010Prop53
 90
        2
102
RTVSPost2010PropOp53
 70
     1
102
RTVSPost2010Prop54
  1
strokes_ogs.tif
102
RTVSPost2010PropOp54
 70
     1
102
RTVSPost2010Prop55
280
     0
102
RTVSPost2010PropOp55
 70
     1
102
RTVSPost2010Prop56
140
1.0
102
RTVSPost2010PropOp56
 70
     1
102
RTVSPost2010Prop57
140
1.0
102
RTVSPost2010PropOp57
 70
     1
  0
XRECORD
  5
3EF
102
{ACAD_REACTORS
330
3EE
102
}
330
3EE
100
AcDbXrecord
280
     1
102
RTVSPropertyOp0
 70
     1
102
RTVSPropertyOp1
 70
     1
102
RTVSPropertyOp2
 70
     1
102
RTVSPropertyOp3
 70
     1
102
RTVSPropertyOp4
 70
     1
102
RTVSPropertyOp5
 70
     1
102
RTVSPropertyOp6
 70
     1
102
RTVSPropertyOp7
 70
     1
102
RTVSPropertyOp8
 70
     1
102
RTVSPropertyOp9
 70
     1
102
RTVSPropertyOp10
 70
     1
102
RTVSPropertyOp11
 70
     1
102
RTVSPropertyOp12
 70
     1
102
RTVSPropertyOp13
 70
     1
102
RTVSPropertyOp14
 70
     1
102
RTVSPropertyOp15
 70
     1
102
RTVSPropertyOp16
 70
     1
102
RTVSPropertyOp17
 70
     1
102
RTVSPropertyOp18
 70
     1
102
RTVSPropertyOp19
 70
     1
102
RTVSPropertyOp20
 70
     1
102
RTVSPropertyOp21
 70
     1
102
RTVSPropertyOp22
 70
     1
102
RTVSPropertyOp23
 70
     1
102
RTVSPropertyOp24
 70
     1
102
RTVSPropertyOp25
 70
     1
102
RTVSPropertyOp26
 70
     1
102
RTVSPropertyOp27
 70
     1
102
RTVSPropertyOp28
 70
     1
102
RTVSPropertyOp29
 70
     1
102
RTVSPropertyOp30
 70
     1
102
RTVSPropertyOp31
 70
     1
102
RTVSPropertyOp32
 70
     1
102
RTVSPropertyOp33
 70
     1
102
RTVSPropertyOp34
 70
     1
102
RTVSPropertyOp35
 70
     1
102
RTVSPropertyOp36
 70
     1
102
RTVSPropertyOp37
 70
     1
102
RTVSPropertyOp38
 70
     1
102
RTVSPropertyOp39
 70
     1
102
RTVSPropertyOp40
 70
     1
102
RTVSPropertyOp41
 70
     1
102
RTVSPropertyOp42
 70
     1
102
RTVSPropertyOp43
 70
     1
102
RTVSPropertyOp44
 70
     1
102
RTVSPropertyOp45
 70
     1
102
RTVSPropertyOp46
 70
     1
102
RTVSPropertyOp47
 70
     1
102
RTVSPropertyOp48
 70
     1
102
RTVSPropertyOp49
 70
     1
102
RTVSPropertyOp50
 70
     1
102
RTVSPropertyOp51
 70
     0
102
RTVSPropertyOp52
 70
     0
102
RTVSPropertyOp53
 70
     1
102
RTVSPropertyOp54
 70
     1
102
RTVSPropertyOp55
 70
     1
102
RTVSPropertyOp56
 70
     1
102
RTVSPropertyOp57
 70
     1
102
RTVSPost2010Prop28
280
     0
102
RTVSPost2010PropOp28
 70
     1
102
RTVSPost2010Prop29
280
     1
102
RTVSPost2010PropOp29
 70
     1
102
RTVSPost2010Prop30
280
     1
102
RTVSPost2010PropOp30
 70
     1
102
RTVSPost2010Prop31
280
     0
102
RTVSPost2010PropOp31
 70
     1
102
RTVSPost2010Prop32
280
     0
102
RTVSPost2010PropOp32
 70
     1
102
RTVSPost2010Prop33
280
     0
102
RTVSPost2010PropOp33
 70
     1
102
RTVSPost2010Prop34
280
     0
102
RTVSPost2010PropOp34
 70
     1
102
RTVSPost2010Prop35
280
     0
102
RTVSPost2010PropOp35
 70
     1
102
RTVSPost2010Prop36
280
     0
102
RTVSPost2010PropOp36
 70
     1
102
RTVSPost2010Prop37
 90
       50
102
RTVSPost2010PropOp37
 70
     1
102
RTVSPost2010Prop38
140
0.0
102
RTVSPost2010PropOp38
 70
     1
102
RTVSPost2010Prop39
140
1.0
102
RTVSPost2010PropOp39
 70
     1
102
RTVSPost2010Prop40
 90
        0
102
RTVSPost2010PropOp40
 70
     1
102
RTVSPost2010Prop41ColorIndex
 90
      178
102
RTVSPost2010Prop41ColorRGB
 90
        0
102
RTVSPost2010PropOp41
 70
     1
102
RTVSPost2010Prop42
 90
       50
102
RTVSPost2010PropOp42
 70
     1
102
RTVSPost2010Prop43
 90
        3
102
RTVSPost2010PropOp43
 70
     1
102
RTVSPost2010Prop44ColorIndex
 90
        5
102
RTVSPost2010Prop44ColorRGB
 90
      255
102
RTVSPost2010PropOp44
 70
     1
102
RTVSPost2010Prop45
280
     0
102
RTVSPost2010PropOp45
 70
     1
102
RTVSPost2010Prop46
 90
       50
102
RTVSPost2010PropOp46
 70
     1
102
RTVSPost2010Prop47
 90
       50
102
RTVSPost2010PropOp47
 70
     1
102
RTVSPost2010Prop48
 90
       50
102
RTVSPost2010PropOp48
 70
     1
102
RTVSPost2010Prop49
280
     0
102
RTVSPost2010PropOp49
 70
     1
102
RTVSPost2010Prop50
 90
       50
102
RTVSPost2010PropOp50
 70
     1
102
RTVSPost2010Prop51ColorIndex
 90
      256
102
RTVSPost2010Prop51ColorRGB
 90
-16777216
102
RTVSPost2010PropOp51
 70
     0
102
RTVSPost2010Prop52
140
1.0
102
RTVSPost2010PropOp52
 70
     0
102
RTVSPost2010Prop53
 90
        2
102
RTVSPost2010PropOp53
 70
     1
102
RTVSPost2010Prop54
  1
strokes_ogs.tif
102
RTVSPost2010PropOp54
 70
     1
102
RTVSPost2010Prop55
280
     0
102
RTVSPost2010PropOp55
 70
     1
102
RTVSPost2010Prop56
140
1.0
102
RTVSPost2010PropOp56
 70
     1
102
RTVSPost2010Prop57
140
1.0
102
RTVSPost2010PropOp57
 70
     1
  0
XRECORD
  5
403
102
{ACAD_REACTORS
330
402
102
}
330
402
100
AcDbXrecord
280
     1
102
RTVSPropertyOp0
 70
     0
102
RTVSPropertyOp1
 70
     0
102
RTVSPropertyOp2
 70
     0
102
RTVSPropertyOp3
 70
     0
102
RTVSPropertyOp4
 70
     0
102
RTVSPropertyOp5
 70
     0
102
RTVSPropertyOp6
 70
     0
102
RTVSPropertyOp7
 70
     0
102
RTVSPropertyOp8
 70
     0
102
RTVSPropertyOp9
 70
     0
102
RTVSPropertyOp10
 70
     0
102
RTVSPropertyOp11
 70
     0
102
RTVSPropertyOp12
 70
     0
102
RTVSPropertyOp13
 70
     0
102
RTVSPropertyOp14
 70
     2
102
RTVSPropertyOp15
 70
     0
102
RTVSPropertyOp16
 70
     0
102
RTVSPropertyOp17
 70
     0
102
RTVSPropertyOp18
 70
     0
102
RTVSPropertyOp19
 70
     0
102
RTVSPropertyOp20
 70
     0
102
RTVSPropertyOp21
 70
     0
102
RTVSPropertyOp22
 70
     0
102
RTVSPropertyOp23
 70
     0
102
RTVSPropertyOp24
 70
     0
102
RTVSPropertyOp25
 70
     0
102
RTVSPropertyOp26
 70
     0
102
RTVSPropertyOp27
 70
     0
102
RTVSPropertyOp28
 70
     0
102
RTVSPropertyOp29
 70
     0
102
RTVSPropertyOp30
 70
     0
102
RTVSPropertyOp31
 70
     0
102
RTVSPropertyOp32
 70
     0
102
RTVSPropertyOp33
 70
     0
102
RTVSPropertyOp34
 70
     0
102
RTVSPropertyOp35
 70
     0
102
RTVSPropertyOp36
 70
     0
102
RTVSPropertyOp37
 70
     0
102
RTVSPropertyOp38
 70
     0
102
RTVSPropertyOp39
 70
     0
102
RTVSPropertyOp40
 70
     0
102
RTVSPropertyOp41
 70
     0
102
RTVSPropertyOp42
 70
     0
102
RTVSPropertyOp43
 70
     0
102
RTVSPropertyOp44
 70
     0
102
RTVSPropertyOp45
 70
     0
102
RTVSPropertyOp46
 70
     0
102
RTVSPropertyOp47
 70
     0
102
RTVSPropertyOp48
 70
     0
102
RTVSPropertyOp49
 70
     0
102
RTVSPropertyOp50
 70
     0
102
RTVSPropertyOp51
 70
     0
102
RTVSPropertyOp52
 70
     0
102
RTVSPropertyOp53
 70
     0
102
RTVSPropertyOp54
 70
     0
102
RTVSPropertyOp55
 70
     0
102
RTVSPropertyOp56
 70
     0
102
RTVSPropertyOp57
 70
     0
102
RTVSPost2010Prop28
280
     0
102
RTVSPost2010PropOp28
 70
     0
102
RTVSPost2010Prop29
280
     1
102
RTVSPost2010PropOp29
 70
     0
102
RTVSPost2010Prop30
280
     1
102
RTVSPost2010PropOp30
 70
     0
102
RTVSPost2010Prop31
280
     0
102
RTVSPost2010PropOp31
 70
     0
102
RTVSPost2010Prop32
280
     0
102
RTVSPost2010PropOp32
 70
     0
102
RTVSPost2010Prop33
280
     0
102
RTVSPost2010PropOp33
 70
     0
102
RTVSPost2010Prop34
280
     0
102
RTVSPost2010PropOp34
 70
     0
102
RTVSPost2010Prop35
280
     0
102
RTVSPost2010PropOp35
 70
     0
102
RTVSPost2010Prop36
280
     0
102
RTVSPost2010PropOp36
 70
     0
102
RTVSPost2010Prop37
 90
       50
102
RTVSPost2010PropOp37
 70
     0
102
RTVSPost2010Prop38
140
0.0
102
RTVSPost2010PropOp38
 70
     0
102
RTVSPost2010Prop39
140
1.0
102
RTVSPost2010PropOp39
 70
     0
102
RTVSPost2010Prop40
 90
        0
102
RTVSPost2010PropOp40
 70
     0
102
RTVSPost2010Prop41ColorIndex
 90
      178
102
RTVSPost2010Prop41ColorRGB
 90
        0
102
RTVSPost2010PropOp41
 70
     0
102
RTVSPost2010Prop42
 90
       50
102
RTVSPost2010PropOp42
 70
     0
102
RTVSPost2010Prop43
 90
        3
102
RTVSPost2010PropOp43
 70
     0
102
RTVSPost2010Prop44ColorIndex
 90
        5
102
RTVSPost2010Prop44ColorRGB
 90
      255
102
RTVSPost2010PropOp44
 70
     0
102
RTVSPost2010Prop45
280
     0
102
RTVSPost2010PropOp45
 70
     0
102
RTVSPost2010Prop46
 90
       50
102
RTVSPost2010PropOp46
 70
     0
102
RTVSPost2010Prop47
 90
       50
102
RTVSPost2010PropOp47
 70
     0
102
RTVSPost2010Prop48
 90
       50
102
RTVSPost2010PropOp48
 70
     0
102
RTVSPost2010Prop49
280
     0
102
RTVSPost2010PropOp49
 70
     0
102
RTVSPost2010Prop50
 90
       50
102
RTVSPost2010PropOp50
 70
     0
102
RTVSPost2010Prop51ColorIndex
 90
      256
102
RTVSPost2010Prop51ColorRGB
 90
-16777216
102
RTVSPost2010PropOp51
 70
     0
102
RTVSPost2010Prop52
140
1.0
102
RTVSPost2010PropOp52
 70
     0
102
RTVSPost2010Prop53
 90
        2
102
RTVSPost2010PropOp53
 70
     0
102
RTVSPost2010Prop54
  1
strokes_ogs.tif
102
RTVSPost2010PropOp54
 70
     0
102
RTVSPost2010Prop55
280
     0
102
RTVSPost2010PropOp55
 70
     0
102
RTVSPost2010Prop56
140
1.0
102
RTVSPost2010PropOp56
 70
     0
102
RTVSPost2010Prop57
140
1.0
102
RTVSPost2010PropOp57
 70
     0
  0
XRECORD
  5
3FD
102
{ACAD_REACTORS
330
3FC
102
}
330
3FC
100
AcDbXrecord
280
     1
102
RTVSPropertyOp0
 70
     1
102
RTVSPropertyOp1
 70
     1
102
RTVSPropertyOp2
 70
     1
102
RTVSPropertyOp3
 70
     1
102
RTVSPropertyOp4
 70
     1
102
RTVSPropertyOp5
 70
     1
102
RTVSPropertyOp6
 70
     1
102
RTVSPropertyOp7
 70
     1
102
RTVSPropertyOp8
 70
     1
102
RTVSPropertyOp9
 70
     1
102
RTVSPropertyOp10
 70
     1
102
RTVSPropertyOp11
 70
     1
102
RTVSPropertyOp12
 70
     1
102
RTVSPropertyOp13
 70
     1
102
RTVSPropertyOp14
 70
     1
102
RTVSPropertyOp15
 70
     1
102
RTVSPropertyOp16
 70
     1
102
RTVSPropertyOp17
 70
     1
102
RTVSPropertyOp18
 70
     1
102
RTVSPropertyOp19
 70
     1
102
RTVSPropertyOp20
 70
     1
102
RTVSPropertyOp21
 70
     1
102
RTVSPropertyOp22
 70
     1
102
RTVSPropertyOp23
 70
     1
102
RTVSPropertyOp24
 70
     1
102
RTVSPropertyOp25
 70
     1
102
RTVSPropertyOp26
 70
     1
102
RTVSPropertyOp27
 70
     1
102
RTVSPropertyOp28
 70
     1
102
RTVSPropertyOp29
 70
     1
102
RTVSPropertyOp30
 70
     1
102
RTVSPropertyOp31
 70
     1
102
RTVSPropertyOp32
 70
     1
102
RTVSPropertyOp33
 70
     1
102
RTVSPropertyOp34
 70
     1
102
RTVSPropertyOp35
 70
     1
102
RTVSPropertyOp36
 70
     1
102
RTVSPropertyOp37
 70
     1
102
RTVSPropertyOp38
 70
     1
102
RTVSPropertyOp39
 70
     1
102
RTVSPropertyOp40
 70
     1
102
RTVSPropertyOp41
 70
     1
102
RTVSPropertyOp42
 70
     1
102
RTVSPropertyOp43
 70
     1
102
RTVSPropertyOp44
 70
     1
102
RTVSPropertyOp45
 70
     1
102
RTVSPropertyOp46
 70
     1
102
RTVSPropertyOp47
 70
     1
102
RTVSPropertyOp48
 70
     1
102
RTVSPropertyOp49
 70
     1
102
RTVSPropertyOp50
 70
     1
102
RTVSPropertyOp51
 70
     0
102
RTVSPropertyOp52
 70
     0
102
RTVSPropertyOp53
 70
     1
102
RTVSPropertyOp54
 70
     1
102
RTVSPropertyOp55
 70
     1
102
RTVSPropertyOp56
 70
     1
102
RTVSPropertyOp57
 70
     1
102
RTVSPost2010Prop28
280
     0
102
RTVSPost2010PropOp28
 70
     1
102
RTVSPost2010Prop29
280
     1
102
RTVSPost2010PropOp29
 70
     1
102
RTVSPost2010Prop30
280
     1
102
RTVSPost2010PropOp30
 70
     1
102
RTVSPost2010Prop31
280
     0
102
RTVSPost2010PropOp31
 70
     1
102
RTVSPost2010Prop32
280
     0
102
RTVSPost2010PropOp32
 70
     1
102
RTVSPost2010Prop33
280
     0
102
RTVSPost2010PropOp33
 70
     1
102
RTVSPost2010Prop34
280
     0
102
RTVSPost2010PropOp34
 70
     1
102
RTVSPost2010Prop35
280
     0
102
RTVSPost2010PropOp35
 70
     1
102
RTVSPost2010Prop36
280
     0
102
RTVSPost2010PropOp36
 70
     1
102
RTVSPost2010Prop37
 90
       50
102
RTVSPost2010PropOp37
 70
     1
102
RTVSPost2010Prop38
140
0.0
102
RTVSPost2010PropOp38
 70
     1
102
RTVSPost2010Prop39
140
1.0
102
RTVSPost2010PropOp39
 70
     1
102
RTVSPost2010Prop40
 90
        0
102
RTVSPost2010PropOp40
 70
     1
102
RTVSPost2010Prop41ColorIndex
 90
      178
102
RTVSPost2010Prop41ColorRGB
 90
        0
102
RTVSPost2010PropOp41
 70
     1
102
RTVSPost2010Prop42
 90
       50
102
RTVSPost2010PropOp42
 70
     1
102
RTVSPost2010Prop43
 90
        3
102
RTVSPost2010PropOp43
 70
     1
102
RTVSPost2010Prop44ColorIndex
 90
        5
102
RTVSPost2010Prop44ColorRGB
 90
      255
102
RTVSPost2010PropOp44
 70
     1
102
RTVSPost2010Prop45
280
     0
102
RTVSPost2010PropOp45
 70
     1
102
RTVSPost2010Prop46
 90
       50
102
RTVSPost2010PropOp46
 70
     1
102
RTVSPost2010Prop47
 90
       50
102
RTVSPost2010PropOp47
 70
     1
102
RTVSPost2010Prop48
 90
       50
102
RTVSPost2010PropOp48
 70
     1
102
RTVSPost2010Prop49
280
     0
102
RTVSPost2010PropOp49
 70
     1
102
RTVSPost2010Prop50
 90
       50
102
RTVSPost2010PropOp50
 70
     1
102
RTVSPost2010Prop51ColorIndex
 90
      256
102
RTVSPost2010Prop51ColorRGB
 90
-16777216
102
RTVSPost2010PropOp51
 70
     0
102
RTVSPost2010Prop52
140
1.0
102
RTVSPost2010PropOp52
 70
     0
102
RTVSPost2010Prop53
 90
        2
102
RTVSPost2010PropOp53
 70
     1
102
RTVSPost2010Prop54
  1
strokes_ogs.tif
102
RTVSPost2010PropOp54
 70
     1
102
RTVSPost2010Prop55
280
     0
102
RTVSPost2010PropOp55
 70
     1
102
RTVSPost2010Prop56
140
1.0
102
RTVSPost2010PropOp56
 70
     1
102
RTVSPost2010Prop57
140
1.0
102
RTVSPost2010PropOp57
 70
     1
  0
XRECORD
  5
405
102
{ACAD_REACTORS
330
404
102
}
330
404
100
AcDbXrecord
280
     1
102
RTVSPropertyOp0
 70
     0
102
RTVSPropertyOp1
 70
     0
102
RTVSPropertyOp2
 70
     0
102
RTVSPropertyOp3
 70
     0
102
RTVSPropertyOp4
 70
     0
102
RTVSPropertyOp5
 70
     0
102
RTVSPropertyOp6
 70
     0
102
RTVSPropertyOp7
 70
     0
102
RTVSPropertyOp8
 70
     0
102
RTVSPropertyOp9
 70
     0
102
RTVSPropertyOp10
 70
     0
102
RTVSPropertyOp11
 70
     0
102
RTVSPropertyOp12
 70
     0
102
RTVSPropertyOp13
 70
     0
102
RTVSPropertyOp14
 70
     2
102
RTVSPropertyOp15
 70
     0
102
RTVSPropertyOp16
 70
     0
102
RTVSPropertyOp17
 70
     0
102
RTVSPropertyOp18
 70
     0
102
RTVSPropertyOp19
 70
     0
102
RTVSPropertyOp20
 70
     0
102
RTVSPropertyOp21
 70
     0
102
RTVSPropertyOp22
 70
     0
102
RTVSPropertyOp23
 70
     0
102
RTVSPropertyOp24
 70
     0
102
RTVSPropertyOp25
 70
     0
102
RTVSPropertyOp26
 70
     0
102
RTVSPropertyOp27
 70
     0
102
RTVSPropertyOp28
 70
     0
102
RTVSPropertyOp29
 70
     0
102
RTVSPropertyOp30
 70
     0
102
RTVSPropertyOp31
 70
     0
102
RTVSPropertyOp32
 70
     0
102
RTVSPropertyOp33
 70
     0
102
RTVSPropertyOp34
 70
     0
102
RTVSPropertyOp35
 70
     0
102
RTVSPropertyOp36
 70
     0
102
RTVSPropertyOp37
 70
     0
102
RTVSPropertyOp38
 70
     0
102
RTVSPropertyOp39
 70
     0
102
RTVSPropertyOp40
 70
     0
102
RTVSPropertyOp41
 70
     0
102
RTVSPropertyOp42
 70
     0
102
RTVSPropertyOp43
 70
     0
102
RTVSPropertyOp44
 70
     0
102
RTVSPropertyOp45
 70
     0
102
RTVSPropertyOp46
 70
     0
102
RTVSPropertyOp47
 70
     0
102
RTVSPropertyOp48
 70
     0
102
RTVSPropertyOp49
 70
     0
102
RTVSPropertyOp50
 70
     0
102
RTVSPropertyOp51
 70
     0
102
RTVSPropertyOp52
 70
     0
102
RTVSPropertyOp53
 70
     0
102
RTVSPropertyOp54
 70
     0
102
RTVSPropertyOp55
 70
     0
102
RTVSPropertyOp56
 70
     0
102
RTVSPropertyOp57
 70
     0
102
RTVSPost2010Prop28
280
     0
102
RTVSPost2010PropOp28
 70
     0
102
RTVSPost2010Prop29
280
     1
102
RTVSPost2010PropOp29
 70
     0
102
RTVSPost2010Prop30
280
     1
102
RTVSPost2010PropOp30
 70
     0
102
RTVSPost2010Prop31
280
     0
102
RTVSPost2010PropOp31
 70
     0
102
RTVSPost2010Prop32
280
     0
102
RTVSPost2010PropOp32
 70
     0
102
RTVSPost2010Prop33
280
     0
102
RTVSPost2010PropOp33
 70
     0
102
RTVSPost2010Prop34
280
     0
102
RTVSPost2010PropOp34
 70
     0
102
RTVSPost2010Prop35
280
     0
102
RTVSPost2010PropOp35
 70
     0
102
RTVSPost2010Prop36
280
     0
102
RTVSPost2010PropOp36
 70
     0
102
RTVSPost2010Prop37
 90
       50
102
RTVSPost2010PropOp37
 70
     0
102
RTVSPost2010Prop38
140
0.0
102
RTVSPost2010PropOp38
 70
     0
102
RTVSPost2010Prop39
140
1.0
102
RTVSPost2010PropOp39
 70
     0
102
RTVSPost2010Prop40
 90
        0
102
RTVSPost2010PropOp40
 70
     0
102
RTVSPost2010Prop41ColorIndex
 90
      178
102
RTVSPost2010Prop41ColorRGB
 90
        0
102
RTVSPost2010PropOp41
 70
     0
102
RTVSPost2010Prop42
 90
       50
102
RTVSPost2010PropOp42
 70
     0
102
RTVSPost2010Prop43
 90
        3
102
RTVSPost2010PropOp43
 70
     0
102
RTVSPost2010Prop44ColorIndex
 90
        5
102
RTVSPost2010Prop44ColorRGB
 90
      255
102
RTVSPost2010PropOp44
 70
     0
102
RTVSPost2010Prop45
280
     0
102
RTVSPost2010PropOp45
 70
     0
102
RTVSPost2010Prop46
 90
       50
102
RTVSPost2010PropOp46
 70
     0
102
RTVSPost2010Prop47
 90
       50
102
RTVSPost2010PropOp47
 70
     0
102
RTVSPost2010Prop48
 90
       50
102
RTVSPost2010PropOp48
 70
     0
102
RTVSPost2010Prop49
280
     0
102
RTVSPost2010PropOp49
 70
     0
102
RTVSPost2010Prop50
 90
       50
102
RTVSPost2010PropOp50
 70
     0
102
RTVSPost2010Prop51ColorIndex
 90
      256
102
RTVSPost2010Prop51ColorRGB
 90
-16777216
102
RTVSPost2010PropOp51
 70
     0
102
RTVSPost2010Prop52
140
1.0
102
RTVSPost2010PropOp52
 70
     0
102
RTVSPost2010Prop53
 90
        2
102
RTVSPost2010PropOp53
 70
     0
102
RTVSPost2010Prop54
  1
strokes_ogs.tif
102
RTVSPost2010PropOp54
 70
     0
102
RTVSPost2010Prop55
280
     0
102
RTVSPost2010PropOp55
 70
     0
102
RTVSPost2010Prop56
140
1.0
102
RTVSPost2010PropOp56
 70
     0
102
RTVSPost2010Prop57
140
1.0
102
RTVSPost2010PropOp57
 70
     0
  0
XRECORD
  5
3F3
102
{ACAD_REACTORS
330
3F2
102
}
330
3F2
100
AcDbXrecord
280
     1
102
RTVSPropertyOp0
 70
     1
102
RTVSPropertyOp1
 70
     1
102
RTVSPropertyOp2
 70
     1
102
RTVSPropertyOp3
 70
     1
102
RTVSPropertyOp4
 70
     1
102
RTVSPropertyOp5
 70
     1
102
RTVSPropertyOp6
 70
     1
102
RTVSPropertyOp7
 70
     1
102
RTVSPropertyOp8
 70
     1
102
RTVSPropertyOp9
 70
     1
102
RTVSPropertyOp10
 70
     1
102
RTVSPropertyOp11
 70
     1
102
RTVSPropertyOp12
 70
     1
102
RTVSPropertyOp13
 70
     1
102
RTVSPropertyOp14
 70
     1
102
RTVSPropertyOp15
 70
     1
102
RTVSPropertyOp16
 70
     1
102
RTVSPropertyOp17
 70
     1
102
RTVSPropertyOp18
 70
     1
102
RTVSPropertyOp19
 70
     1
102
RTVSPropertyOp20
 70
     1
102
RTVSPropertyOp21
 70
     1
102
RTVSPropertyOp22
 70
     1
102
RTVSPropertyOp23
 70
     1
102
RTVSPropertyOp24
 70
     1
102
RTVSPropertyOp25
 70
     1
102
RTVSPropertyOp26
 70
     1
102
RTVSPropertyOp27
 70
     1
102
RTVSPropertyOp28
 70
     1
102
RTVSPropertyOp29
 70
     1
102
RTVSPropertyOp30
 70
     1
102
RTVSPropertyOp31
 70
     1
102
RTVSPropertyOp32
 70
     1
102
RTVSPropertyOp33
 70
     1
102
RTVSPropertyOp34
 70
     1
102
RTVSPropertyOp35
 70
     1
102
RTVSPropertyOp36
 70
     1
102
RTVSPropertyOp37
 70
     1
102
RTVSPropertyOp38
 70
     1
102
RTVSPropertyOp39
 70
     1
102
RTVSPropertyOp40
 70
     1
102
RTVSPropertyOp41
 70
     1
102
RTVSPropertyOp42
 70
     1
102
RTVSPropertyOp43
 70
     1
102
RTVSPropertyOp44
 70
     1
102
RTVSPropertyOp45
 70
     1
102
RTVSPropertyOp46
 70
     1
102
RTVSPropertyOp47
 70
     1
102
RTVSPropertyOp48
 70
     1
102
RTVSPropertyOp49
 70
     1
102
RTVSPropertyOp50
 70
     1
102
RTVSPropertyOp51
 70
     0
102
RTVSPropertyOp52
 70
     0
102
RTVSPropertyOp53
 70
     1
102
RTVSPropertyOp54
 70
     1
102
RTVSPropertyOp55
 70
     1
102
RTVSPropertyOp56
 70
     1
102
RTVSPropertyOp57
 70
     1
102
RTVSPost2010Prop28
280
     0
102
RTVSPost2010PropOp28
 70
     1
102
RTVSPost2010Prop29
280
     1
102
RTVSPost2010PropOp29
 70
     1
102
RTVSPost2010Prop30
280
     1
102
RTVSPost2010PropOp30
 70
     1
102
RTVSPost2010Prop31
280
     0
102
RTVSPost2010PropOp31
 70
     1
102
RTVSPost2010Prop32
280
     0
102
RTVSPost2010PropOp32
 70
     1
102
RTVSPost2010Prop33
280
     0
102
RTVSPost2010PropOp33
 70
     1
102
RTVSPost2010Prop34
280
     0
102
RTVSPost2010PropOp34
 70
     1
102
RTVSPost2010Prop35
280
     0
102
RTVSPost2010PropOp35
 70
     1
102
RTVSPost2010Prop36
280
     0
102
RTVSPost2010PropOp36
 70
     1
102
RTVSPost2010Prop37
 90
       50
102
RTVSPost2010PropOp37
 70
     1
102
RTVSPost2010Prop38
140
0.0
102
RTVSPost2010PropOp38
 70
     1
102
RTVSPost2010Prop39
140
1.0
102
RTVSPost2010PropOp39
 70
     1
102
RTVSPost2010Prop40
 90
        0
102
RTVSPost2010PropOp40
 70
     1
102
RTVSPost2010Prop41ColorIndex
 90
      178
102
RTVSPost2010Prop41ColorRGB
 90
        0
102
RTVSPost2010PropOp41
 70
     1
102
RTVSPost2010Prop42
 90
       50
102
RTVSPost2010PropOp42
 70
     1
102
RTVSPost2010Prop43
 90
        3
102
RTVSPost2010PropOp43
 70
     1
102
RTVSPost2010Prop44ColorIndex
 90
        5
102
RTVSPost2010Prop44ColorRGB
 90
      255
102
RTVSPost2010PropOp44
 70
     1
102
RTVSPost2010Prop45
280
     0
102
RTVSPost2010PropOp45
 70
     1
102
RTVSPost2010Prop46
 90
       50
102
RTVSPost2010PropOp46
 70
     1
102
RTVSPost2010Prop47
 90
       50
102
RTVSPost2010PropOp47
 70
     1
102
RTVSPost2010Prop48
 90
       50
102
RTVSPost2010PropOp48
 70
     1
102
RTVSPost2010Prop49
280
     0
102
RTVSPost2010PropOp49
 70
     1
102
RTVSPost2010Prop50
 90
       50
102
RTVSPost2010PropOp50
 70
     1
102
RTVSPost2010Prop51ColorIndex
 90
      256
102
RTVSPost2010Prop51ColorRGB
 90
-16777216
102
RTVSPost2010PropOp51
 70
     0
102
RTVSPost2010Prop52
140
1.0
102
RTVSPost2010PropOp52
 70
     0
102
RTVSPost2010Prop53
 90
        2
102
RTVSPost2010PropOp53
 70
     1
102
RTVSPost2010Prop54
  1
strokes_ogs.tif
102
RTVSPost2010PropOp54
 70
     1
102
RTVSPost2010Prop55
280
     0
102
RTVSPost2010PropOp55
 70
     1
102
RTVSPost2010Prop56
140
1.0
102
RTVSPost2010PropOp56
 70
     1
102
RTVSPost2010Prop57
140
1.0
102
RTVSPost2010PropOp57
 70
     1
  0
XRECORD
  5
411
102
{ACAD_REACTORS
330
410
102
}
330
410
100
AcDbXrecord
280
     1
102
RTVSPropertyOp0
 70
     1
102
RTVSPropertyOp1
 70
     1
102
RTVSPropertyOp2
 70
     1
102
RTVSPropertyOp3
 70
     1
102
RTVSPropertyOp4
 70
     1
102
RTVSPropertyOp5
 70
     1
102
RTVSPropertyOp6
 70
     1
102
RTVSPropertyOp7
 70
     1
102
RTVSPropertyOp8
 70
     1
102
RTVSPropertyOp9
 70
     1
102
RTVSPropertyOp10
 70
     1
102
RTVSPropertyOp11
 70
     1
102
RTVSPropertyOp12
 70
     1
102
RTVSPropertyOp13
 70
     1
102
RTVSPropertyOp14
 70
     1
102
RTVSPropertyOp15
 70
     1
102
RTVSPropertyOp16
 70
     1
102
RTVSPropertyOp17
 70
     1
102
RTVSPropertyOp18
 70
     1
102
RTVSPropertyOp19
 70
     1
102
RTVSPropertyOp20
 70
     1
102
RTVSPropertyOp21
 70
     1
102
RTVSPropertyOp22
 70
     1
102
RTVSPropertyOp23
 70
     1
102
RTVSPropertyOp24
 70
     1
102
RTVSPropertyOp25
 70
     1
102
RTVSPropertyOp26
 70
     1
102
RTVSPropertyOp27
 70
     1
102
RTVSPropertyOp28
 70
     1
102
RTVSPropertyOp29
 70
     1
102
RTVSPropertyOp30
 70
     1
102
RTVSPropertyOp31
 70
     1
102
RTVSPropertyOp32
 70
     1
102
RTVSPropertyOp33
 70
     1
102
RTVSPropertyOp34
 70
     1
102
RTVSPropertyOp35
 70
     1
102
RTVSPropertyOp36
 70
     1
102
RTVSPropertyOp37
 70
     1
102
RTVSPropertyOp38
 70
     1
102
RTVSPropertyOp39
 70
     1
102
RTVSPropertyOp40
 70
     1
102
RTVSPropertyOp41
 70
     1
102
RTVSPropertyOp42
 70
     1
102
RTVSPropertyOp43
 70
     1
102
RTVSPropertyOp44
 70
     1
102
RTVSPropertyOp45
 70
     1
102
RTVSPropertyOp46
 70
     1
102
RTVSPropertyOp47
 70
     1
102
RTVSPropertyOp48
 70
     1
102
RTVSPropertyOp49
 70
     1
102
RTVSPropertyOp50
 70
     1
102
RTVSPropertyOp51
 70
     0
102
RTVSPropertyOp52
 70
     0
102
RTVSPropertyOp53
 70
     1
102
RTVSPropertyOp54
 70
     1
102
RTVSPropertyOp55
 70
     1
102
RTVSPropertyOp56
 70
     1
102
RTVSPropertyOp57
 70
     1
102
RTVSPost2010Prop28
280
     0
102
RTVSPost2010PropOp28
 70
     1
102
RTVSPost2010Prop29
280
     1
102
RTVSPost2010PropOp29
 70
     1
102
RTVSPost2010Prop30
280
     1
102
RTVSPost2010PropOp30
 70
     1
102
RTVSPost2010Prop31
280
     0
102
RTVSPost2010PropOp31
 70
     1
102
RTVSPost2010Prop32
280
     0
102
RTVSPost2010PropOp32
 70
     1
102
RTVSPost2010Prop33
280
     0
102
RTVSPost2010PropOp33
 70
     1
102
RTVSPost2010Prop34
280
     0
102
RTVSPost2010PropOp34
 70
     1
102
RTVSPost2010Prop35
280
     0
102
RTVSPost2010PropOp35
 70
     1
102
RTVSPost2010Prop36
280
     0
102
RTVSPost2010PropOp36
 70
     1
102
RTVSPost2010Prop37
 90
       50
102
RTVSPost2010PropOp37
 70
     1
102
RTVSPost2010Prop38
140
0.0
102
RTVSPost2010PropOp38
 70
     1
102
RTVSPost2010Prop39
140
1.0
102
RTVSPost2010PropOp39
 70
     1
102
RTVSPost2010Prop40
 90
        0
102
RTVSPost2010PropOp40
 70
     1
102
RTVSPost2010Prop41ColorIndex
 90
      178
102
RTVSPost2010Prop41ColorRGB
 90
        0
102
RTVSPost2010PropOp41
 70
     1
102
RTVSPost2010Prop42
 90
       50
102
RTVSPost2010PropOp42
 70
     1
102
RTVSPost2010Prop43
 90
        3
102
RTVSPost2010PropOp43
 70
     1
102
RTVSPost2010Prop44ColorIndex
 90
        5
102
RTVSPost2010Prop44ColorRGB
 90
      255
102
RTVSPost2010PropOp44
 70
     1
102
RTVSPost2010Prop45
280
     0
102
RTVSPost2010PropOp45
 70
     1
102
RTVSPost2010Prop46
 90
       50
102
RTVSPost2010PropOp46
 70
     1
102
RTVSPost2010Prop47
 90
       50
102
RTVSPost2010PropOp47
 70
     1
102
RTVSPost2010Prop48
 90
       50
102
RTVSPost2010PropOp48
 70
     1
102
RTVSPost2010Prop49
280
     0
102
RTVSPost2010PropOp49
 70
     1
102
RTVSPost2010Prop50
 90
       50
102
RTVSPost2010PropOp50
 70
     1
102
RTVSPost2010Prop51ColorIndex
 90
      256
102
RTVSPost2010Prop51ColorRGB
 90
-16777216
102
RTVSPost2010PropOp51
 70
     0
102
RTVSPost2010Prop52
140
1.0
102
RTVSPost2010PropOp52
 70
     0
102
RTVSPost2010Prop53
 90
        2
102
RTVSPost2010PropOp53
 70
     1
102
RTVSPost2010Prop54
  1
strokes_ogs.tif
102
RTVSPost2010PropOp54
 70
     1
102
RTVSPost2010Prop55
280
     0
102
RTVSPost2010PropOp55
 70
     1
102
RTVSPost2010Prop56
140
1.0
102
RTVSPost2010PropOp56
 70
     1
102
RTVSPost2010Prop57
140
1.0
102
RTVSPost2010PropOp57
 70
     1
  0
XRECORD
  5
40F
102
{ACAD_REACTORS
330
40E
102
}
330
40E
100
AcDbXrecord
280
     1
102
RTVSPropertyOp0
 70
     1
102
RTVSPropertyOp1
 70
     1
102
RTVSPropertyOp2
 70
     1
102
RTVSPropertyOp3
 70
     1
102
RTVSPropertyOp4
 70
     1
102
RTVSPropertyOp5
 70
     1
102
RTVSPropertyOp6
 70
     1
102
RTVSPropertyOp7
 70
     1
102
RTVSPropertyOp8
 70
     1
102
RTVSPropertyOp9
 70
     1
102
RTVSPropertyOp10
 70
     1
102
RTVSPropertyOp11
 70
     1
102
RTVSPropertyOp12
 70
     1
102
RTVSPropertyOp13
 70
     1
102
RTVSPropertyOp14
 70
     1
102
RTVSPropertyOp15
 70
     1
102
RTVSPropertyOp16
 70
     1
102
RTVSPropertyOp17
 70
     1
102
RTVSPropertyOp18
 70
     1
102
RTVSPropertyOp19
 70
     1
102
RTVSPropertyOp20
 70
     1
102
RTVSPropertyOp21
 70
     1
102
RTVSPropertyOp22
 70
     1
102
RTVSPropertyOp23
 70
     1
102
RTVSPropertyOp24
 70
     1
102
RTVSPropertyOp25
 70
     1
102
RTVSPropertyOp26
 70
     1
102
RTVSPropertyOp27
 70
     1
102
RTVSPropertyOp28
 70
     1
102
RTVSPropertyOp29
 70
     1
102
RTVSPropertyOp30
 70
     1
102
RTVSPropertyOp31
 70
     1
102
RTVSPropertyOp32
 70
     1
102
RTVSPropertyOp33
 70
     1
102
RTVSPropertyOp34
 70
     1
102
RTVSPropertyOp35
 70
     1
102
RTVSPropertyOp36
 70
     1
102
RTVSPropertyOp37
 70
     1
102
RTVSPropertyOp38
 70
     1
102
RTVSPropertyOp39
 70
     1
102
RTVSPropertyOp40
 70
     1
102
RTVSPropertyOp41
 70
     1
102
RTVSPropertyOp42
 70
     1
102
RTVSPropertyOp43
 70
     1
102
RTVSPropertyOp44
 70
     1
102
RTVSPropertyOp45
 70
     1
102
RTVSPropertyOp46
 70
     1
102
RTVSPropertyOp47
 70
     1
102
RTVSPropertyOp48
 70
     1
102
RTVSPropertyOp49
 70
     1
102
RTVSPropertyOp50
 70
     1
102
RTVSPropertyOp51
 70
     0
102
RTVSPropertyOp52
 70
     0
102
RTVSPropertyOp53
 70
     1
102
RTVSPropertyOp54
 70
     1
102
RTVSPropertyOp55
 70
     1
102
RTVSPropertyOp56
 70
     1
102
RTVSPropertyOp57
 70
     1
102
RTVSPost2010Prop28
280
     0
102
RTVSPost2010PropOp28
 70
     1
102
RTVSPost2010Prop29
280
     1
102
RTVSPost2010PropOp29
 70
     1
102
RTVSPost2010Prop30
280
     1
102
RTVSPost2010PropOp30
 70
     1
102
RTVSPost2010Prop31
280
     0
102
RTVSPost2010PropOp31
 70
     1
102
RTVSPost2010Prop32
280
     0
102
RTVSPost2010PropOp32
 70
     1
102
RTVSPost2010Prop33
280
     0
102
RTVSPost2010PropOp33
 70
     1
102
RTVSPost2010Prop34
280
     0
102
RTVSPost2010PropOp34
 70
     1
102
RTVSPost2010Prop35
280
     0
102
RTVSPost2010PropOp35
 70
     1
102
RTVSPost2010Prop36
280
     0
102
RTVSPost2010PropOp36
 70
     1
102
RTVSPost2010Prop37
 90
       50
102
RTVSPost2010PropOp37
 70
     1
102
RTVSPost2010Prop38
140
0.0
102
RTVSPost2010PropOp38
 70
     1
102
RTVSPost2010Prop39
140
1.0
102
RTVSPost2010PropOp39
 70
     1
102
RTVSPost2010Prop40
 90
        0
102
RTVSPost2010PropOp40
 70
     1
102
RTVSPost2010Prop41ColorIndex
 90
      178
102
RTVSPost2010Prop41ColorRGB
 90
        0
102
RTVSPost2010PropOp41
 70
     1
102
RTVSPost2010Prop42
 90
       50
102
RTVSPost2010PropOp42
 70
     1
102
RTVSPost2010Prop43
 90
        3
102
RTVSPost2010PropOp43
 70
     1
102
RTVSPost2010Prop44ColorIndex
 90
        5
102
RTVSPost2010Prop44ColorRGB
 90
      255
102
RTVSPost2010PropOp44
 70
     1
102
RTVSPost2010Prop45
280
     0
102
RTVSPost2010PropOp45
 70
     1
102
RTVSPost2010Prop46
 90
       50
102
RTVSPost2010PropOp46
 70
     1
102
RTVSPost2010Prop47
 90
       50
102
RTVSPost2010PropOp47
 70
     1
102
RTVSPost2010Prop48
 90
       50
102
RTVSPost2010PropOp48
 70
     1
102
RTVSPost2010Prop49
280
     0
102
RTVSPost2010PropOp49
 70
     1
102
RTVSPost2010Prop50
 90
       50
102
RTVSPost2010PropOp50
 70
     1
102
RTVSPost2010Prop51ColorIndex
 90
      256
102
RTVSPost2010Prop51ColorRGB
 90
-16777216
102
RTVSPost2010PropOp51
 70
     0
102
RTVSPost2010Prop52
140
1.0
102
RTVSPost2010PropOp52
 70
     0
102
RTVSPost2010Prop53
 90
        2
102
RTVSPost2010PropOp53
 70
     1
102
RTVSPost2010Prop54
  1
strokes_ogs.tif
102
RTVSPost2010PropOp54
 70
     1
102
RTVSPost2010Prop55
280
     0
102
RTVSPost2010PropOp55
 70
     1
102
RTVSPost2010Prop56
140
1.0
102
RTVSPost2010PropOp56
 70
     1
102
RTVSPost2010Prop57
140
1.0
102
RTVSPost2010PropOp57
 70
     1
  0
XRECORD
  5
409
102
{ACAD_REACTORS
330
408
102
}
330
408
100
AcDbXrecord
280
     1
102
RTVSPropertyOp0
 70
     1
102
RTVSPropertyOp1
 70
     1
102
RTVSPropertyOp2
 70
     1
102
RTVSPropertyOp3
 70
     1
102
RTVSPropertyOp4
 70
     1
102
RTVSPropertyOp5
 70
     1
102
RTVSPropertyOp6
 70
     1
102
RTVSPropertyOp7
 70
     1
102
RTVSPropertyOp8
 70
     1
102
RTVSPropertyOp9
 70
     1
102
RTVSPropertyOp10
 70
     1
102
RTVSPropertyOp11
 70
     1
102
RTVSPropertyOp12
 70
     1
102
RTVSPropertyOp13
 70
     1
102
RTVSPropertyOp14
 70
     1
102
RTVSPropertyOp15
 70
     1
102
RTVSPropertyOp16
 70
     1
102
RTVSPropertyOp17
 70
     1
102
RTVSPropertyOp18
 70
     1
102
RTVSPropertyOp19
 70
     1
102
RTVSPropertyOp20
 70
     1
102
RTVSPropertyOp21
 70
     1
102
RTVSPropertyOp22
 70
     1
102
RTVSPropertyOp23
 70
     1
102
RTVSPropertyOp24
 70
     1
102
RTVSPropertyOp25
 70
     1
102
RTVSPropertyOp26
 70
     1
102
RTVSPropertyOp27
 70
     1
102
RTVSPropertyOp28
 70
     1
102
RTVSPropertyOp29
 70
     1
102
RTVSPropertyOp30
 70
     1
102
RTVSPropertyOp31
 70
     1
102
RTVSPropertyOp32
 70
     1
102
RTVSPropertyOp33
 70
     1
102
RTVSPropertyOp34
 70
     1
102
RTVSPropertyOp35
 70
     1
102
RTVSPropertyOp36
 70
     1
102
RTVSPropertyOp37
 70
     1
102
RTVSPropertyOp38
 70
     1
102
RTVSPropertyOp39
 70
     1
102
RTVSPropertyOp40
 70
     1
102
RTVSPropertyOp41
 70
     1
102
RTVSPropertyOp42
 70
     1
102
RTVSPropertyOp43
 70
     1
102
RTVSPropertyOp44
 70
     1
102
RTVSPropertyOp45
 70
     1
102
RTVSPropertyOp46
 70
     1
102
RTVSPropertyOp47
 70
     1
102
RTVSPropertyOp48
 70
     1
102
RTVSPropertyOp49
 70
     1
102
RTVSPropertyOp50
 70
     1
102
RTVSPropertyOp51
 70
     0
102
RTVSPropertyOp52
 70
     0
102
RTVSPropertyOp53
 70
     1
102
RTVSPropertyOp54
 70
     1
102
RTVSPropertyOp55
 70
     1
102
RTVSPropertyOp56
 70
     1
102
RTVSPropertyOp57
 70
     1
102
RTVSPost2010Prop28
280
     0
102
RTVSPost2010PropOp28
 70
     1
102
RTVSPost2010Prop29
280
     1
102
RTVSPost2010PropOp29
 70
     1
102
RTVSPost2010Prop30
280
     1
102
RTVSPost2010PropOp30
 70
     1
102
RTVSPost2010Prop31
280
     0
102
RTVSPost2010PropOp31
 70
     1
102
RTVSPost2010Prop32
280
     0
102
RTVSPost2010PropOp32
 70
     1
102
RTVSPost2010Prop33
280
     0
102
RTVSPost2010PropOp33
 70
     1
102
RTVSPost2010Prop34
280
     0
102
RTVSPost2010PropOp34
 70
     1
102
RTVSPost2010Prop35
280
     0
102
RTVSPost2010PropOp35
 70
     1
102
RTVSPost2010Prop36
280
     0
102
RTVSPost2010PropOp36
 70
     1
102
RTVSPost2010Prop37
 90
       50
102
RTVSPost2010PropOp37
 70
     1
102
RTVSPost2010Prop38
140
0.0
102
RTVSPost2010PropOp38
 70
     1
102
RTVSPost2010Prop39
140
1.0
102
RTVSPost2010PropOp39
 70
     1
102
RTVSPost2010Prop40
 90
        0
102
RTVSPost2010PropOp40
 70
     1
102
RTVSPost2010Prop41ColorIndex
 90
      178
102
RTVSPost2010Prop41ColorRGB
 90
        0
102
RTVSPost2010PropOp41
 70
     1
102
RTVSPost2010Prop42
 90
       50
102
RTVSPost2010PropOp42
 70
     1
102
RTVSPost2010Prop43
 90
        3
102
RTVSPost2010PropOp43
 70
     1
102
RTVSPost2010Prop44ColorIndex
 90
        5
102
RTVSPost2010Prop44ColorRGB
 90
      255
102
RTVSPost2010PropOp44
 70
     1
102
RTVSPost2010Prop45
280
     0
102
RTVSPost2010PropOp45
 70
     1
102
RTVSPost2010Prop46
 90
       50
102
RTVSPost2010PropOp46
 70
     1
102
RTVSPost2010Prop47
 90
       50
102
RTVSPost2010PropOp47
 70
     1
102
RTVSPost2010Prop48
 90
       50
102
RTVSPost2010PropOp48
 70
     1
102
RTVSPost2010Prop49
280
     0
102
RTVSPost2010PropOp49
 70
     1
102
RTVSPost2010Prop50
 90
       50
102
RTVSPost2010PropOp50
 70
     1
102
RTVSPost2010Prop51ColorIndex
 90
      256
102
RTVSPost2010Prop51ColorRGB
 90
-16777216
102
RTVSPost2010PropOp51
 70
     0
102
RTVSPost2010Prop52
140
1.0
102
RTVSPost2010PropOp52
 70
     0
102
RTVSPost2010Prop53
 90
        2
102
RTVSPost2010PropOp53
 70
     1
102
RTVSPost2010Prop54
  1
strokes_ogs.tif
102
RTVSPost2010PropOp54
 70
     1
102
RTVSPost2010Prop55
280
     0
102
RTVSPost2010PropOp55
 70
     1
102
RTVSPost2010Prop56
140
1.0
102
RTVSPost2010PropOp56
 70
     1
102
RTVSPost2010Prop57
140
1.0
102
RTVSPost2010PropOp57
 70
     1
  0
XRECORD
  5
40B
102
{ACAD_REACTORS
330
40A
102
}
330
40A
100
AcDbXrecord
280
     1
102
RTVSPropertyOp0
 70
     1
102
RTVSPropertyOp1
 70
     1
102
RTVSPropertyOp2
 70
     1
102
RTVSPropertyOp3
 70
     1
102
RTVSPropertyOp4
 70
     1
102
RTVSPropertyOp5
 70
     1
102
RTVSPropertyOp6
 70
     1
102
RTVSPropertyOp7
 70
     1
102
RTVSPropertyOp8
 70
     1
102
RTVSPropertyOp9
 70
     1
102
RTVSPropertyOp10
 70
     1
102
RTVSPropertyOp11
 70
     1
102
RTVSPropertyOp12
 70
     1
102
RTVSPropertyOp13
 70
     1
102
RTVSPropertyOp14
 70
     1
102
RTVSPropertyOp15
 70
     1
102
RTVSPropertyOp16
 70
     1
102
RTVSPropertyOp17
 70
     1
102
RTVSPropertyOp18
 70
     1
102
RTVSPropertyOp19
 70
     1
102
RTVSPropertyOp20
 70
     1
102
RTVSPropertyOp21
 70
     1
102
RTVSPropertyOp22
 70
     1
102
RTVSPropertyOp23
 70
     1
102
RTVSPropertyOp24
 70
     1
102
RTVSPropertyOp25
 70
     1
102
RTVSPropertyOp26
 70
     1
102
RTVSPropertyOp27
 70
     1
102
RTVSPropertyOp28
 70
     1
102
RTVSPropertyOp29
 70
     1
102
RTVSPropertyOp30
 70
     1
102
RTVSPropertyOp31
 70
     1
102
RTVSPropertyOp32
 70
     1
102
RTVSPropertyOp33
 70
     1
102
RTVSPropertyOp34
 70
     1
102
RTVSPropertyOp35
 70
     1
102
RTVSPropertyOp36
 70
     1
102
RTVSPropertyOp37
 70
     1
102
RTVSPropertyOp38
 70
     1
102
RTVSPropertyOp39
 70
     1
102
RTVSPropertyOp40
 70
     1
102
RTVSPropertyOp41
 70
     1
102
RTVSPropertyOp42
 70
     1
102
RTVSPropertyOp43
 70
     1
102
RTVSPropertyOp44
 70
     1
102
RTVSPropertyOp45
 70
     1
102
RTVSPropertyOp46
 70
     1
102
RTVSPropertyOp47
 70
     1
102
RTVSPropertyOp48
 70
     1
102
RTVSPropertyOp49
 70
     1
102
RTVSPropertyOp50
 70
     1
102
RTVSPropertyOp51
 70
     0
102
RTVSPropertyOp52
 70
     0
102
RTVSPropertyOp53
 70
     1
102
RTVSPropertyOp54
 70
     1
102
RTVSPropertyOp55
 70
     1
102
RTVSPropertyOp56
 70
     1
102
RTVSPropertyOp57
 70
     1
102
RTVSPost2010Prop28
280
     0
102
RTVSPost2010PropOp28
 70
     1
102
RTVSPost2010Prop29
280
     1
102
RTVSPost2010PropOp29
 70
     1
102
RTVSPost2010Prop30
280
     1
102
RTVSPost2010PropOp30
 70
     1
102
RTVSPost2010Prop31
280
     0
102
RTVSPost2010PropOp31
 70
     1
102
RTVSPost2010Prop32
280
     0
102
RTVSPost2010PropOp32
 70
     1
102
RTVSPost2010Prop33
280
     0
102
RTVSPost2010PropOp33
 70
     1
102
RTVSPost2010Prop34
280
     0
102
RTVSPost2010PropOp34
 70
     1
102
RTVSPost2010Prop35
280
     0
102
RTVSPost2010PropOp35
 70
     1
102
RTVSPost2010Prop36
280
     0
102
RTVSPost2010PropOp36
 70
     1
102
RTVSPost2010Prop37
 90
       50
102
RTVSPost2010PropOp37
 70
     1
102
RTVSPost2010Prop38
140
0.0
102
RTVSPost2010PropOp38
 70
     1
102
RTVSPost2010Prop39
140
1.0
102
RTVSPost2010PropOp39
 70
     1
102
RTVSPost2010Prop40
 90
        0
102
RTVSPost2010PropOp40
 70
     1
102
RTVSPost2010Prop41ColorIndex
 90
      178
102
RTVSPost2010Prop41ColorRGB
 90
        0
102
RTVSPost2010PropOp41
 70
     1
102
RTVSPost2010Prop42
 90
       50
102
RTVSPost2010PropOp42
 70
     1
102
RTVSPost2010Prop43
 90
        3
102
RTVSPost2010PropOp43
 70
     1
102
RTVSPost2010Prop44ColorIndex
 90
        5
102
RTVSPost2010Prop44ColorRGB
 90
      255
102
RTVSPost2010PropOp44
 70
     1
102
RTVSPost2010Prop45
280
     0
102
RTVSPost2010PropOp45
 70
     1
102
RTVSPost2010Prop46
 90
       50
102
RTVSPost2010PropOp46
 70
     1
102
RTVSPost2010Prop47
 90
       50
102
RTVSPost2010PropOp47
 70
     1
102
RTVSPost2010Prop48
 90
       50
102
RTVSPost2010PropOp48
 70
     1
102
RTVSPost2010Prop49
280
     0
102
RTVSPost2010PropOp49
 70
     1
102
RTVSPost2010Prop50
 90
       50
102
RTVSPost2010PropOp50
 70
     1
102
RTVSPost2010Prop51ColorIndex
 90
      256
102
RTVSPost2010Prop51ColorRGB
 90
-16777216
102
RTVSPost2010PropOp51
 70
     0
102
RTVSPost2010Prop52
140
1.0
102
RTVSPost2010PropOp52
 70
     0
102
RTVSPost2010Prop53
 90
        2
102
RTVSPost2010PropOp53
 70
     1
102
RTVSPost2010Prop54
  1
strokes_ogs.tif
102
RTVSPost2010PropOp54
 70
     1
102
RTVSPost2010Prop55
280
     0
102
RTVSPost2010PropOp55
 70
     1
102
RTVSPost2010Prop56
140
1.0
102
RTVSPost2010PropOp56
 70
     1
102
RTVSPost2010Prop57
140
1.0
102
RTVSPost2010PropOp57
 70
     1
  0
XRECORD
  5
3FB
102
{ACAD_REACTORS
330
3FA
102
}
330
3FA
100
AcDbXrecord
280
     1
102
RTVSPropertyOp0
 70
     1
102
RTVSPropertyOp1
 70
     1
102
RTVSPropertyOp2
 70
     1
102
RTVSPropertyOp3
 70
     1
102
RTVSPropertyOp4
 70
     1
102
RTVSPropertyOp5
 70
     1
102
RTVSPropertyOp6
 70
     1
102
RTVSPropertyOp7
 70
     1
102
RTVSPropertyOp8
 70
     1
102
RTVSPropertyOp9
 70
     1
102
RTVSPropertyOp10
 70
     1
102
RTVSPropertyOp11
 70
     1
102
RTVSPropertyOp12
 70
     1
102
RTVSPropertyOp13
 70
     1
102
RTVSPropertyOp14
 70
     1
102
RTVSPropertyOp15
 70
     1
102
RTVSPropertyOp16
 70
     1
102
RTVSPropertyOp17
 70
     1
102
RTVSPropertyOp18
 70
     1
102
RTVSPropertyOp19
 70
     1
102
RTVSPropertyOp20
 70
     1
102
RTVSPropertyOp21
 70
     1
102
RTVSPropertyOp22
 70
     1
102
RTVSPropertyOp23
 70
     1
102
RTVSPropertyOp24
 70
     1
102
RTVSPropertyOp25
 70
     1
102
RTVSPropertyOp26
 70
     1
102
RTVSPropertyOp27
 70
     1
102
RTVSPropertyOp28
 70
     1
102
RTVSPropertyOp29
 70
     1
102
RTVSPropertyOp30
 70
     1
102
RTVSPropertyOp31
 70
     1
102
RTVSPropertyOp32
 70
     1
102
RTVSPropertyOp33
 70
     1
102
RTVSPropertyOp34
 70
     1
102
RTVSPropertyOp35
 70
     1
102
RTVSPropertyOp36
 70
     1
102
RTVSPropertyOp37
 70
     1
102
RTVSPropertyOp38
 70
     1
102
RTVSPropertyOp39
 70
     1
102
RTVSPropertyOp40
 70
     1
102
RTVSPropertyOp41
 70
     1
102
RTVSPropertyOp42
 70
     1
102
RTVSPropertyOp43
 70
     1
102
RTVSPropertyOp44
 70
     1
102
RTVSPropertyOp45
 70
     1
102
RTVSPropertyOp46
 70
     1
102
RTVSPropertyOp47
 70
     1
102
RTVSPropertyOp48
 70
     1
102
RTVSPropertyOp49
 70
     1
102
RTVSPropertyOp50
 70
     1
102
RTVSPropertyOp51
 70
     0
102
RTVSPropertyOp52
 70
     0
102
RTVSPropertyOp53
 70
     1
102
RTVSPropertyOp54
 70
     1
102
RTVSPropertyOp55
 70
     1
102
RTVSPropertyOp56
 70
     1
102
RTVSPropertyOp57
 70
     1
102
RTVSPost2010Prop28
280
     0
102
RTVSPost2010PropOp28
 70
     1
102
RTVSPost2010Prop29
280
     1
102
RTVSPost2010PropOp29
 70
     1
102
RTVSPost2010Prop30
280
     1
102
RTVSPost2010PropOp30
 70
     1
102
RTVSPost2010Prop31
280
     0
102
RTVSPost2010PropOp31
 70
     1
102
RTVSPost2010Prop32
280
     0
102
RTVSPost2010PropOp32
 70
     1
102
RTVSPost2010Prop33
280
     0
102
RTVSPost2010PropOp33
 70
     1
102
RTVSPost2010Prop34
280
     0
102
RTVSPost2010PropOp34
 70
     1
102
RTVSPost2010Prop35
280
     0
102
RTVSPost2010PropOp35
 70
     1
102
RTVSPost2010Prop36
280
     0
102
RTVSPost2010PropOp36
 70
     1
102
RTVSPost2010Prop37
 90
       50
102
RTVSPost2010PropOp37
 70
     1
102
RTVSPost2010Prop38
140
0.0
102
RTVSPost2010PropOp38
 70
     1
102
RTVSPost2010Prop39
140
1.0
102
RTVSPost2010PropOp39
 70
     1
102
RTVSPost2010Prop40
 90
        0
102
RTVSPost2010PropOp40
 70
     1
102
RTVSPost2010Prop41ColorIndex
 90
      178
102
RTVSPost2010Prop41ColorRGB
 90
        0
102
RTVSPost2010PropOp41
 70
     1
102
RTVSPost2010Prop42
 90
       50
102
RTVSPost2010PropOp42
 70
     1
102
RTVSPost2010Prop43
 90
        3
102
RTVSPost2010PropOp43
 70
     1
102
RTVSPost2010Prop44ColorIndex
 90
        5
102
RTVSPost2010Prop44ColorRGB
 90
      255
102
RTVSPost2010PropOp44
 70
     1
102
RTVSPost2010Prop45
280
     0
102
RTVSPost2010PropOp45
 70
     1
102
RTVSPost2010Prop46
 90
       50
102
RTVSPost2010PropOp46
 70
     1
102
RTVSPost2010Prop47
 90
       50
102
RTVSPost2010PropOp47
 70
     1
102
RTVSPost2010Prop48
 90
       50
102
RTVSPost2010PropOp48
 70
     1
102
RTVSPost2010Prop49
280
     0
102
RTVSPost2010PropOp49
 70
     1
102
RTVSPost2010Prop50
 90
       50
102
RTVSPost2010PropOp50
 70
     1
102
RTVSPost2010Prop51ColorIndex
 90
      256
102
RTVSPost2010Prop51ColorRGB
 90
-16777216
102
RTVSPost2010PropOp51
 70
     0
102
RTVSPost2010Prop52
140
1.0
102
RTVSPost2010PropOp52
 70
     0
102
RTVSPost2010Prop53
 90
        2
102
RTVSPost2010PropOp53
 70
     1
102
RTVSPost2010Prop54
  1
strokes_ogs.tif
102
RTVSPost2010PropOp54
 70
     1
102
RTVSPost2010Prop55
280
     0
102
RTVSPost2010PropOp55
 70
     1
102
RTVSPost2010Prop56
140
1.0
102
RTVSPost2010PropOp56
 70
     1
102
RTVSPost2010Prop57
140
1.0
102
RTVSPost2010PropOp57
 70
     1
  0
XRECORD
  5
3ED
102
{ACAD_REACTORS
330
3EC
102
}
330
3EC
100
AcDbXrecord
280
     1
102
RTVSPropertyOp0
 70
     1
102
RTVSPropertyOp1
 70
     1
102
RTVSPropertyOp2
 70
     1
102
RTVSPropertyOp3
 70
     1
102
RTVSPropertyOp4
 70
     1
102
RTVSPropertyOp5
 70
     1
102
RTVSPropertyOp6
 70
     1
102
RTVSPropertyOp7
 70
     1
102
RTVSPropertyOp8
 70
     1
102
RTVSPropertyOp9
 70
     1
102
RTVSPropertyOp10
 70
     1
102
RTVSPropertyOp11
 70
     1
102
RTVSPropertyOp12
 70
     1
102
RTVSPropertyOp13
 70
     1
102
RTVSPropertyOp14
 70
     1
102
RTVSPropertyOp15
 70
     1
102
RTVSPropertyOp16
 70
     1
102
RTVSPropertyOp17
 70
     1
102
RTVSPropertyOp18
 70
     1
102
RTVSPropertyOp19
 70
     1
102
RTVSPropertyOp20
 70
     1
102
RTVSPropertyOp21
 70
     1
102
RTVSPropertyOp22
 70
     1
102
RTVSPropertyOp23
 70
     1
102
RTVSPropertyOp24
 70
     1
102
RTVSPropertyOp25
 70
     1
102
RTVSPropertyOp26
 70
     1
102
RTVSPropertyOp27
 70
     1
102
RTVSPropertyOp28
 70
     1
102
RTVSPropertyOp29
 70
     1
102
RTVSPropertyOp30
 70
     1
102
RTVSPropertyOp31
 70
     1
102
RTVSPropertyOp32
 70
     1
102
RTVSPropertyOp33
 70
     1
102
RTVSPropertyOp34
 70
     1
102
RTVSPropertyOp35
 70
     1
102
RTVSPropertyOp36
 70
     1
102
RTVSPropertyOp37
 70
     1
102
RTVSPropertyOp38
 70
     1
102
RTVSPropertyOp39
 70
     1
102
RTVSPropertyOp40
 70
     1
102
RTVSPropertyOp41
 70
     1
102
RTVSPropertyOp42
 70
     1
102
RTVSPropertyOp43
 70
     1
102
RTVSPropertyOp44
 70
     1
102
RTVSPropertyOp45
 70
     1
102
RTVSPropertyOp46
 70
     1
102
RTVSPropertyOp47
 70
     1
102
RTVSPropertyOp48
 70
     1
102
RTVSPropertyOp49
 70
     1
102
RTVSPropertyOp50
 70
     1
102
RTVSPropertyOp51
 70
     0
102
RTVSPropertyOp52
 70
     0
102
RTVSPropertyOp53
 70
     1
102
RTVSPropertyOp54
 70
     1
102
RTVSPropertyOp55
 70
     1
102
RTVSPropertyOp56
 70
     1
102
RTVSPropertyOp57
 70
     1
102
RTVSPost2010Prop28
280
     0
102
RTVSPost2010PropOp28
 70
     1
102
RTVSPost2010Prop29
280
     1
102
RTVSPost2010PropOp29
 70
     1
102
RTVSPost2010Prop30
280
     1
102
RTVSPost2010PropOp30
 70
     1
102
RTVSPost2010Prop31
280
     0
102
RTVSPost2010PropOp31
 70
     1
102
RTVSPost2010Prop32
280
     0
102
RTVSPost2010PropOp32
 70
     1
102
RTVSPost2010Prop33
280
     0
102
RTVSPost2010PropOp33
 70
     1
102
RTVSPost2010Prop34
280
     0
102
RTVSPost2010PropOp34
 70
     1
102
RTVSPost2010Prop35
280
     0
102
RTVSPost2010PropOp35
 70
     1
102
RTVSPost2010Prop36
280
     0
102
RTVSPost2010PropOp36
 70
     1
102
RTVSPost2010Prop37
 90
       50
102
RTVSPost2010PropOp37
 70
     1
102
RTVSPost2010Prop38
140
0.0
102
RTVSPost2010PropOp38
 70
     1
102
RTVSPost2010Prop39
140
1.0
102
RTVSPost2010PropOp39
 70
     1
102
RTVSPost2010Prop40
 90
        0
102
RTVSPost2010PropOp40
 70
     1
102
RTVSPost2010Prop41ColorIndex
 90
      178
102
RTVSPost2010Prop41ColorRGB
 90
        0
102
RTVSPost2010PropOp41
 70
     1
102
RTVSPost2010Prop42
 90
       50
102
RTVSPost2010PropOp42
 70
     1
102
RTVSPost2010Prop43
 90
        3
102
RTVSPost2010PropOp43
 70
     1
102
RTVSPost2010Prop44ColorIndex
 90
        5
102
RTVSPost2010Prop44ColorRGB
 90
      255
102
RTVSPost2010PropOp44
 70
     1
102
RTVSPost2010Prop45
280
     0
102
RTVSPost2010PropOp45
 70
     1
102
RTVSPost2010Prop46
 90
       50
102
RTVSPost2010PropOp46
 70
     1
102
RTVSPost2010Prop47
 90
       50
102
RTVSPost2010PropOp47
 70
     1
102
RTVSPost2010Prop48
 90
       50
102
RTVSPost2010PropOp48
 70
     1
102
RTVSPost2010Prop49
280
     0
102
RTVSPost2010PropOp49
 70
     1
102
RTVSPost2010Prop50
 90
       50
102
RTVSPost2010PropOp50
 70
     1
102
RTVSPost2010Prop51ColorIndex
 90
      256
102
RTVSPost2010Prop51ColorRGB
 90
-16777216
102
RTVSPost2010PropOp51
 70
     0
102
RTVSPost2010Prop52
140
1.0
102
RTVSPost2010PropOp52
 70
     0
102
RTVSPost2010Prop53
 90
        2
102
RTVSPost2010PropOp53
 70
     1
102
RTVSPost2010Prop54
  1
strokes_ogs.tif
102
RTVSPost2010PropOp54
 70
     1
102
RTVSPost2010Prop55
280
     0
102
RTVSPost2010PropOp55
 70
     1
102
RTVSPost2010Prop56
140
1.0
102
RTVSPost2010PropOp56
 70
     1
102
RTVSPost2010Prop57
140
1.0
102
RTVSPost2010PropOp57
 70
     1
  0
XRECORD
  5
40D
102
{ACAD_REACTORS
330
40C
102
}
330
40C
100
AcDbXrecord
280
     1
102
RTVSPropertyOp0
 70
     1
102
RTVSPropertyOp1
 70
     1
102
RTVSPropertyOp2
 70
     1
102
RTVSPropertyOp3
 70
     1
102
RTVSPropertyOp4
 70
     1
102
RTVSPropertyOp5
 70
     1
102
RTVSPropertyOp6
 70
     1
102
RTVSPropertyOp7
 70
     1
102
RTVSPropertyOp8
 70
     1
102
RTVSPropertyOp9
 70
     1
102
RTVSPropertyOp10
 70
     1
102
RTVSPropertyOp11
 70
     1
102
RTVSPropertyOp12
 70
     1
102
RTVSPropertyOp13
 70
     1
102
RTVSPropertyOp14
 70
     1
102
RTVSPropertyOp15
 70
     1
102
RTVSPropertyOp16
 70
     1
102
RTVSPropertyOp17
 70
     1
102
RTVSPropertyOp18
 70
     1
102
RTVSPropertyOp19
 70
     1
102
RTVSPropertyOp20
 70
     1
102
RTVSPropertyOp21
 70
     1
102
RTVSPropertyOp22
 70
     1
102
RTVSPropertyOp23
 70
     1
102
RTVSPropertyOp24
 70
     1
102
RTVSPropertyOp25
 70
     1
102
RTVSPropertyOp26
 70
     1
102
RTVSPropertyOp27
 70
     1
102
RTVSPropertyOp28
 70
     1
102
RTVSPropertyOp29
 70
     1
102
RTVSPropertyOp30
 70
     1
102
RTVSPropertyOp31
 70
     1
102
RTVSPropertyOp32
 70
     1
102
RTVSPropertyOp33
 70
     1
102
RTVSPropertyOp34
 70
     1
102
RTVSPropertyOp35
 70
     1
102
RTVSPropertyOp36
 70
     1
102
RTVSPropertyOp37
 70
     1
102
RTVSPropertyOp38
 70
     1
102
RTVSPropertyOp39
 70
     1
102
RTVSPropertyOp40
 70
     1
102
RTVSPropertyOp41
 70
     1
102
RTVSPropertyOp42
 70
     1
102
RTVSPropertyOp43
 70
     1
102
RTVSPropertyOp44
 70
     1
102
RTVSPropertyOp45
 70
     1
102
RTVSPropertyOp46
 70
     1
102
RTVSPropertyOp47
 70
     1
102
RTVSPropertyOp48
 70
     1
102
RTVSPropertyOp49
 70
     1
102
RTVSPropertyOp50
 70
     1
102
RTVSPropertyOp51
 70
     0
102
RTVSPropertyOp52
 70
     0
102
RTVSPropertyOp53
 70
     1
102
RTVSPropertyOp54
 70
     1
102
RTVSPropertyOp55
 70
     1
102
RTVSPropertyOp56
 70
     1
102
RTVSPropertyOp57
 70
     1
102
RTVSPost2010Prop28
280
     0
102
RTVSPost2010PropOp28
 70
     1
102
RTVSPost2010Prop29
280
     1
102
RTVSPost2010PropOp29
 70
     1
102
RTVSPost2010Prop30
280
     1
102
RTVSPost2010PropOp30
 70
     1
102
RTVSPost2010Prop31
280
     0
102
RTVSPost2010PropOp31
 70
     1
102
RTVSPost2010Prop32
280
     0
102
RTVSPost2010PropOp32
 70
     1
102
RTVSPost2010Prop33
280
     0
102
RTVSPost2010PropOp33
 70
     1
102
RTVSPost2010Prop34
280
     0
102
RTVSPost2010PropOp34
 70
     1
102
RTVSPost2010Prop35
280
     0
102
RTVSPost2010PropOp35
 70
     1
102
RTVSPost2010Prop36
280
     0
102
RTVSPost2010PropOp36
 70
     1
102
RTVSPost2010Prop37
 90
       50
102
RTVSPost2010PropOp37
 70
     1
102
RTVSPost2010Prop38
140
0.0
102
RTVSPost2010PropOp38
 70
     1
102
RTVSPost2010Prop39
140
1.0
102
RTVSPost2010PropOp39
 70
     1
102
RTVSPost2010Prop40
 90
        0
102
RTVSPost2010PropOp40
 70
     1
102
RTVSPost2010Prop41ColorIndex
 90
      178
102
RTVSPost2010Prop41ColorRGB
 90
        0
102
RTVSPost2010PropOp41
 70
     1
102
RTVSPost2010Prop42
 90
       50
102
RTVSPost2010PropOp42
 70
     1
102
RTVSPost2010Prop43
 90
        3
102
RTVSPost2010PropOp43
 70
     1
102
RTVSPost2010Prop44ColorIndex
 90
        5
102
RTVSPost2010Prop44ColorRGB
 90
      255
102
RTVSPost2010PropOp44
 70
     1
102
RTVSPost2010Prop45
280
     0
102
RTVSPost2010PropOp45
 70
     1
102
RTVSPost2010Prop46
 90
       50
102
RTVSPost2010PropOp46
 70
     1
102
RTVSPost2010Prop47
 90
       50
102
RTVSPost2010PropOp47
 70
     1
102
RTVSPost2010Prop48
 90
       50
102
RTVSPost2010PropOp48
 70
     1
102
RTVSPost2010Prop49
280
     0
102
RTVSPost2010PropOp49
 70
     1
102
RTVSPost2010Prop50
 90
       50
102
RTVSPost2010PropOp50
 70
     1
102
RTVSPost2010Prop51ColorIndex
 90
      256
102
RTVSPost2010Prop51ColorRGB
 90
-16777216
102
RTVSPost2010PropOp51
 70
     0
102
RTVSPost2010Prop52
140
1.0
102
RTVSPost2010PropOp52
 70
     0
102
RTVSPost2010Prop53
 90
        2
102
RTVSPost2010PropOp53
 70
     1
102
RTVSPost2010Prop54
  1
strokes_ogs.tif
102
RTVSPost2010PropOp54
 70
     1
102
RTVSPost2010Prop55
280
     0
102
RTVSPost2010PropOp55
 70
     1
102
RTVSPost2010Prop56
140
1.0
102
RTVSPost2010PropOp56
 70
     1
102
RTVSPost2010Prop57
140
1.0
102
RTVSPost2010PropOp57
 70
     1
  0
ENDSEC
  0
EOF
